  0
SECTION
  2
HEADER
  9
$ACADVER
  1
AC1006
  9
$EXTMIN
 10
5.159440
 20
0.365200
  9
$EXTMAX
 10
7.856640
 20
4.373160
  9
$LTSCALE
 40
0.044000
  9
$PDMODE
 70
    35
  9
$PDSIZE
 40
0.035200
  0
ENDSEC
  0
SECTION
  2
TABLES
  0
TABLE
  2
LTYPE
 70
     9
  0
LTYPE
  2
CONTINUOUS
 70
    64
  3
Solid line
 72
    65
 73
     0
 40
0.000000
  0
LTYPE
  2
DASHED
 70
    64
  3
__ __ __ __ __ __ __ __ __ __ __ __ __ __ __
 72
    65
 73
     2
 40
0.000330
 49
0.000220
 49
-0.000110
  0
LTYPE
  2
HIDDEN
 70
    64
  3
 _ _ _ _ _ _ _ _ _ _ _ _ _ _ _ _ _ _ _ _ _ _
 72
    65
 73
     2
 40
0.000165
 49
0.000110
 49
-0.000055
  0
LTYPE
  2
CENTER
 70
    64
  3
____ _ ____ _ ____ _ ____ _ ____ _ ____ _ ____
 72
    65
 73
     4
 40
0.000880
 49
0.000550
 49
-0.000110
 49
0.000110
 49
-0.000110
  0
LTYPE
  2
PHANTOM
 70
    64
  3
_____ _ _ _____ _ _ _____ _ _ _____ _ _ ____
 72
    65
 73
     6
 40
0.001100
 49
0.000550
 49
-0.000110
 49
0.000110
 49
-0.000110
 49
0.000110
 49
-0.000110
  0
LTYPE
  2
DOT
 70
    64
  3
...............................................
 72
    65
 73
     2
 40
0.000110
 49
0.000000
 49
-0.000110
  0
LTYPE
  2
DASHDOT
 70
    64
  3
__ . __ . __ . __ . __ . __ . __ . __ . __ . __
 72
    65
 73
     4
 40
0.000440
 49
0.000220
 49
-0.000110
 49
0.000000
 49
-0.000110
  0
LTYPE
  2
BORDER
 70
    64
  3
__ __ . __ __ . __ __ . __ __ . __ __ . __ __
 72
    65
 73
     6
 40
0.000770
 49
0.000220
 49
-0.000110
 49
0.000220
 49
-0.000110
 49
0.000000
 49
-0.000110
  0
LTYPE
  2
DIVIDE
 70
    64
  3
__ . . __ . . __ . . __ . . __ . . __ . . __
 72
    65
 73
     6
 40
0.000550
 49
0.000220
 49
-0.000110
 49
0.000000
 49
-0.000110
 49
0.000000
 49
-0.000110
  0
LTYPE
  2
DOTDOT
 70
    64
  3
 . .  . .  . .  . .  . .  . . 
 72
    65
 73
     5
 40
0.000242
 49
-0.000110
 49
0.000000
 49
-0.000110
 49
0.000000
 49
-0.000110
  0
ENDTAB
  0
TABLE
  2
STYLE
 70
     2
  0
STYLE
 70
     0
  2
SN0
 40
0.000000
 41
0.000440
 50
0.000000
 71
     0
 42
0.000000
  3
ROMAND
  0
STYLE
 70
    68
  2
SV0
 40
0.000000
 41
0.000440
 50
0.000000
 71
     0
 42
0.000000
  3
ROMAND
  0
ENDTAB
  0
TABLE
  2
LAYER
 70
     3
  0
LAYER
  2
FOREGROUND
 70
    64
 62
     7
  6
CONTINUOUS
  0
LAYER
  2
BACKGROUND
 70
    65
 62
    -7
  6
CONTINUOUS
  0
LAYER
  2
0
 70
    64
 62
     7
  6
CONTINUOUS
  0
ENDTAB
  0
ENDSEC
  0
SECTION
  2
ENTITIES
  0
POLYLINE
  8
FOREGROUND
  6
CONTINUOUS
 66
     1
 40
0.000000
 41
0.000000
  0
VERTEX
  8
FOREGROUND
  6
CONTINUOUS
 10
0.000000
 20
4.738360
  0
VERTEX
  8
FOREGROUND
  6
CONTINUOUS
 10
8.499920
 20
4.738360
  0
VERTEX
  8
FOREGROUND
  6
CONTINUOUS
 10
8.499920
 20
-6.261640
  0
VERTEX
  8
FOREGROUND
  6
CONTINUOUS
 10
0.000000
 20
-6.261640
  0
VERTEX
  8
FOREGROUND
  6
CONTINUOUS
 10
0.000000
 20
4.738360
  0
SEQEND
  8
0
  0
POLYLINE
  8
0
  6
CONTINUOUS
 66
     1
 40
0.014080
 41
0.014080
  0
VERTEX
  8
0
  6
CONTINUOUS
 10
6.594280
 20
2.851200
  0
VERTEX
  8
0
  6
CONTINUOUS
 10
6.594280
 20
3.383600
  0
VERTEX
  8
0
  6
CONTINUOUS
 10
6.817800
 20
3.383600
  0
VERTEX
  8
0
  6
CONTINUOUS
 10
6.817800
 20
3.796760
  0
VERTEX
  8
0
  6
CONTINUOUS
 10
6.709120
 20
3.796760
  0
VERTEX
  8
0
  6
CONTINUOUS
 10
6.706480
 20
3.913800
  0
VERTEX
  8
0
  6
CONTINUOUS
 10
6.701640
 20
3.982440
  0
VERTEX
  8
0
  6
CONTINUOUS
 10
6.690640
 20
4.071760
  0
VERTEX
  8
0
  6
CONTINUOUS
 10
6.675680
 20
4.147000
  0
VERTEX
  8
0
  6
CONTINUOUS
 10
6.663800
 20
4.189240
  0
VERTEX
  8
0
  6
CONTINUOUS
 10
6.644000
 20
4.242480
  0
VERTEX
  8
0
  6
CONTINUOUS
 10
6.622000
 20
4.284720
  0
VERTEX
  8
0
  6
CONTINUOUS
 10
6.599120
 20
4.316400
  0
VERTEX
  8
0
  6
CONTINUOUS
 10
6.575360
 20
4.339280
  0
VERTEX
  8
0
  6
CONTINUOUS
 10
6.552040
 20
4.354240
  0
VERTEX
  8
0
  6
CONTINUOUS
 10
6.537080
 20
4.360840
  0
VERTEX
  8
0
  6
CONTINUOUS
 10
6.522560
 20
4.364800
  0
VERTEX
  8
0
  6
CONTINUOUS
 10
6.523000
 20
4.365680
  0
VERTEX
  8
0
  6
CONTINUOUS
 10
6.501000
 20
4.358640
  0
VERTEX
  8
0
  6
CONTINUOUS
 10
6.478120
 20
4.345880
  0
VERTEX
  8
0
  6
CONTINUOUS
 10
6.454360
 20
4.325640
  0
VERTEX
  8
0
  6
CONTINUOUS
 10
6.431040
 20
4.297040
  0
VERTEX
  8
0
  6
CONTINUOUS
 10
6.408600
 20
4.258760
  0
VERTEX
  8
0
  6
CONTINUOUS
 10
6.388360
 20
4.209480
  0
VERTEX
  8
0
  6
CONTINUOUS
 10
6.375600
 20
4.169880
  0
VERTEX
  8
0
  6
CONTINUOUS
 10
6.359760
 20
4.099480
  0
VERTEX
  8
0
  6
CONTINUOUS
 10
6.350960
 20
4.044480
  0
VERTEX
  8
0
  6
CONTINUOUS
 10
6.343920
 20
3.983320
  0
VERTEX
  8
0
  6
CONTINUOUS
 10
6.339080
 20
3.914680
  0
VERTEX
  8
0
  6
CONTINUOUS
 10
6.336440
 20
3.797640
  0
VERTEX
  8
0
  6
CONTINUOUS
 10
6.227760
 20
3.797640
  0
VERTEX
  8
0
  6
CONTINUOUS
 10
6.227760
 20
3.384480
  0
VERTEX
  8
0
  6
CONTINUOUS
 10
6.451280
 20
3.384480
  0
VERTEX
  8
0
  6
CONTINUOUS
 10
6.451280
 20
2.852080
  0
VERTEX
  8
0
  6
CONTINUOUS
 10
6.594280
 20
2.851200
  0
SEQEND
  8
0
  0
SOLID
  8
0
 62
     7
 10
5.576120
 20
2.020920
 11
6.209280
 21
2.382160
 12
5.589760
 22
1.986600
 13
6.222920
 23
2.348280
  0
POLYLINE
  8
0
  6
CONTINUOUS
 66
     1
 40
0.000000
 41
0.000000
  0
VERTEX
  8
0
  6
CONTINUOUS
 10
5.576120
 20
2.020920
  0
VERTEX
  8
0
  6
CONTINUOUS
 10
6.209280
 20
2.382160
  0
VERTEX
  8
0
  6
CONTINUOUS
 10
6.222920
 20
2.348280
  0
VERTEX
  8
0
  6
CONTINUOUS
 10
5.589760
 20
1.986600
  0
VERTEX
  8
0
  6
CONTINUOUS
 10
5.576120
 20
2.020920
  0
SEQEND
  8
0
  0
SOLID
  8
0
 62
    15
 10
5.425640
 20
2.133560
 11
6.058800
 21
2.494800
 12
5.455120
 22
2.144120
 13
6.088280
 23
2.505360
  0
POLYLINE
  8
0
  6
CONTINUOUS
 66
     1
 40
0.000000
 41
0.000000
  0
VERTEX
  8
0
  6
CONTINUOUS
 10
5.425640
 20
2.133560
  0
VERTEX
  8
0
  6
CONTINUOUS
 10
6.058800
 20
2.494800
  0
VERTEX
  8
0
  6
CONTINUOUS
 10
6.088280
 20
2.505360
  0
VERTEX
  8
0
  6
CONTINUOUS
 10
5.455120
 20
2.144120
  0
VERTEX
  8
0
  6
CONTINUOUS
 10
5.425640
 20
2.133560
  0
SEQEND
  8
0
  0
SOLID
  8
0
 62
    15
 10
5.455120
 20
2.144120
 11
6.088280
 21
2.505360
 12
5.455120
 22
2.143240
 13
6.088280
 23
2.504480
  0
POLYLINE
  8
0
  6
CONTINUOUS
 66
     1
 40
0.000000
 41
0.000000
  0
VERTEX
  8
0
  6
CONTINUOUS
 10
5.455120
 20
2.144120
  0
VERTEX
  8
0
  6
CONTINUOUS
 10
6.088280
 20
2.505360
  0
VERTEX
  8
0
  6
CONTINUOUS
 10
6.088280
 20
2.504480
  0
VERTEX
  8
0
  6
CONTINUOUS
 10
5.455120
 20
2.143240
  0
VERTEX
  8
0
  6
CONTINUOUS
 10
5.455120
 20
2.144120
  0
SEQEND
  8
0
  0
SOLID
  8
0
 62
    15
 10
5.455120
 20
2.143240
 11
6.088280
 21
2.504480
 12
5.484600
 22
2.132680
 13
6.117760
 23
2.493920
  0
POLYLINE
  8
0
  6
CONTINUOUS
 66
     1
 40
0.000000
 41
0.000000
  0
VERTEX
  8
0
  6
CONTINUOUS
 10
5.455120
 20
2.143240
  0
VERTEX
  8
0
  6
CONTINUOUS
 10
6.088280
 20
2.504480
  0
VERTEX
  8
0
  6
CONTINUOUS
 10
6.117760
 20
2.493920
  0
VERTEX
  8
0
  6
CONTINUOUS
 10
5.484600
 20
2.132680
  0
VERTEX
  8
0
  6
CONTINUOUS
 10
5.455120
 20
2.143240
  0
SEQEND
  8
0
  0
SOLID
  8
0
 62
    15
 10
5.484600
 20
2.132680
 11
6.117760
 21
2.493920
 12
5.500000
 22
2.123440
 13
6.133160
 23
2.484680
  0
POLYLINE
  8
0
  6
CONTINUOUS
 66
     1
 40
0.000000
 41
0.000000
  0
VERTEX
  8
0
  6
CONTINUOUS
 10
5.484600
 20
2.132680
  0
VERTEX
  8
0
  6
CONTINUOUS
 10
6.117760
 20
2.493920
  0
VERTEX
  8
0
  6
CONTINUOUS
 10
6.133160
 20
2.484680
  0
VERTEX
  8
0
  6
CONTINUOUS
 10
5.500000
 20
2.123440
  0
VERTEX
  8
0
  6
CONTINUOUS
 10
5.484600
 20
2.132680
  0
SEQEND
  8
0
  0
SOLID
  8
0
 62
    15
 10
5.500000
 20
2.123440
 11
6.133160
 21
2.484680
 12
5.515400
 22
2.110680
 13
6.148560
 23
2.471920
  0
POLYLINE
  8
0
  6
CONTINUOUS
 66
     1
 40
0.000000
 41
0.000000
  0
VERTEX
  8
0
  6
CONTINUOUS
 10
5.500000
 20
2.123440
  0
VERTEX
  8
0
  6
CONTINUOUS
 10
6.133160
 20
2.484680
  0
VERTEX
  8
0
  6
CONTINUOUS
 10
6.148560
 20
2.471920
  0
VERTEX
  8
0
  6
CONTINUOUS
 10
5.515400
 20
2.110680
  0
VERTEX
  8
0
  6
CONTINUOUS
 10
5.500000
 20
2.123440
  0
SEQEND
  8
0
  0
SOLID
  8
0
 62
    15
 10
5.515400
 20
2.110680
 11
6.148560
 21
2.471920
 12
5.531240
 22
2.094400
 13
6.164400
 23
2.456080
  0
POLYLINE
  8
0
  6
CONTINUOUS
 66
     1
 40
0.000000
 41
0.000000
  0
VERTEX
  8
0
  6
CONTINUOUS
 10
5.515400
 20
2.110680
  0
VERTEX
  8
0
  6
CONTINUOUS
 10
6.148560
 20
2.471920
  0
VERTEX
  8
0
  6
CONTINUOUS
 10
6.164400
 20
2.456080
  0
VERTEX
  8
0
  6
CONTINUOUS
 10
5.531240
 20
2.094400
  0
VERTEX
  8
0
  6
CONTINUOUS
 10
5.515400
 20
2.110680
  0
SEQEND
  8
0
  0
SOLID
  8
0
 62
     7
 10
5.531240
 20
2.094400
 11
6.164400
 21
2.456080
 12
5.546640
 22
2.074600
 13
6.179800
 23
2.435840
  0
POLYLINE
  8
0
  6
CONTINUOUS
 66
     1
 40
0.000000
 41
0.000000
  0
VERTEX
  8
0
  6
CONTINUOUS
 10
5.531240
 20
2.094400
  0
VERTEX
  8
0
  6
CONTINUOUS
 10
6.164400
 20
2.456080
  0
VERTEX
  8
0
  6
CONTINUOUS
 10
6.179800
 20
2.435840
  0
VERTEX
  8
0
  6
CONTINUOUS
 10
5.546640
 20
2.074600
  0
VERTEX
  8
0
  6
CONTINUOUS
 10
5.531240
 20
2.094400
  0
SEQEND
  8
0
  0
SOLID
  8
0
 62
     7
 10
5.546640
 20
2.074600
 11
6.179800
 21
2.435840
 12
5.561600
 22
2.049960
 13
6.194760
 23
2.411640
  0
POLYLINE
  8
0
  6
CONTINUOUS
 66
     1
 40
0.000000
 41
0.000000
  0
VERTEX
  8
0
  6
CONTINUOUS
 10
5.546640
 20
2.074600
  0
VERTEX
  8
0
  6
CONTINUOUS
 10
6.179800
 20
2.435840
  0
VERTEX
  8
0
  6
CONTINUOUS
 10
6.194760
 20
2.411640
  0
VERTEX
  8
0
  6
CONTINUOUS
 10
5.561600
 20
2.049960
  0
VERTEX
  8
0
  6
CONTINUOUS
 10
5.546640
 20
2.074600
  0
SEQEND
  8
0
  0
SOLID
  8
0
 62
     7
 10
5.561600
 20
2.049960
 11
6.194760
 21
2.411640
 12
5.576120
 22
2.020920
 13
6.209280
 23
2.382160
  0
POLYLINE
  8
0
  6
CONTINUOUS
 66
     1
 40
0.000000
 41
0.000000
  0
VERTEX
  8
0
  6
CONTINUOUS
 10
5.561600
 20
2.049960
  0
VERTEX
  8
0
  6
CONTINUOUS
 10
6.194760
 20
2.411640
  0
VERTEX
  8
0
  6
CONTINUOUS
 10
6.209280
 20
2.382160
  0
VERTEX
  8
0
  6
CONTINUOUS
 10
5.576120
 20
2.020920
  0
VERTEX
  8
0
  6
CONTINUOUS
 10
5.561600
 20
2.049960
  0
SEQEND
  8
0
  0
SOLID
  8
0
 62
    15
 10
5.160320
 20
1.575640
 11
5.793480
 21
1.937320
 12
5.269000
 22
1.575640
 13
5.902160
 23
1.937320
  0
POLYLINE
  8
0
  6
CONTINUOUS
 66
     1
 40
0.000000
 41
0.000000
  0
VERTEX
  8
0
  6
CONTINUOUS
 10
5.160320
 20
1.575640
  0
VERTEX
  8
0
  6
CONTINUOUS
 10
5.793480
 20
1.937320
  0
VERTEX
  8
0
  6
CONTINUOUS
 10
5.902160
 20
1.937320
  0
VERTEX
  8
0
  6
CONTINUOUS
 10
5.269000
 20
1.575640
  0
VERTEX
  8
0
  6
CONTINUOUS
 10
5.160320
 20
1.575640
  0
SEQEND
  8
0
  0
SOLID
  8
0
 62
     7
 10
5.589760
 20
1.986600
 11
6.222920
 21
2.348280
 12
5.602080
 22
1.947000
 13
6.235240
 23
2.308680
  0
POLYLINE
  8
0
  6
CONTINUOUS
 66
     1
 40
0.000000
 41
0.000000
  0
VERTEX
  8
0
  6
CONTINUOUS
 10
5.589760
 20
1.986600
  0
VERTEX
  8
0
  6
CONTINUOUS
 10
6.222920
 20
2.348280
  0
VERTEX
  8
0
  6
CONTINUOUS
 10
6.235240
 20
2.308680
  0
VERTEX
  8
0
  6
CONTINUOUS
 10
5.602080
 20
1.947000
  0
VERTEX
  8
0
  6
CONTINUOUS
 10
5.589760
 20
1.986600
  0
SEQEND
  8
0
  0
SOLID
  8
0
 62
    15
 10
5.602080
 20
1.947000
 11
6.235240
 21
2.308680
 12
5.613080
 22
1.901680
 13
6.246240
 23
2.263360
  0
POLYLINE
  8
0
  6
CONTINUOUS
 66
     1
 40
0.000000
 41
0.000000
  0
VERTEX
  8
0
  6
CONTINUOUS
 10
5.602080
 20
1.947000
  0
VERTEX
  8
0
  6
CONTINUOUS
 10
6.235240
 20
2.308680
  0
VERTEX
  8
0
  6
CONTINUOUS
 10
6.246240
 20
2.263360
  0
VERTEX
  8
0
  6
CONTINUOUS
 10
5.613080
 20
1.901680
  0
VERTEX
  8
0
  6
CONTINUOUS
 10
5.602080
 20
1.947000
  0
SEQEND
  8
0
  0
SOLID
  8
0
 62
    15
 10
5.613080
 20
1.901680
 11
6.246240
 21
2.263360
 12
5.622760
 22
1.850200
 13
6.255920
 23
2.211880
  0
POLYLINE
  8
0
  6
CONTINUOUS
 66
     1
 40
0.000000
 41
0.000000
  0
VERTEX
  8
0
  6
CONTINUOUS
 10
5.613080
 20
1.901680
  0
VERTEX
  8
0
  6
CONTINUOUS
 10
6.246240
 20
2.263360
  0
VERTEX
  8
0
  6
CONTINUOUS
 10
6.255920
 20
2.211880
  0
VERTEX
  8
0
  6
CONTINUOUS
 10
5.622760
 20
1.850200
  0
VERTEX
  8
0
  6
CONTINUOUS
 10
5.613080
 20
1.901680
  0
SEQEND
  8
0
  0
SOLID
  8
0
 62
    15
 10
5.622760
 20
1.850200
 11
6.255920
 21
2.211880
 12
5.630680
 22
1.792120
 13
6.263840
 23
2.153360
  0
POLYLINE
  8
0
  6
CONTINUOUS
 66
     1
 40
0.000000
 41
0.000000
  0
VERTEX
  8
0
  6
CONTINUOUS
 10
5.622760
 20
1.850200
  0
VERTEX
  8
0
  6
CONTINUOUS
 10
6.255920
 20
2.211880
  0
VERTEX
  8
0
  6
CONTINUOUS
 10
6.263840
 20
2.153360
  0
VERTEX
  8
0
  6
CONTINUOUS
 10
5.630680
 20
1.792120
  0
VERTEX
  8
0
  6
CONTINUOUS
 10
5.622760
 20
1.850200
  0
SEQEND
  8
0
  0
SOLID
  8
0
 62
    15
 10
5.630680
 20
1.792120
 11
6.263840
 21
2.153360
 12
5.636400
 22
1.727000
 13
6.269560
 23
2.088680
  0
POLYLINE
  8
0
  6
CONTINUOUS
 66
     1
 40
0.000000
 41
0.000000
  0
VERTEX
  8
0
  6
CONTINUOUS
 10
5.630680
 20
1.792120
  0
VERTEX
  8
0
  6
CONTINUOUS
 10
6.263840
 20
2.153360
  0
VERTEX
  8
0
  6
CONTINUOUS
 10
6.269560
 20
2.088680
  0
VERTEX
  8
0
  6
CONTINUOUS
 10
5.636400
 20
1.727000
  0
VERTEX
  8
0
  6
CONTINUOUS
 10
5.630680
 20
1.792120
  0
SEQEND
  8
0
  0
SOLID
  8
0
 62
    15
 10
5.636400
 20
1.727000
 11
6.269560
 21
2.088680
 12
5.639920
 22
1.654840
 13
6.273080
 23
2.016520
  0
POLYLINE
  8
0
  6
CONTINUOUS
 66
     1
 40
0.000000
 41
0.000000
  0
VERTEX
  8
0
  6
CONTINUOUS
 10
5.636400
 20
1.727000
  0
VERTEX
  8
0
  6
CONTINUOUS
 10
6.269560
 20
2.088680
  0
VERTEX
  8
0
  6
CONTINUOUS
 10
6.273080
 20
2.016520
  0
VERTEX
  8
0
  6
CONTINUOUS
 10
5.639920
 20
1.654840
  0
VERTEX
  8
0
  6
CONTINUOUS
 10
5.636400
 20
1.727000
  0
SEQEND
  8
0
  0
SOLID
  8
0
 62
    15
 10
5.639920
 20
1.654840
 11
6.273080
 21
2.016520
 12
5.641240
 22
1.575200
 13
6.274400
 23
1.936440
  0
POLYLINE
  8
0
  6
CONTINUOUS
 66
     1
 40
0.000000
 41
0.000000
  0
VERTEX
  8
0
  6
CONTINUOUS
 10
5.639920
 20
1.654840
  0
VERTEX
  8
0
  6
CONTINUOUS
 10
6.273080
 20
2.016520
  0
VERTEX
  8
0
  6
CONTINUOUS
 10
6.274400
 20
1.936440
  0
VERTEX
  8
0
  6
CONTINUOUS
 10
5.641240
 20
1.575200
  0
VERTEX
  8
0
  6
CONTINUOUS
 10
5.639920
 20
1.654840
  0
SEQEND
  8
0
  0
SOLID
  8
0
 62
    15
 10
5.641240
 20
1.575200
 11
6.274400
 21
1.936440
 12
5.749920
 22
1.575200
 13
6.383080
 23
1.936440
  0
POLYLINE
  8
0
  6
CONTINUOUS
 66
     1
 40
0.000000
 41
0.000000
  0
VERTEX
  8
0
  6
CONTINUOUS
 10
5.641240
 20
1.575200
  0
VERTEX
  8
0
  6
CONTINUOUS
 10
6.274400
 20
1.936440
  0
VERTEX
  8
0
  6
CONTINUOUS
 10
6.383080
 20
1.936440
  0
VERTEX
  8
0
  6
CONTINUOUS
 10
5.749920
 20
1.575200
  0
VERTEX
  8
0
  6
CONTINUOUS
 10
5.641240
 20
1.575200
  0
SEQEND
  8
0
  0
SOLID
  8
0
 62
    15
 10
5.526400
 20
1.162040
 11
6.159560
 21
1.523280
 12
5.526400
 22
0.629640
 13
6.159560
 23
0.991320
  0
POLYLINE
  8
0
  6
CONTINUOUS
 66
     1
 40
0.000000
 41
0.000000
  0
VERTEX
  8
0
  6
CONTINUOUS
 10
5.526400
 20
1.162040
  0
VERTEX
  8
0
  6
CONTINUOUS
 10
6.159560
 20
1.523280
  0
VERTEX
  8
0
  6
CONTINUOUS
 10
6.159560
 20
0.991320
  0
VERTEX
  8
0
  6
CONTINUOUS
 10
5.526400
 20
0.629640
  0
VERTEX
  8
0
  6
CONTINUOUS
 10
5.526400
 20
1.162040
  0
SEQEND
  8
0
  0
SOLID
  8
0
 62
    15
 10
5.749920
 20
1.575200
 11
6.383080
 21
1.936440
 12
5.749920
 22
1.162040
 13
6.383080
 23
1.523280
  0
POLYLINE
  8
0
  6
CONTINUOUS
 66
     1
 40
0.000000
 41
0.000000
  0
VERTEX
  8
0
  6
CONTINUOUS
 10
5.749920
 20
1.575200
  0
VERTEX
  8
0
  6
CONTINUOUS
 10
6.383080
 20
1.936440
  0
VERTEX
  8
0
  6
CONTINUOUS
 10
6.383080
 20
1.523280
  0
VERTEX
  8
0
  6
CONTINUOUS
 10
5.749920
 20
1.162040
  0
VERTEX
  8
0
  6
CONTINUOUS
 10
5.749920
 20
1.575200
  0
SEQEND
  8
0
  0
POLYLINE
  8
0
  6
CONTINUOUS
 66
     1
 40
0.000000
 41
0.000000
  0
VERTEX
  8
0
  6
CONTINUOUS
 10
5.383840
 20
0.630520
  0
VERTEX
  8
0
  6
CONTINUOUS
 10
5.383840
 20
1.162920
  0
VERTEX
  8
0
  6
CONTINUOUS
 10
5.160320
 20
1.162920
  0
VERTEX
  8
0
  6
CONTINUOUS
 10
5.160320
 20
1.575640
  0
VERTEX
  8
0
  6
CONTINUOUS
 10
5.269000
 20
1.575640
  0
VERTEX
  8
0
  6
CONTINUOUS
 10
5.269880
 20
1.655720
  0
VERTEX
  8
0
  6
CONTINUOUS
 10
5.273840
 20
1.727880
  0
VERTEX
  8
0
  6
CONTINUOUS
 10
5.279560
 20
1.793000
  0
VERTEX
  8
0
  6
CONTINUOUS
 10
5.287480
 20
1.851080
  0
VERTEX
  8
0
  6
CONTINUOUS
 10
5.297160
 20
1.902560
  0
VERTEX
  8
0
  6
CONTINUOUS
 10
5.308160
 20
1.947880
  0
VERTEX
  8
0
  6
CONTINUOUS
 10
5.320480
 20
1.987480
  0
VERTEX
  8
0
  6
CONTINUOUS
 10
5.334120
 20
2.021800
  0
VERTEX
  8
0
  6
CONTINUOUS
 10
5.348200
 20
2.050840
  0
VERTEX
  8
0
  6
CONTINUOUS
 10
5.363600
 20
2.075480
  0
VERTEX
  8
0
  6
CONTINUOUS
 10
5.379000
 20
2.095280
  0
VERTEX
  8
0
  6
CONTINUOUS
 10
5.394400
 20
2.111560
  0
VERTEX
  8
0
  6
CONTINUOUS
 10
5.410240
 20
2.124320
  0
VERTEX
  8
0
  6
CONTINUOUS
 10
5.425640
 20
2.133560
  0
VERTEX
  8
0
  6
CONTINUOUS
 10
5.455120
 20
2.144120
  0
VERTEX
  8
0
  6
CONTINUOUS
 10
5.455120
 20
2.143240
  0
VERTEX
  8
0
  6
CONTINUOUS
 10
5.484600
 20
2.132680
  0
VERTEX
  8
0
  6
CONTINUOUS
 10
5.500000
 20
2.123440
  0
VERTEX
  8
0
  6
CONTINUOUS
 10
5.515400
 20
2.110680
  0
VERTEX
  8
0
  6
CONTINUOUS
 10
5.531240
 20
2.094400
  0
VERTEX
  8
0
  6
CONTINUOUS
 10
5.546640
 20
2.074600
  0
VERTEX
  8
0
  6
CONTINUOUS
 10
5.561600
 20
2.049960
  0
VERTEX
  8
0
  6
CONTINUOUS
 10
5.576120
 20
2.020920
  0
VERTEX
  8
0
  6
CONTINUOUS
 10
5.589760
 20
1.986600
  0
VERTEX
  8
0
  6
CONTINUOUS
 10
5.602080
 20
1.947000
  0
VERTEX
  8
0
  6
CONTINUOUS
 10
5.613080
 20
1.901680
  0
VERTEX
  8
0
  6
CONTINUOUS
 10
5.622760
 20
1.850200
  0
VERTEX
  8
0
  6
CONTINUOUS
 10
5.630680
 20
1.792120
  0
VERTEX
  8
0
  6
CONTINUOUS
 10
5.636400
 20
1.727000
  0
VERTEX
  8
0
  6
CONTINUOUS
 10
5.639920
 20
1.654840
  0
VERTEX
  8
0
  6
CONTINUOUS
 10
5.641240
 20
1.575200
  0
VERTEX
  8
0
  6
CONTINUOUS
 10
5.749920
 20
1.575200
  0
VERTEX
  8
0
  6
CONTINUOUS
 10
5.749920
 20
1.162040
  0
VERTEX
  8
0
  6
CONTINUOUS
 10
5.526400
 20
1.162040
  0
VERTEX
  8
0
  6
CONTINUOUS
 10
5.526400
 20
0.629640
  0
VERTEX
  8
0
  6
CONTINUOUS
 10
5.383840
 20
0.630520
  0
SEQEND
  8
0
  0
SOLID
  8
0
 62
    15
 10
6.310920
 20
2.158640
 11
6.606160
 21
2.336840
 12
7.560960
 22
2.158640
 13
7.856200
 23
2.336840
  0
POLYLINE
  8
0
  6
CONTINUOUS
 66
     1
 40
0.000000
 41
0.000000
  0
VERTEX
  8
0
  6
CONTINUOUS
 10
6.310920
 20
2.158640
  0
VERTEX
  8
0
  6
CONTINUOUS
 10
6.606160
 20
2.336840
  0
VERTEX
  8
0
  6
CONTINUOUS
 10
7.856200
 20
2.336840
  0
VERTEX
  8
0
  6
CONTINUOUS
 10
7.560960
 20
2.158640
  0
VERTEX
  8
0
  6
CONTINUOUS
 10
6.310920
 20
2.158640
  0
SEQEND
  8
0
  0
SOLID
  8
0
 62
    15
 10
7.560960
 20
2.158640
 11
7.856200
 21
2.336840
 12
7.560960
 22
0.638000
 13
7.856200
 23
0.816200
  0
POLYLINE
  8
0
  6
CONTINUOUS
 66
     1
 40
0.000000
 41
0.000000
  0
VERTEX
  8
0
  6
CONTINUOUS
 10
7.560960
 20
2.158640
  0
VERTEX
  8
0
  6
CONTINUOUS
 10
7.856200
 20
2.336840
  0
VERTEX
  8
0
  6
CONTINUOUS
 10
7.856200
 20
0.816200
  0
VERTEX
  8
0
  6
CONTINUOUS
 10
7.560960
 20
0.638000
  0
VERTEX
  8
0
  6
CONTINUOUS
 10
7.560960
 20
2.158640
  0
SEQEND
  8
0
  0
SOLID
  8
0
 62
    15
 10
6.382640
 20
1.177440
 11
6.677880
 21
1.355640
 12
6.606160
 22
1.177440
 13
6.901400
 23
1.355640
  0
POLYLINE
  8
0
  6
CONTINUOUS
 66
     1
 40
0.000000
 41
0.000000
  0
VERTEX
  8
0
  6
CONTINUOUS
 10
6.382640
 20
1.177440
  0
VERTEX
  8
0
  6
CONTINUOUS
 10
6.677880
 20
1.355640
  0
VERTEX
  8
0
  6
CONTINUOUS
 10
6.901400
 20
1.355640
  0
VERTEX
  8
0
  6
CONTINUOUS
 10
6.606160
 20
1.177440
  0
VERTEX
  8
0
  6
CONTINUOUS
 10
6.382640
 20
1.177440
  0
SEQEND
  8
0
  0
POLYLINE
  8
0
  6
CONTINUOUS
 66
     1
 40
0.000000
 41
0.000000
  0
VERTEX
  8
0
  6
CONTINUOUS
 10
6.382640
 20
0.645040
  0
VERTEX
  8
0
  6
CONTINUOUS
 10
6.382640
 20
1.177440
  0
VERTEX
  8
0
  6
CONTINUOUS
 10
6.606160
 20
1.177440
  0
VERTEX
  8
0
  6
CONTINUOUS
 10
6.606160
 20
1.590600
  0
VERTEX
  8
0
  6
CONTINUOUS
 10
6.497480
 20
1.590600
  0
VERTEX
  8
0
  6
CONTINUOUS
 10
6.496160
 20
1.670240
  0
VERTEX
  8
0
  6
CONTINUOUS
 10
6.492200
 20
1.742840
  0
VERTEX
  8
0
  6
CONTINUOUS
 10
6.486480
 20
1.807520
  0
VERTEX
  8
0
  6
CONTINUOUS
 10
6.478560
 20
1.865600
  0
VERTEX
  8
0
  6
CONTINUOUS
 10
6.468880
 20
1.917080
  0
VERTEX
  8
0
  6
CONTINUOUS
 10
6.457880
 20
1.962840
  0
VERTEX
  8
0
  6
CONTINUOUS
 10
6.431920
 20
2.036320
  0
VERTEX
  8
0
  6
CONTINUOUS
 10
6.402880
 20
2.090000
  0
VERTEX
  8
0
  6
CONTINUOUS
 10
6.371640
 20
2.126080
  0
VERTEX
  8
0
  6
CONTINUOUS
 10
6.340400
 20
2.148080
  0
VERTEX
  8
0
  6
CONTINUOUS
 10
6.310920
 20
2.158640
  0
VERTEX
  8
0
  6
CONTINUOUS
 10
7.560960
 20
2.158640
  0
VERTEX
  8
0
  6
CONTINUOUS
 10
7.560960
 20
0.638000
  0
VERTEX
  8
0
  6
CONTINUOUS
 10
6.390120
 20
0.638000
  0
VERTEX
  8
0
  6
CONTINUOUS
 10
6.382640
 20
0.645040
  0
SEQEND
  8
0
  0
TEXT
  8
0
 10
5.917560
 20
0.406560
 40
0.138146
  1
BA  381A & B 1-1/2"
 41
1.000000
  7
SN0
 71
     0
 72
     5
 11
7.413331
 21
0.406560
  0
TEXT
  8
0
 10
5.555000
 20
0.722920
 40
0.138146
  1
A
 41
1.000000
  7
SN0
 71
     0
 72
     5
 11
5.666020
 21
0.722920
  0
TEXT
  8
0
 10
6.420040
 20
0.713680
 40
0.138146
  1
B
 41
1.000000
  7
SN0
 71
     0
 72
     5
 11
6.531060
 21
0.713680
  0
ENDSEC
  0
EOF
