  0
SECTION
  2
HEADER
  9
$ACADVER
  1
AC1006
  9
$EXTMIN
 10
0.580360
 20
0.393360
  9
$EXTMAX
 10
7.965320
 20
10.164000
  9
$LTSCALE
 40
0.044000
  9
$PDMODE
 70
    35
  9
$PDSIZE
 40
0.035200
  0
ENDSEC
  0
SECTION
  2
TABLES
  0
TABLE
  2
LTYPE
 70
     9
  0
LTYPE
  2
CONTINUOUS
 70
    64
  3
Solid line
 72
    65
 73
     0
 40
0.000000
  0
LTYPE
  2
DASHED
 70
    64
  3
__ __ __ __ __ __ __ __ __ __ __ __ __ __ __
 72
    65
 73
     2
 40
0.000330
 49
0.000220
 49
-0.000110
  0
LTYPE
  2
HIDDEN
 70
    64
  3
 _ _ _ _ _ _ _ _ _ _ _ _ _ _ _ _ _ _ _ _ _ _
 72
    65
 73
     2
 40
0.000165
 49
0.000110
 49
-0.000055
  0
LTYPE
  2
CENTER
 70
    64
  3
____ _ ____ _ ____ _ ____ _ ____ _ ____ _ ____
 72
    65
 73
     4
 40
0.000880
 49
0.000550
 49
-0.000110
 49
0.000110
 49
-0.000110
  0
LTYPE
  2
PHANTOM
 70
    64
  3
_____ _ _ _____ _ _ _____ _ _ _____ _ _ ____
 72
    65
 73
     6
 40
0.001100
 49
0.000550
 49
-0.000110
 49
0.000110
 49
-0.000110
 49
0.000110
 49
-0.000110
  0
LTYPE
  2
DOT
 70
    64
  3
...............................................
 72
    65
 73
     2
 40
0.000110
 49
0.000000
 49
-0.000110
  0
LTYPE
  2
DASHDOT
 70
    64
  3
__ . __ . __ . __ . __ . __ . __ . __ . __ . __
 72
    65
 73
     4
 40
0.000440
 49
0.000220
 49
-0.000110
 49
0.000000
 49
-0.000110
  0
LTYPE
  2
BORDER
 70
    64
  3
__ __ . __ __ . __ __ . __ __ . __ __ . __ __
 72
    65
 73
     6
 40
0.000770
 49
0.000220
 49
-0.000110
 49
0.000220
 49
-0.000110
 49
0.000000
 49
-0.000110
  0
LTYPE
  2
DIVIDE
 70
    64
  3
__ . . __ . . __ . . __ . . __ . . __ . . __
 72
    65
 73
     6
 40
0.000550
 49
0.000220
 49
-0.000110
 49
0.000000
 49
-0.000110
 49
0.000000
 49
-0.000110
  0
LTYPE
  2
DOTDOT
 70
    64
  3
 . .  . .  . .  . .  . .  . . 
 72
    65
 73
     5
 40
0.000242
 49
-0.000110
 49
0.000000
 49
-0.000110
 49
0.000000
 49
-0.000110
  0
ENDTAB
  0
TABLE
  2
STYLE
 70
     2
  0
STYLE
 70
     0
  2
SN0
 40
0.000000
 41
0.000440
 50
0.000000
 71
     0
 42
0.000000
  3
ROMAND
  0
STYLE
 70
    68
  2
SV0
 40
0.000000
 41
0.000440
 50
0.000000
 71
     0
 42
0.000000
  3
ROMAND
  0
ENDTAB
  0
TABLE
  2
LAYER
 70
     3
  0
LAYER
  2
FOREGROUND
 70
    64
 62
     7
  6
CONTINUOUS
  0
LAYER
  2
BACKGROUND
 70
    65
 62
    -7
  6
CONTINUOUS
  0
LAYER
  2
0
 70
    64
 62
     7
  6
CONTINUOUS
  0
ENDTAB
  0
ENDSEC
  0
SECTION
  2
ENTITIES
  0
POLYLINE
  8
FOREGROUND
  6
CONTINUOUS
 66
     1
 40
0.000000
 41
0.000000
  0
VERTEX
  8
FOREGROUND
  6
CONTINUOUS
 10
0.000000
 20
10.557360
  0
VERTEX
  8
FOREGROUND
  6
CONTINUOUS
 10
8.499920
 20
10.557360
  0
VERTEX
  8
FOREGROUND
  6
CONTINUOUS
 10
8.499920
 20
-0.442640
  0
VERTEX
  8
FOREGROUND
  6
CONTINUOUS
 10
0.000000
 20
-0.442640
  0
VERTEX
  8
FOREGROUND
  6
CONTINUOUS
 10
0.000000
 20
10.557360
  0
SEQEND
  8
0
  0
POLYLINE
  8
0
  6
CONTINUOUS
 66
     1
 40
0.014080
 41
0.014080
  0
VERTEX
  8
0
  6
CONTINUOUS
 10
5.681280
 20
10.051360
  0
VERTEX
  8
0
  6
CONTINUOUS
 10
2.841520
 20
10.051360
  0
VERTEX
  8
0
  6
CONTINUOUS
 10
2.841520
 20
9.863920
  0
VERTEX
  8
0
  6
CONTINUOUS
 10
0.588280
 20
9.040680
  0
VERTEX
  8
0
  6
CONTINUOUS
 10
0.588280
 20
8.760400
  0
VERTEX
  8
0
  6
CONTINUOUS
 10
0.636240
 20
8.746320
  0
VERTEX
  8
0
  6
CONTINUOUS
 10
0.677160
 20
8.730920
  0
VERTEX
  8
0
  6
CONTINUOUS
 10
0.727320
 20
8.705400
  0
VERTEX
  8
0
  6
CONTINUOUS
 10
0.753720
 20
8.686040
  0
VERTEX
  8
0
  6
CONTINUOUS
 10
0.775720
 20
8.664920
  0
VERTEX
  8
0
  6
CONTINUOUS
 10
0.801240
 20
8.629280
  0
VERTEX
  8
0
  6
CONTINUOUS
 10
0.819720
 20
8.587480
  0
VERTEX
  8
0
  6
CONTINUOUS
 10
0.833360
 20
8.539520
  0
VERTEX
  8
0
  6
CONTINUOUS
 10
0.854480
 20
8.420280
  0
VERTEX
  8
0
  6
CONTINUOUS
 10
0.876040
 20
8.293560
  0
VERTEX
  8
0
  6
CONTINUOUS
 10
0.887920
 20
8.236360
  0
VERTEX
  8
0
  6
CONTINUOUS
 10
0.902000
 20
8.182240
  0
VERTEX
  8
0
  6
CONTINUOUS
 10
0.926200
 20
8.109200
  0
VERTEX
  8
0
  6
CONTINUOUS
 10
0.954360
 20
8.045400
  0
VERTEX
  8
0
  6
CONTINUOUS
 10
0.974600
 20
8.007560
  0
VERTEX
  8
0
  6
CONTINUOUS
 10
1.006720
 20
7.957840
  0
VERTEX
  8
0
  6
CONTINUOUS
 10
1.041480
 20
7.915600
  0
VERTEX
  8
0
  6
CONTINUOUS
 10
1.077560
 20
7.881280
  0
VERTEX
  8
0
  6
CONTINUOUS
 10
1.114520
 20
7.853560
  0
VERTEX
  8
0
  6
CONTINUOUS
 10
1.151920
 20
7.832000
  0
VERTEX
  8
0
  6
CONTINUOUS
 10
1.177000
 20
7.821000
  0
VERTEX
  8
0
  6
CONTINUOUS
 10
1.201640
 20
7.812200
  0
VERTEX
  8
0
  6
CONTINUOUS
 10
1.225840
 20
7.806040
  0
VERTEX
  8
0
  6
CONTINUOUS
 10
1.225840
 20
7.645880
  0
VERTEX
  8
0
  6
CONTINUOUS
 10
1.363560
 20
7.645880
  0
VERTEX
  8
0
  6
CONTINUOUS
 10
1.393920
 20
6.541920
  0
VERTEX
  8
0
  6
CONTINUOUS
 10
1.495560
 20
6.541920
  0
VERTEX
  8
0
  6
CONTINUOUS
 10
1.495560
 20
6.481200
  0
VERTEX
  8
0
  6
CONTINUOUS
 10
1.498200
 20
6.444680
  0
VERTEX
  8
0
  6
CONTINUOUS
 10
1.501280
 20
6.427520
  0
VERTEX
  8
0
  6
CONTINUOUS
 10
1.506120
 20
6.411240
  0
VERTEX
  8
0
  6
CONTINUOUS
 10
1.518000
 20
6.387920
  0
VERTEX
  8
0
  6
CONTINUOUS
 10
1.535160
 20
6.365920
  0
VERTEX
  8
0
  6
CONTINUOUS
 10
1.559800
 20
6.345680
  0
VERTEX
  8
0
  6
CONTINUOUS
 10
1.592800
 20
6.326760
  0
VERTEX
  8
0
  6
CONTINUOUS
 10
1.635480
 20
6.308720
  0
VERTEX
  8
0
  6
CONTINUOUS
 10
1.688720
 20
6.292440
  0
VERTEX
  8
0
  6
CONTINUOUS
 10
1.688720
 20
6.191240
  0
VERTEX
  8
0
  6
CONTINUOUS
 10
6.850800
 20
6.191240
  0
VERTEX
  8
0
  6
CONTINUOUS
 10
6.839800
 20
6.192120
  0
VERTEX
  8
0
  6
CONTINUOUS
 10
6.857400
 20
6.192120
  0
VERTEX
  8
0
  6
CONTINUOUS
 10
6.857400
 20
6.289360
  0
VERTEX
  8
0
  6
CONTINUOUS
 10
6.926040
 20
6.311360
  0
VERTEX
  8
0
  6
CONTINUOUS
 10
6.953320
 20
6.323240
  0
VERTEX
  8
0
  6
CONTINUOUS
 10
6.986320
 20
6.342600
  0
VERTEX
  8
0
  6
CONTINUOUS
 10
7.003920
 20
6.355800
  0
VERTEX
  8
0
  6
CONTINUOUS
 10
7.023280
 20
6.376920
  0
VERTEX
  8
0
  6
CONTINUOUS
 10
7.032960
 20
6.391880
  0
VERTEX
  8
0
  6
CONTINUOUS
 10
7.040000
 20
6.407720
  0
VERTEX
  8
0
  6
CONTINUOUS
 10
7.045280
 20
6.424000
  0
VERTEX
  8
0
  6
CONTINUOUS
 10
7.050120
 20
6.459200
  0
VERTEX
  8
0
  6
CONTINUOUS
 10
7.051440
 20
6.497040
  0
VERTEX
  8
0
  6
CONTINUOUS
 10
7.051000
 20
6.538400
  0
VERTEX
  8
0
  6
CONTINUOUS
 10
7.152640
 20
6.538400
  0
VERTEX
  8
0
  6
CONTINUOUS
 10
7.183000
 20
7.642360
  0
VERTEX
  8
0
  6
CONTINUOUS
 10
7.320720
 20
7.642360
  0
VERTEX
  8
0
  6
CONTINUOUS
 10
7.320720
 20
7.802960
  0
VERTEX
  8
0
  6
CONTINUOUS
 10
7.344920
 20
7.809120
  0
VERTEX
  8
0
  6
CONTINUOUS
 10
7.369560
 20
7.817920
  0
VERTEX
  8
0
  6
CONTINUOUS
 10
7.406960
 20
7.835520
  0
VERTEX
  8
0
  6
CONTINUOUS
 10
7.444360
 20
7.858840
  0
VERTEX
  8
0
  6
CONTINUOUS
 10
7.481320
 20
7.888760
  0
VERTEX
  8
0
  6
CONTINUOUS
 10
7.516960
 20
7.925720
  0
VERTEX
  8
0
  6
CONTINUOUS
 10
7.550840
 20
7.970160
  0
VERTEX
  8
0
  6
CONTINUOUS
 10
7.582520
 20
8.022960
  0
VERTEX
  8
0
  6
CONTINUOUS
 10
7.611120
 20
8.083680
  0
VERTEX
  8
0
  6
CONTINUOUS
 10
7.628720
 20
8.129440
  0
VERTEX
  8
0
  6
CONTINUOUS
 10
7.644560
 20
8.179160
  0
VERTEX
  8
0
  6
CONTINUOUS
 10
7.658640
 20
8.233280
  0
VERTEX
  8
0
  6
CONTINUOUS
 10
7.675800
 20
8.318200
  0
VERTEX
  8
0
  6
CONTINUOUS
 10
7.709240
 20
8.518400
  0
VERTEX
  8
0
  6
CONTINUOUS
 10
7.722000
 20
8.569000
  0
VERTEX
  8
0
  6
CONTINUOUS
 10
7.732560
 20
8.598920
  0
VERTEX
  8
0
  6
CONTINUOUS
 10
7.745320
 20
8.625760
  0
VERTEX
  8
0
  6
CONTINUOUS
 10
7.761160
 20
8.650400
  0
VERTEX
  8
0
  6
CONTINUOUS
 10
7.780960
 20
8.672400
  0
VERTEX
  8
0
  6
CONTINUOUS
 10
7.805160
 20
8.692640
  0
VERTEX
  8
0
  6
CONTINUOUS
 10
7.850920
 20
8.719480
  0
VERTEX
  8
0
  6
CONTINUOUS
 10
7.888760
 20
8.735320
  0
VERTEX
  8
0
  6
CONTINUOUS
 10
7.933200
 20
8.750280
  0
VERTEX
  8
0
  6
CONTINUOUS
 10
7.958280
 20
8.757320
  0
VERTEX
  8
0
  6
CONTINUOUS
 10
7.958280
 20
9.037600
  0
VERTEX
  8
0
  6
CONTINUOUS
 10
5.704600
 20
9.860400
  0
VERTEX
  8
0
  6
CONTINUOUS
 10
5.704600
 20
10.047840
  0
VERTEX
  8
0
  6
CONTINUOUS
 10
5.701520
 20
10.050480
  0
VERTEX
  8
0
  6
CONTINUOUS
 10
5.642560
 20
10.050480
  0
VERTEX
  8
0
  6
CONTINUOUS
 10
5.681280
 20
10.051360
  0
SEQEND
  8
0
  0
TEXT
  8
0
 10
7.081360
 20
10.012200
 40
0.138382
  1
hand rail
 41
1.000000
  7
SN0
 71
     0
 72
     5
 11
7.721825
 21
10.012200
  0
TEXT
  8
0
 10
7.261320
 20
9.820360
 40
0.138382
  1
379
 41
1.000000
  7
SN0
 71
     0
 72
     5
 11
7.539783
 21
9.820360
  0
SOLID
  8
0
 62
    15
 10
4.498120
 20
7.545560
 11
4.139520
 21
8.220080
 12
4.589200
 22
7.510800
 13
4.230600
 23
8.184880
  0
POLYLINE
  8
0
  6
CONTINUOUS
 66
     1
 40
0.000000
 41
0.000000
  0
VERTEX
  8
0
  6
CONTINUOUS
 10
4.498120
 20
7.545560
  0
VERTEX
  8
0
  6
CONTINUOUS
 10
4.139520
 20
8.220080
  0
VERTEX
  8
0
  6
CONTINUOUS
 10
4.230600
 20
8.184880
  0
VERTEX
  8
0
  6
CONTINUOUS
 10
4.589200
 20
7.510800
  0
VERTEX
  8
0
  6
CONTINUOUS
 10
4.498120
 20
7.545560
  0
SEQEND
  8
0
  0
SOLID
  8
0
 62
    15
 10
2.600400
 20
2.750440
 11
2.241800
 21
3.424960
 12
2.600400
 22
5.590200
 13
2.241800
 23
6.264720
  0
POLYLINE
  8
0
  6
CONTINUOUS
 66
     1
 40
0.000000
 41
0.000000
  0
VERTEX
  8
0
  6
CONTINUOUS
 10
2.600400
 20
2.750440
  0
VERTEX
  8
0
  6
CONTINUOUS
 10
2.241800
 20
3.424960
  0
VERTEX
  8
0
  6
CONTINUOUS
 10
2.241800
 20
6.264720
  0
VERTEX
  8
0
  6
CONTINUOUS
 10
2.600400
 20
5.590200
  0
VERTEX
  8
0
  6
CONTINUOUS
 10
2.600400
 20
2.750440
  0
SEQEND
  8
0
  0
SOLID
  8
0
 62
    15
 10
2.603920
 20
5.613520
 11
2.245320
 21
6.288040
 12
2.791360
 22
5.613520
 13
2.432760
 23
6.288040
  0
POLYLINE
  8
0
  6
CONTINUOUS
 66
     1
 40
0.000000
 41
0.000000
  0
VERTEX
  8
0
  6
CONTINUOUS
 10
2.603920
 20
5.613520
  0
VERTEX
  8
0
  6
CONTINUOUS
 10
2.245320
 20
6.288040
  0
VERTEX
  8
0
  6
CONTINUOUS
 10
2.432760
 20
6.288040
  0
VERTEX
  8
0
  6
CONTINUOUS
 10
2.791360
 20
5.613520
  0
VERTEX
  8
0
  6
CONTINUOUS
 10
2.603920
 20
5.613520
  0
SEQEND
  8
0
  0
SOLID
  8
0
 62
    15
 10
3.614160
 20
7.867200
 11
3.255560
 21
8.541280
 12
3.894440
 22
7.867200
 13
3.535840
 23
8.541280
  0
POLYLINE
  8
0
  6
CONTINUOUS
 66
     1
 40
0.000000
 41
0.000000
  0
VERTEX
  8
0
  6
CONTINUOUS
 10
3.614160
 20
7.867200
  0
VERTEX
  8
0
  6
CONTINUOUS
 10
3.255560
 20
8.541280
  0
VERTEX
  8
0
  6
CONTINUOUS
 10
3.535840
 20
8.541280
  0
VERTEX
  8
0
  6
CONTINUOUS
 10
3.894440
 20
7.867200
  0
VERTEX
  8
0
  6
CONTINUOUS
 10
3.614160
 20
7.867200
  0
SEQEND
  8
0
  0
SOLID
  8
0
 62
    15
 10
2.791360
 20
5.613520
 11
2.432760
 21
6.288040
 12
3.614160
 22
7.867200
 13
3.255560
 23
8.541280
  0
POLYLINE
  8
0
  6
CONTINUOUS
 66
     1
 40
0.000000
 41
0.000000
  0
VERTEX
  8
0
  6
CONTINUOUS
 10
2.791360
 20
5.613520
  0
VERTEX
  8
0
  6
CONTINUOUS
 10
2.432760
 20
6.288040
  0
VERTEX
  8
0
  6
CONTINUOUS
 10
3.255560
 20
8.541280
  0
VERTEX
  8
0
  6
CONTINUOUS
 10
3.614160
 20
7.867200
  0
VERTEX
  8
0
  6
CONTINUOUS
 10
2.791360
 20
5.613520
  0
SEQEND
  8
0
  0
SOLID
  8
0
 62
    15
 10
3.923920
 20
7.778320
 11
3.565320
 21
8.452400
 12
3.959120
 22
7.714080
 13
3.600520
 23
8.388600
  0
POLYLINE
  8
0
  6
CONTINUOUS
 66
     1
 40
0.000000
 41
0.000000
  0
VERTEX
  8
0
  6
CONTINUOUS
 10
3.923920
 20
7.778320
  0
VERTEX
  8
0
  6
CONTINUOUS
 10
3.565320
 20
8.452400
  0
VERTEX
  8
0
  6
CONTINUOUS
 10
3.600520
 20
8.388600
  0
VERTEX
  8
0
  6
CONTINUOUS
 10
3.959120
 20
7.714080
  0
VERTEX
  8
0
  6
CONTINUOUS
 10
3.923920
 20
7.778320
  0
SEQEND
  8
0
  0
SOLID
  8
0
 62
    15
 10
3.959120
 20
7.714080
 11
3.600520
 21
8.388600
 12
4.052840
 22
7.641040
 13
3.694240
 23
8.315560
  0
POLYLINE
  8
0
  6
CONTINUOUS
 66
     1
 40
0.000000
 41
0.000000
  0
VERTEX
  8
0
  6
CONTINUOUS
 10
3.959120
 20
7.714080
  0
VERTEX
  8
0
  6
CONTINUOUS
 10
3.600520
 20
8.388600
  0
VERTEX
  8
0
  6
CONTINUOUS
 10
3.694240
 20
8.315560
  0
VERTEX
  8
0
  6
CONTINUOUS
 10
4.052840
 20
7.641040
  0
VERTEX
  8
0
  6
CONTINUOUS
 10
3.959120
 20
7.714080
  0
SEQEND
  8
0
  0
SOLID
  8
0
 62
    15
 10
4.052840
 20
7.641040
 11
3.694240
 21
8.315560
 12
4.191440
 22
7.607600
 13
3.832840
 23
8.282120
  0
POLYLINE
  8
0
  6
CONTINUOUS
 66
     1
 40
0.000000
 41
0.000000
  0
VERTEX
  8
0
  6
CONTINUOUS
 10
4.052840
 20
7.641040
  0
VERTEX
  8
0
  6
CONTINUOUS
 10
3.694240
 20
8.315560
  0
VERTEX
  8
0
  6
CONTINUOUS
 10
3.832840
 20
8.282120
  0
VERTEX
  8
0
  6
CONTINUOUS
 10
4.191440
 20
7.607600
  0
VERTEX
  8
0
  6
CONTINUOUS
 10
4.052840
 20
7.641040
  0
SEQEND
  8
0
  0
SOLID
  8
0
 62
    15
 10
4.191440
 20
7.607600
 11
3.832840
 21
8.282120
 12
4.282080
 22
7.593080
 13
3.923480
 23
8.267600
  0
POLYLINE
  8
0
  6
CONTINUOUS
 66
     1
 40
0.000000
 41
0.000000
  0
VERTEX
  8
0
  6
CONTINUOUS
 10
4.191440
 20
7.607600
  0
VERTEX
  8
0
  6
CONTINUOUS
 10
3.832840
 20
8.282120
  0
VERTEX
  8
0
  6
CONTINUOUS
 10
3.923480
 20
8.267600
  0
VERTEX
  8
0
  6
CONTINUOUS
 10
4.282080
 20
7.593080
  0
VERTEX
  8
0
  6
CONTINUOUS
 10
4.191440
 20
7.607600
  0
SEQEND
  8
0
  0
SOLID
  8
0
 62
    15
 10
4.282080
 20
7.593080
 11
3.923480
 21
8.267600
 12
4.389880
 22
7.573720
 13
4.031280
 23
8.247800
  0
POLYLINE
  8
0
  6
CONTINUOUS
 66
     1
 40
0.000000
 41
0.000000
  0
VERTEX
  8
0
  6
CONTINUOUS
 10
4.282080
 20
7.593080
  0
VERTEX
  8
0
  6
CONTINUOUS
 10
3.923480
 20
8.267600
  0
VERTEX
  8
0
  6
CONTINUOUS
 10
4.031280
 20
8.247800
  0
VERTEX
  8
0
  6
CONTINUOUS
 10
4.389880
 20
7.573720
  0
VERTEX
  8
0
  6
CONTINUOUS
 10
4.282080
 20
7.593080
  0
SEQEND
  8
0
  0
SOLID
  8
0
 62
    15
 10
4.389880
 20
7.573720
 11
4.031280
 21
8.247800
 12
4.498120
 22
7.545560
 13
4.139520
 23
8.220080
  0
POLYLINE
  8
0
  6
CONTINUOUS
 66
     1
 40
0.000000
 41
0.000000
  0
VERTEX
  8
0
  6
CONTINUOUS
 10
4.389880
 20
7.573720
  0
VERTEX
  8
0
  6
CONTINUOUS
 10
4.031280
 20
8.247800
  0
VERTEX
  8
0
  6
CONTINUOUS
 10
4.139520
 20
8.220080
  0
VERTEX
  8
0
  6
CONTINUOUS
 10
4.498120
 20
7.545560
  0
VERTEX
  8
0
  6
CONTINUOUS
 10
4.389880
 20
7.573720
  0
SEQEND
  8
0
  0
SOLID
  8
0
 62
    15
 10
2.601280
 20
5.551480
 11
2.242680
 21
6.226000
 12
2.601280
 22
5.610440
 13
2.242680
 23
6.284960
  0
POLYLINE
  8
0
  6
CONTINUOUS
 66
     1
 40
0.000000
 41
0.000000
  0
VERTEX
  8
0
  6
CONTINUOUS
 10
2.601280
 20
5.551480
  0
VERTEX
  8
0
  6
CONTINUOUS
 10
2.242680
 20
6.226000
  0
VERTEX
  8
0
  6
CONTINUOUS
 10
2.242680
 20
6.284960
  0
VERTEX
  8
0
  6
CONTINUOUS
 10
2.601280
 20
5.610440
  0
VERTEX
  8
0
  6
CONTINUOUS
 10
2.601280
 20
5.551480
  0
SEQEND
  8
0
  0
SOLID
  8
0
 62
    15
 10
4.589200
 20
7.510800
 11
4.230600
 21
8.184880
 12
4.726040
 22
7.425440
 13
4.367440
 23
8.099960
  0
POLYLINE
  8
0
  6
CONTINUOUS
 66
     1
 40
0.000000
 41
0.000000
  0
VERTEX
  8
0
  6
CONTINUOUS
 10
4.589200
 20
7.510800
  0
VERTEX
  8
0
  6
CONTINUOUS
 10
4.230600
 20
8.184880
  0
VERTEX
  8
0
  6
CONTINUOUS
 10
4.367440
 20
8.099960
  0
VERTEX
  8
0
  6
CONTINUOUS
 10
4.726040
 20
7.425440
  0
VERTEX
  8
0
  6
CONTINUOUS
 10
4.589200
 20
7.510800
  0
SEQEND
  8
0
  0
SOLID
  8
0
 62
    15
 10
4.726040
 20
7.425440
 11
4.367440
 21
8.099960
 12
4.809200
 22
7.328200
 13
4.450600
 23
8.002720
  0
POLYLINE
  8
0
  6
CONTINUOUS
 66
     1
 40
0.000000
 41
0.000000
  0
VERTEX
  8
0
  6
CONTINUOUS
 10
4.726040
 20
7.425440
  0
VERTEX
  8
0
  6
CONTINUOUS
 10
4.367440
 20
8.099960
  0
VERTEX
  8
0
  6
CONTINUOUS
 10
4.450600
 20
8.002720
  0
VERTEX
  8
0
  6
CONTINUOUS
 10
4.809200
 20
7.328200
  0
VERTEX
  8
0
  6
CONTINUOUS
 10
4.726040
 20
7.425440
  0
SEQEND
  8
0
  0
SOLID
  8
0
 62
    15
 10
4.848800
 20
7.229640
 11
4.490200
 21
7.903720
 12
5.009400
 22
7.229640
 13
4.650800
 23
7.903720
  0
POLYLINE
  8
0
  6
CONTINUOUS
 66
     1
 40
0.000000
 41
0.000000
  0
VERTEX
  8
0
  6
CONTINUOUS
 10
4.848800
 20
7.229640
  0
VERTEX
  8
0
  6
CONTINUOUS
 10
4.490200
 20
7.903720
  0
VERTEX
  8
0
  6
CONTINUOUS
 10
4.650800
 20
7.903720
  0
VERTEX
  8
0
  6
CONTINUOUS
 10
5.009400
 20
7.229640
  0
VERTEX
  8
0
  6
CONTINUOUS
 10
4.848800
 20
7.229640
  0
SEQEND
  8
0
  0
SOLID
  8
0
 62
    15
 10
5.009400
 20
7.091920
 11
4.650800
 21
7.766000
 12
6.113360
 22
7.061120
 13
5.754760
 23
7.735640
  0
POLYLINE
  8
0
  6
CONTINUOUS
 66
     1
 40
0.000000
 41
0.000000
  0
VERTEX
  8
0
  6
CONTINUOUS
 10
5.009400
 20
7.091920
  0
VERTEX
  8
0
  6
CONTINUOUS
 10
4.650800
 20
7.766000
  0
VERTEX
  8
0
  6
CONTINUOUS
 10
5.754760
 20
7.735640
  0
VERTEX
  8
0
  6
CONTINUOUS
 10
6.113360
 20
7.061120
  0
VERTEX
  8
0
  6
CONTINUOUS
 10
5.009400
 20
7.091920
  0
SEQEND
  8
0
  0
SOLID
  8
0
 62
    15
 10
6.192560
 20
6.959040
 11
5.833960
 21
7.633120
 12
6.259880
 22
6.941880
 13
5.901280
 23
7.615960
  0
POLYLINE
  8
0
  6
CONTINUOUS
 66
     1
 40
0.000000
 41
0.000000
  0
VERTEX
  8
0
  6
CONTINUOUS
 10
6.192560
 20
6.959040
  0
VERTEX
  8
0
  6
CONTINUOUS
 10
5.833960
 20
7.633120
  0
VERTEX
  8
0
  6
CONTINUOUS
 10
5.901280
 20
7.615960
  0
VERTEX
  8
0
  6
CONTINUOUS
 10
6.259880
 20
6.941880
  0
VERTEX
  8
0
  6
CONTINUOUS
 10
6.192560
 20
6.959040
  0
SEQEND
  8
0
  0
SOLID
  8
0
 62
    15
 10
6.113360
 20
6.959480
 11
5.754760
 21
7.634000
 12
6.192560
 22
6.959040
 13
5.833960
 23
7.633120
  0
POLYLINE
  8
0
  6
CONTINUOUS
 66
     1
 40
0.000000
 41
0.000000
  0
VERTEX
  8
0
  6
CONTINUOUS
 10
6.113360
 20
6.959480
  0
VERTEX
  8
0
  6
CONTINUOUS
 10
5.754760
 20
7.634000
  0
VERTEX
  8
0
  6
CONTINUOUS
 10
5.833960
 20
7.633120
  0
VERTEX
  8
0
  6
CONTINUOUS
 10
6.192560
 20
6.959040
  0
VERTEX
  8
0
  6
CONTINUOUS
 10
6.113360
 20
6.959480
  0
SEQEND
  8
0
  0
SOLID
  8
0
 62
    15
 10
6.459640
 20
6.748720
 11
6.101040
 21
7.423240
 12
6.460960
 22
6.759280
 13
6.101920
 23
7.433800
  0
POLYLINE
  8
0
  6
CONTINUOUS
 66
     1
 40
0.000000
 41
0.000000
  0
VERTEX
  8
0
  6
CONTINUOUS
 10
6.459640
 20
6.748720
  0
VERTEX
  8
0
  6
CONTINUOUS
 10
6.101040
 20
7.423240
  0
VERTEX
  8
0
  6
CONTINUOUS
 10
6.101920
 20
7.433800
  0
VERTEX
  8
0
  6
CONTINUOUS
 10
6.460960
 20
6.759280
  0
VERTEX
  8
0
  6
CONTINUOUS
 10
6.459640
 20
6.748720
  0
SEQEND
  8
0
  0
SOLID
  8
0
 62
    15
 10
6.362840
 20
6.766320
 11
6.003800
 21
7.440840
 12
6.459640
 22
6.766320
 13
6.101040
 23
7.440840
  0
POLYLINE
  8
0
  6
CONTINUOUS
 66
     1
 40
0.000000
 41
0.000000
  0
VERTEX
  8
0
  6
CONTINUOUS
 10
6.362840
 20
6.766320
  0
VERTEX
  8
0
  6
CONTINUOUS
 10
6.003800
 20
7.440840
  0
VERTEX
  8
0
  6
CONTINUOUS
 10
6.101040
 20
7.440840
  0
VERTEX
  8
0
  6
CONTINUOUS
 10
6.459640
 20
6.766320
  0
VERTEX
  8
0
  6
CONTINUOUS
 10
6.362840
 20
6.766320
  0
SEQEND
  8
0
  0
SOLID
  8
0
 62
    15
 10
6.259880
 20
6.941880
 11
5.901280
 21
7.615960
 12
6.316200
 22
6.885120
 13
5.957160
 23
7.559640
  0
POLYLINE
  8
0
  6
CONTINUOUS
 66
     1
 40
0.000000
 41
0.000000
  0
VERTEX
  8
0
  6
CONTINUOUS
 10
6.259880
 20
6.941880
  0
VERTEX
  8
0
  6
CONTINUOUS
 10
5.901280
 20
7.615960
  0
VERTEX
  8
0
  6
CONTINUOUS
 10
5.957160
 20
7.559640
  0
VERTEX
  8
0
  6
CONTINUOUS
 10
6.316200
 20
6.885120
  0
VERTEX
  8
0
  6
CONTINUOUS
 10
6.259880
 20
6.941880
  0
SEQEND
  8
0
  0
SOLID
  8
0
 62
    15
 10
3.611080
 20
0.496760
 11
3.252480
 21
1.171280
 12
2.788280
 22
2.750440
 13
2.429240
 23
3.424960
  0
POLYLINE
  8
0
  6
CONTINUOUS
 66
     1
 40
0.000000
 41
0.000000
  0
VERTEX
  8
0
  6
CONTINUOUS
 10
3.611080
 20
0.496760
  0
VERTEX
  8
0
  6
CONTINUOUS
 10
3.252480
 20
1.171280
  0
VERTEX
  8
0
  6
CONTINUOUS
 10
2.429240
 20
3.424960
  0
VERTEX
  8
0
  6
CONTINUOUS
 10
2.788280
 20
2.750440
  0
VERTEX
  8
0
  6
CONTINUOUS
 10
3.611080
 20
0.496760
  0
SEQEND
  8
0
  0
SOLID
  8
0
 62
    15
 10
2.601280
 20
5.610440
 11
2.242680
 21
6.284960
 12
2.603920
 22
5.613520
 13
2.245320
 23
6.288040
  0
POLYLINE
  8
0
  6
CONTINUOUS
 66
     1
 40
0.000000
 41
0.000000
  0
VERTEX
  8
0
  6
CONTINUOUS
 10
2.601280
 20
5.610440
  0
VERTEX
  8
0
  6
CONTINUOUS
 10
2.242680
 20
6.284960
  0
VERTEX
  8
0
  6
CONTINUOUS
 10
2.245320
 20
6.288040
  0
VERTEX
  8
0
  6
CONTINUOUS
 10
2.603920
 20
5.613520
  0
VERTEX
  8
0
  6
CONTINUOUS
 10
2.601280
 20
5.610440
  0
SEQEND
  8
0
  0
POLYLINE
  8
0
  6
CONTINUOUS
 66
     1
 40
0.000000
 41
0.000000
  0
VERTEX
  8
0
  6
CONTINUOUS
 10
2.601280
 20
5.551480
  0
VERTEX
  8
0
  6
CONTINUOUS
 10
2.601280
 20
5.610440
  0
VERTEX
  8
0
  6
CONTINUOUS
 10
2.603920
 20
5.613520
  0
VERTEX
  8
0
  6
CONTINUOUS
 10
2.791360
 20
5.613520
  0
VERTEX
  8
0
  6
CONTINUOUS
 10
3.614160
 20
7.867200
  0
VERTEX
  8
0
  6
CONTINUOUS
 10
3.894440
 20
7.867200
  0
VERTEX
  8
0
  6
CONTINUOUS
 10
3.923920
 20
7.778320
  0
VERTEX
  8
0
  6
CONTINUOUS
 10
3.959120
 20
7.714080
  0
VERTEX
  8
0
  6
CONTINUOUS
 10
4.052840
 20
7.641040
  0
VERTEX
  8
0
  6
CONTINUOUS
 10
4.191440
 20
7.607600
  0
VERTEX
  8
0
  6
CONTINUOUS
 10
4.282080
 20
7.593080
  0
VERTEX
  8
0
  6
CONTINUOUS
 10
4.389880
 20
7.573720
  0
VERTEX
  8
0
  6
CONTINUOUS
 10
4.498120
 20
7.545560
  0
VERTEX
  8
0
  6
CONTINUOUS
 10
4.589200
 20
7.510800
  0
VERTEX
  8
0
  6
CONTINUOUS
 10
4.726040
 20
7.425440
  0
VERTEX
  8
0
  6
CONTINUOUS
 10
4.809200
 20
7.328200
  0
VERTEX
  8
0
  6
CONTINUOUS
 10
4.848800
 20
7.229640
  0
VERTEX
  8
0
  6
CONTINUOUS
 10
5.009400
 20
7.229640
  0
VERTEX
  8
0
  6
CONTINUOUS
 10
5.009400
 20
7.091920
  0
VERTEX
  8
0
  6
CONTINUOUS
 10
6.113360
 20
7.061120
  0
VERTEX
  8
0
  6
CONTINUOUS
 10
6.113360
 20
6.959480
  0
VERTEX
  8
0
  6
CONTINUOUS
 10
6.192560
 20
6.959040
  0
VERTEX
  8
0
  6
CONTINUOUS
 10
6.259880
 20
6.941880
  0
VERTEX
  8
0
  6
CONTINUOUS
 10
6.316200
 20
6.885120
  0
VERTEX
  8
0
  6
CONTINUOUS
 10
6.340400
 20
6.834960
  0
VERTEX
  8
0
  6
CONTINUOUS
 10
6.362840
 20
6.766320
  0
VERTEX
  8
0
  6
CONTINUOUS
 10
6.459640
 20
6.766320
  0
VERTEX
  8
0
  6
CONTINUOUS
 10
6.459640
 20
6.748720
  0
VERTEX
  8
0
  6
CONTINUOUS
 10
6.460960
 20
6.759280
  0
VERTEX
  8
0
  6
CONTINUOUS
 10
6.460960
 20
1.597640
  0
VERTEX
  8
0
  6
CONTINUOUS
 10
6.359320
 20
1.597640
  0
VERTEX
  8
0
  6
CONTINUOUS
 10
6.337320
 20
1.529000
  0
VERTEX
  8
0
  6
CONTINUOUS
 10
6.312680
 20
1.478840
  0
VERTEX
  8
0
  6
CONTINUOUS
 10
6.256360
 20
1.422080
  0
VERTEX
  8
0
  6
CONTINUOUS
 10
6.189480
 20
1.404920
  0
VERTEX
  8
0
  6
CONTINUOUS
 10
6.110280
 20
1.404480
  0
VERTEX
  8
0
  6
CONTINUOUS
 10
6.110280
 20
1.302840
  0
VERTEX
  8
0
  6
CONTINUOUS
 10
5.006320
 20
1.272040
  0
VERTEX
  8
0
  6
CONTINUOUS
 10
5.006320
 20
1.134760
  0
VERTEX
  8
0
  6
CONTINUOUS
 10
4.845720
 20
1.134760
  0
VERTEX
  8
0
  6
CONTINUOUS
 10
4.806120
 20
1.035760
  0
VERTEX
  8
0
  6
CONTINUOUS
 10
4.722960
 20
0.938520
  0
VERTEX
  8
0
  6
CONTINUOUS
 10
4.586120
 20
0.853160
  0
VERTEX
  8
0
  6
CONTINUOUS
 10
4.495040
 20
0.818400
  0
VERTEX
  8
0
  6
CONTINUOUS
 10
4.386800
 20
0.790680
  0
VERTEX
  8
0
  6
CONTINUOUS
 10
4.279000
 20
0.770880
  0
VERTEX
  8
0
  6
CONTINUOUS
 10
4.188360
 20
0.756360
  0
VERTEX
  8
0
  6
CONTINUOUS
 10
4.049760
 20
0.722920
  0
VERTEX
  8
0
  6
CONTINUOUS
 10
3.956040
 20
0.649880
  0
VERTEX
  8
0
  6
CONTINUOUS
 10
3.920840
 20
0.586080
  0
VERTEX
  8
0
  6
CONTINUOUS
 10
3.891360
 20
0.496760
  0
VERTEX
  8
0
  6
CONTINUOUS
 10
3.611080
 20
0.496760
  0
VERTEX
  8
0
  6
CONTINUOUS
 10
2.788280
 20
2.750440
  0
VERTEX
  8
0
  6
CONTINUOUS
 10
2.600400
 20
2.750440
  0
VERTEX
  8
0
  6
CONTINUOUS
 10
2.600400
 20
5.590200
  0
VERTEX
  8
0
  6
CONTINUOUS
 10
2.601280
 20
5.551480
  0
SEQEND
  8
0
  0
SOLID
  8
0
 62
    15
 10
2.599960
 20
2.748680
 11
2.599960
 21
5.551040
 12
2.241360
 22
3.429800
 13
2.241360
 23
6.225120
  0
POLYLINE
  8
0
  6
CONTINUOUS
 66
     1
 40
0.000000
 41
0.000000
  0
VERTEX
  8
0
  6
CONTINUOUS
 10
2.599960
 20
2.748680
  0
VERTEX
  8
0
  6
CONTINUOUS
 10
2.599960
 20
5.551040
  0
VERTEX
  8
0
  6
CONTINUOUS
 10
2.241360
 20
6.225120
  0
VERTEX
  8
0
  6
CONTINUOUS
 10
2.241360
 20
3.429800
  0
VERTEX
  8
0
  6
CONTINUOUS
 10
2.599960
 20
2.748680
  0
SEQEND
  8
0
  0
TEXT
  8
0
 10
6.688000
 20
4.222680
 40
0.134799
  1
BA  379
 50
90.000660
 41
1.000000
  7
SN0
 71
     0
 72
     5
 11
6.688000
 21
4.799636
  0
TEXT
  8
0
 10
6.879400
 20
3.993000
 40
0.134799
  1
3-7/8" x 7-3/8"
 50
90.000660
 41
1.000000
  7
SN0
 71
     0
 72
     5
 11
6.879400
 21
5.019894
  0
ENDSEC
  0
EOF
