  0
SECTION
  2
HEADER
  9
$ACADVER
  1
AC1006
  9
$EXTMIN
 10
3.711400
 20
0.690360
  9
$EXTMAX
 10
7.588240
 20
4.640240
  9
$LTSCALE
 40
0.044000
  9
$PDMODE
 70
    35
  9
$PDSIZE
 40
0.035200
  0
ENDSEC
  0
SECTION
  2
TABLES
  0
TABLE
  2
LTYPE
 70
     9
  0
LTYPE
  2
CONTINUOUS
 70
    64
  3
Solid line
 72
    65
 73
     0
 40
0.000000
  0
LTYPE
  2
DASHED
 70
    64
  3
__ __ __ __ __ __ __ __ __ __ __ __ __ __ __
 72
    65
 73
     2
 40
0.000330
 49
0.000220
 49
-0.000110
  0
LTYPE
  2
HIDDEN
 70
    64
  3
 _ _ _ _ _ _ _ _ _ _ _ _ _ _ _ _ _ _ _ _ _ _
 72
    65
 73
     2
 40
0.000165
 49
0.000110
 49
-0.000055
  0
LTYPE
  2
CENTER
 70
    64
  3
____ _ ____ _ ____ _ ____ _ ____ _ ____ _ ____
 72
    65
 73
     4
 40
0.000880
 49
0.000550
 49
-0.000110
 49
0.000110
 49
-0.000110
  0
LTYPE
  2
PHANTOM
 70
    64
  3
_____ _ _ _____ _ _ _____ _ _ _____ _ _ ____
 72
    65
 73
     6
 40
0.001100
 49
0.000550
 49
-0.000110
 49
0.000110
 49
-0.000110
 49
0.000110
 49
-0.000110
  0
LTYPE
  2
DOT
 70
    64
  3
...............................................
 72
    65
 73
     2
 40
0.000110
 49
0.000000
 49
-0.000110
  0
LTYPE
  2
DASHDOT
 70
    64
  3
__ . __ . __ . __ . __ . __ . __ . __ . __ . __
 72
    65
 73
     4
 40
0.000440
 49
0.000220
 49
-0.000110
 49
0.000000
 49
-0.000110
  0
LTYPE
  2
BORDER
 70
    64
  3
__ __ . __ __ . __ __ . __ __ . __ __ . __ __
 72
    65
 73
     6
 40
0.000770
 49
0.000220
 49
-0.000110
 49
0.000220
 49
-0.000110
 49
0.000000
 49
-0.000110
  0
LTYPE
  2
DIVIDE
 70
    64
  3
__ . . __ . . __ . . __ . . __ . . __ . . __
 72
    65
 73
     6
 40
0.000550
 49
0.000220
 49
-0.000110
 49
0.000000
 49
-0.000110
 49
0.000000
 49
-0.000110
  0
LTYPE
  2
DOTDOT
 70
    64
  3
 . .  . .  . .  . .  . .  . . 
 72
    65
 73
     5
 40
0.000242
 49
-0.000110
 49
0.000000
 49
-0.000110
 49
0.000000
 49
-0.000110
  0
ENDTAB
  0
TABLE
  2
STYLE
 70
     2
  0
STYLE
 70
     0
  2
SN0
 40
0.000000
 41
0.000440
 50
0.000000
 71
     0
 42
0.000000
  3
ROMAND
  0
STYLE
 70
    68
  2
SV0
 40
0.000000
 41
0.000440
 50
0.000000
 71
     0
 42
0.000000
  3
ROMAND
  0
ENDTAB
  0
TABLE
  2
LAYER
 70
     3
  0
LAYER
  2
FOREGROUND
 70
    64
 62
     7
  6
CONTINUOUS
  0
LAYER
  2
BACKGROUND
 70
    65
 62
    -7
  6
CONTINUOUS
  0
LAYER
  2
0
 70
    64
 62
     7
  6
CONTINUOUS
  0
ENDTAB
  0
ENDSEC
  0
SECTION
  2
ENTITIES
  0
POLYLINE
  8
FOREGROUND
  6
CONTINUOUS
 66
     1
 40
0.000000
 41
0.000000
  0
VERTEX
  8
FOREGROUND
  6
CONTINUOUS
 10
0.000000
 20
5.330600
  0
VERTEX
  8
FOREGROUND
  6
CONTINUOUS
 10
8.499920
 20
5.330600
  0
VERTEX
  8
FOREGROUND
  6
CONTINUOUS
 10
8.499920
 20
-5.669400
  0
VERTEX
  8
FOREGROUND
  6
CONTINUOUS
 10
0.000000
 20
-5.669400
  0
VERTEX
  8
FOREGROUND
  6
CONTINUOUS
 10
0.000000
 20
5.330600
  0
SEQEND
  8
0
  0
POLYLINE
  8
0
  6
CONTINUOUS
 66
     1
 40
0.014080
 41
0.014080
  0
VERTEX
  8
0
  6
CONTINUOUS
 10
3.718880
 20
3.393280
  0
VERTEX
  8
0
  6
CONTINUOUS
 10
3.719320
 20
3.928760
  0
VERTEX
  8
0
  6
CONTINUOUS
 10
3.724160
 20
3.975400
  0
VERTEX
  8
0
  6
CONTINUOUS
 10
3.732520
 20
4.018960
  0
VERTEX
  8
0
  6
CONTINUOUS
 10
3.744840
 20
4.059880
  0
VERTEX
  8
0
  6
CONTINUOUS
 10
3.759800
 20
4.097720
  0
VERTEX
  8
0
  6
CONTINUOUS
 10
3.787520
 20
4.149200
  0
VERTEX
  8
0
  6
CONTINUOUS
 10
3.819200
 20
4.194080
  0
VERTEX
  8
0
  6
CONTINUOUS
 10
3.865840
 20
4.243800
  0
VERTEX
  8
0
  6
CONTINUOUS
 10
3.901920
 20
4.273720
  0
VERTEX
  8
0
  6
CONTINUOUS
 10
3.936680
 20
4.297480
  0
VERTEX
  8
0
  6
CONTINUOUS
 10
3.968800
 20
4.314640
  0
VERTEX
  8
0
  6
CONTINUOUS
 10
3.996960
 20
4.326080
  0
VERTEX
  8
0
  6
CONTINUOUS
 10
5.179680
 20
4.632760
  0
VERTEX
  8
0
  6
CONTINUOUS
 10
5.181000
 20
4.631440
  0
VERTEX
  8
0
  6
CONTINUOUS
 10
6.372520
 20
4.321680
  0
VERTEX
  8
0
  6
CONTINUOUS
 10
6.402000
 20
4.308480
  0
VERTEX
  8
0
  6
CONTINUOUS
 10
6.435440
 20
4.288680
  0
VERTEX
  8
0
  6
CONTINUOUS
 10
6.470640
 20
4.263160
  0
VERTEX
  8
0
  6
CONTINUOUS
 10
6.506720
 20
4.231040
  0
VERTEX
  8
0
  6
CONTINUOUS
 10
6.541480
 20
4.192760
  0
VERTEX
  8
0
  6
CONTINUOUS
 10
6.573160
 20
4.147880
  0
VERTEX
  8
0
  6
CONTINUOUS
 10
6.600880
 20
4.096400
  0
VERTEX
  8
0
  6
CONTINUOUS
 10
6.615840
 20
4.058560
  0
VERTEX
  8
0
  6
CONTINUOUS
 10
6.628160
 20
4.018080
  0
VERTEX
  8
0
  6
CONTINUOUS
 10
6.636520
 20
3.974080
  0
VERTEX
  8
0
  6
CONTINUOUS
 10
6.641360
 20
3.927880
  0
VERTEX
  8
0
  6
CONTINUOUS
 10
6.641800
 20
3.392400
  0
VERTEX
  8
0
  6
CONTINUOUS
 10
3.718880
 20
3.393280
  0
SEQEND
  8
0
  0
SOLID
  8
0
 62
    15
 10
6.744760
 20
2.054800
 11
7.381440
 21
2.413840
 12
6.791840
 22
2.019160
 13
7.428520
 23
2.377760
  0
POLYLINE
  8
0
  6
CONTINUOUS
 66
     1
 40
0.000000
 41
0.000000
  0
VERTEX
  8
0
  6
CONTINUOUS
 10
6.744760
 20
2.054800
  0
VERTEX
  8
0
  6
CONTINUOUS
 10
7.381440
 20
2.413840
  0
VERTEX
  8
0
  6
CONTINUOUS
 10
7.428520
 20
2.377760
  0
VERTEX
  8
0
  6
CONTINUOUS
 10
6.791840
 20
2.019160
  0
VERTEX
  8
0
  6
CONTINUOUS
 10
6.744760
 20
2.054800
  0
SEQEND
  8
0
  0
SOLID
  8
0
 62
    15
 10
4.314640
 20
2.093960
 11
4.951320
 21
2.453000
 12
5.489000
 22
2.398440
 13
6.125680
 23
2.757480
  0
POLYLINE
  8
0
  6
CONTINUOUS
 66
     1
 40
0.000000
 41
0.000000
  0
VERTEX
  8
0
  6
CONTINUOUS
 10
4.314640
 20
2.093960
  0
VERTEX
  8
0
  6
CONTINUOUS
 10
4.951320
 20
2.453000
  0
VERTEX
  8
0
  6
CONTINUOUS
 10
6.125680
 20
2.757480
  0
VERTEX
  8
0
  6
CONTINUOUS
 10
5.489000
 20
2.398440
  0
VERTEX
  8
0
  6
CONTINUOUS
 10
4.314640
 20
2.093960
  0
SEQEND
  8
0
  0
SOLID
  8
0
 62
    15
 10
5.489000
 20
2.398440
 11
6.125680
 21
2.757480
 12
5.490320
 22
2.397120
 13
6.127000
 23
2.756160
  0
POLYLINE
  8
0
  6
CONTINUOUS
 66
     1
 40
0.000000
 41
0.000000
  0
VERTEX
  8
0
  6
CONTINUOUS
 10
5.489000
 20
2.398440
  0
VERTEX
  8
0
  6
CONTINUOUS
 10
6.125680
 20
2.757480
  0
VERTEX
  8
0
  6
CONTINUOUS
 10
6.127000
 20
2.756160
  0
VERTEX
  8
0
  6
CONTINUOUS
 10
5.490320
 20
2.397120
  0
VERTEX
  8
0
  6
CONTINUOUS
 10
5.489000
 20
2.398440
  0
SEQEND
  8
0
  0
SOLID
  8
0
 62
    15
 10
5.490320
 20
2.397120
 11
6.127000
 21
2.756160
 12
6.664680
 22
2.093080
 13
7.301360
 23
2.451680
  0
POLYLINE
  8
0
  6
CONTINUOUS
 66
     1
 40
0.000000
 41
0.000000
  0
VERTEX
  8
0
  6
CONTINUOUS
 10
5.490320
 20
2.397120
  0
VERTEX
  8
0
  6
CONTINUOUS
 10
6.127000
 20
2.756160
  0
VERTEX
  8
0
  6
CONTINUOUS
 10
7.301360
 20
2.451680
  0
VERTEX
  8
0
  6
CONTINUOUS
 10
6.664680
 20
2.093080
  0
VERTEX
  8
0
  6
CONTINUOUS
 10
5.490320
 20
2.397120
  0
SEQEND
  8
0
  0
SOLID
  8
0
 62
    15
 10
6.664680
 20
2.093080
 11
7.301360
 21
2.451680
 12
6.700760
 22
2.079440
 13
7.337880
 23
2.438040
  0
POLYLINE
  8
0
  6
CONTINUOUS
 66
     1
 40
0.000000
 41
0.000000
  0
VERTEX
  8
0
  6
CONTINUOUS
 10
6.664680
 20
2.093080
  0
VERTEX
  8
0
  6
CONTINUOUS
 10
7.301360
 20
2.451680
  0
VERTEX
  8
0
  6
CONTINUOUS
 10
7.337880
 20
2.438040
  0
VERTEX
  8
0
  6
CONTINUOUS
 10
6.700760
 20
2.079440
  0
VERTEX
  8
0
  6
CONTINUOUS
 10
6.664680
 20
2.093080
  0
SEQEND
  8
0
  0
SOLID
  8
0
 62
    15
 10
6.700760
 20
2.079440
 11
7.337880
 21
2.438040
 12
6.744760
 22
2.054800
 13
7.381440
 23
2.413840
  0
POLYLINE
  8
0
  6
CONTINUOUS
 66
     1
 40
0.000000
 41
0.000000
  0
VERTEX
  8
0
  6
CONTINUOUS
 10
6.700760
 20
2.079440
  0
VERTEX
  8
0
  6
CONTINUOUS
 10
7.337880
 20
2.438040
  0
VERTEX
  8
0
  6
CONTINUOUS
 10
7.381440
 20
2.413840
  0
VERTEX
  8
0
  6
CONTINUOUS
 10
6.744760
 20
2.054800
  0
VERTEX
  8
0
  6
CONTINUOUS
 10
6.700760
 20
2.079440
  0
SEQEND
  8
0
  0
SOLID
  8
0
 62
    15
 10
4.278120
 20
2.080320
 11
4.914800
 21
2.439360
 12
4.314640
 22
2.093960
 13
4.951320
 23
2.453000
  0
POLYLINE
  8
0
  6
CONTINUOUS
 66
     1
 40
0.000000
 41
0.000000
  0
VERTEX
  8
0
  6
CONTINUOUS
 10
4.278120
 20
2.080320
  0
VERTEX
  8
0
  6
CONTINUOUS
 10
4.914800
 20
2.439360
  0
VERTEX
  8
0
  6
CONTINUOUS
 10
4.951320
 20
2.453000
  0
VERTEX
  8
0
  6
CONTINUOUS
 10
4.314640
 20
2.093960
  0
VERTEX
  8
0
  6
CONTINUOUS
 10
4.278120
 20
2.080320
  0
SEQEND
  8
0
  0
SOLID
  8
0
 62
    15
 10
6.791840
 20
2.019160
 11
7.428520
 21
2.377760
 12
6.838920
 22
1.972080
 13
7.476040
 23
2.331120
  0
POLYLINE
  8
0
  6
CONTINUOUS
 66
     1
 40
0.000000
 41
0.000000
  0
VERTEX
  8
0
  6
CONTINUOUS
 10
6.791840
 20
2.019160
  0
VERTEX
  8
0
  6
CONTINUOUS
 10
7.428520
 20
2.377760
  0
VERTEX
  8
0
  6
CONTINUOUS
 10
7.476040
 20
2.331120
  0
VERTEX
  8
0
  6
CONTINUOUS
 10
6.838920
 20
1.972080
  0
VERTEX
  8
0
  6
CONTINUOUS
 10
6.791840
 20
2.019160
  0
SEQEND
  8
0
  0
SOLID
  8
0
 62
    15
 10
6.838920
 20
1.972080
 11
7.476040
 21
2.331120
 12
6.882480
 22
1.913560
 13
7.519160
 23
2.272600
  0
POLYLINE
  8
0
  6
CONTINUOUS
 66
     1
 40
0.000000
 41
0.000000
  0
VERTEX
  8
0
  6
CONTINUOUS
 10
6.838920
 20
1.972080
  0
VERTEX
  8
0
  6
CONTINUOUS
 10
7.476040
 20
2.331120
  0
VERTEX
  8
0
  6
CONTINUOUS
 10
7.519160
 20
2.272600
  0
VERTEX
  8
0
  6
CONTINUOUS
 10
6.882480
 20
1.913560
  0
VERTEX
  8
0
  6
CONTINUOUS
 10
6.838920
 20
1.972080
  0
SEQEND
  8
0
  0
SOLID
  8
0
 62
    15
 10
6.882480
 20
1.913560
 11
7.519160
 21
2.272600
 12
6.918120
 22
1.843600
 13
7.554800
 23
2.202640
  0
POLYLINE
  8
0
  6
CONTINUOUS
 66
     1
 40
0.000000
 41
0.000000
  0
VERTEX
  8
0
  6
CONTINUOUS
 10
6.882480
 20
1.913560
  0
VERTEX
  8
0
  6
CONTINUOUS
 10
7.519160
 20
2.272600
  0
VERTEX
  8
0
  6
CONTINUOUS
 10
7.554800
 20
2.202640
  0
VERTEX
  8
0
  6
CONTINUOUS
 10
6.918120
 20
1.843600
  0
VERTEX
  8
0
  6
CONTINUOUS
 10
6.882480
 20
1.913560
  0
SEQEND
  8
0
  0
SOLID
  8
0
 62
    15
 10
6.918120
 20
1.843600
 11
7.554800
 21
2.202640
 12
6.942320
 22
1.762200
 13
7.579000
 23
2.121240
  0
POLYLINE
  8
0
  6
CONTINUOUS
 66
     1
 40
0.000000
 41
0.000000
  0
VERTEX
  8
0
  6
CONTINUOUS
 10
6.918120
 20
1.843600
  0
VERTEX
  8
0
  6
CONTINUOUS
 10
7.554800
 20
2.202640
  0
VERTEX
  8
0
  6
CONTINUOUS
 10
7.579000
 20
2.121240
  0
VERTEX
  8
0
  6
CONTINUOUS
 10
6.942320
 20
1.762200
  0
VERTEX
  8
0
  6
CONTINUOUS
 10
6.918120
 20
1.843600
  0
SEQEND
  8
0
  0
SOLID
  8
0
 62
    15
 10
6.942320
 20
1.762200
 11
7.579000
 21
2.121240
 12
6.951120
 22
1.668920
 13
7.587800
 23
2.027960
  0
POLYLINE
  8
0
  6
CONTINUOUS
 66
     1
 40
0.000000
 41
0.000000
  0
VERTEX
  8
0
  6
CONTINUOUS
 10
6.942320
 20
1.762200
  0
VERTEX
  8
0
  6
CONTINUOUS
 10
7.579000
 20
2.121240
  0
VERTEX
  8
0
  6
CONTINUOUS
 10
7.587800
 20
2.027960
  0
VERTEX
  8
0
  6
CONTINUOUS
 10
6.951120
 20
1.668920
  0
VERTEX
  8
0
  6
CONTINUOUS
 10
6.942320
 20
1.762200
  0
SEQEND
  8
0
  0
SOLID
  8
0
 62
    15
 10
6.951120
 20
1.668920
 11
7.587800
 21
2.027960
 12
6.951120
 22
1.158080
 13
7.587800
 23
1.516680
  0
POLYLINE
  8
0
  6
CONTINUOUS
 66
     1
 40
0.000000
 41
0.000000
  0
VERTEX
  8
0
  6
CONTINUOUS
 10
6.951120
 20
1.668920
  0
VERTEX
  8
0
  6
CONTINUOUS
 10
7.587800
 20
2.027960
  0
VERTEX
  8
0
  6
CONTINUOUS
 10
7.587800
 20
1.516680
  0
VERTEX
  8
0
  6
CONTINUOUS
 10
6.951120
 20
1.158080
  0
VERTEX
  8
0
  6
CONTINUOUS
 10
6.951120
 20
1.668920
  0
SEQEND
  8
0
  0
POLYLINE
  8
0
  6
CONTINUOUS
 66
     1
 40
0.000000
 41
0.000000
  0
VERTEX
  8
0
  6
CONTINUOUS
 10
4.028200
 20
1.158960
  0
VERTEX
  8
0
  6
CONTINUOUS
 10
4.028200
 20
1.670240
  0
VERTEX
  8
0
  6
CONTINUOUS
 10
4.037000
 20
1.763520
  0
VERTEX
  8
0
  6
CONTINUOUS
 10
4.061200
 20
1.844920
  0
VERTEX
  8
0
  6
CONTINUOUS
 10
4.096840
 20
1.914880
  0
VERTEX
  8
0
  6
CONTINUOUS
 10
4.139960
 20
1.972960
  0
VERTEX
  8
0
  6
CONTINUOUS
 10
4.187040
 20
2.020040
  0
VERTEX
  8
0
  6
CONTINUOUS
 10
4.234560
 20
2.055680
  0
VERTEX
  8
0
  6
CONTINUOUS
 10
4.278120
 20
2.080320
  0
VERTEX
  8
0
  6
CONTINUOUS
 10
4.314640
 20
2.093960
  0
VERTEX
  8
0
  6
CONTINUOUS
 10
5.489000
 20
2.398440
  0
VERTEX
  8
0
  6
CONTINUOUS
 10
5.490320
 20
2.397120
  0
VERTEX
  8
0
  6
CONTINUOUS
 10
6.664680
 20
2.093080
  0
VERTEX
  8
0
  6
CONTINUOUS
 10
6.700760
 20
2.079440
  0
VERTEX
  8
0
  6
CONTINUOUS
 10
6.744760
 20
2.054800
  0
VERTEX
  8
0
  6
CONTINUOUS
 10
6.791840
 20
2.019160
  0
VERTEX
  8
0
  6
CONTINUOUS
 10
6.838920
 20
1.972080
  0
VERTEX
  8
0
  6
CONTINUOUS
 10
6.882480
 20
1.913560
  0
VERTEX
  8
0
  6
CONTINUOUS
 10
6.918120
 20
1.843600
  0
VERTEX
  8
0
  6
CONTINUOUS
 10
6.942320
 20
1.762200
  0
VERTEX
  8
0
  6
CONTINUOUS
 10
6.951120
 20
1.668920
  0
VERTEX
  8
0
  6
CONTINUOUS
 10
6.951120
 20
1.158080
  0
VERTEX
  8
0
  6
CONTINUOUS
 10
4.028200
 20
1.158960
  0
SEQEND
  8
0
  0
TEXT
  8
0
 10
5.513640
 20
0.925760
 40
0.138136
  1
BA  378
 41
1.000000
  7
SN0
 71
     0
 72
     5
 11
6.103555
 21
0.925760
  0
TEXT
  8
0
 10
5.427400
 20
0.733920
 40
0.138136
  1
1-1/4" x 3"
 41
1.000000
  7
SN0
 71
     0
 72
     5
 11
6.189529
 21
0.733920
  0
ENDSEC
  0
EOF
