  0
SECTION
  2
HEADER
  9
$ACADVER
  1
AC1006
  9
$EXTMIN
 10
2.891240
 20
3.848680
  9
$EXTMAX
 10
6.110720
 20
6.237880
  9
$LTSCALE
 40
0.044000
  9
$PDMODE
 70
    35
  9
$PDSIZE
 40
0.035200
  0
ENDSEC
  0
SECTION
  2
TABLES
  0
TABLE
  2
LTYPE
 70
     9
  0
LTYPE
  2
CONTINUOUS
 70
    64
  3
Solid line
 72
    65
 73
     0
 40
0.000000
  0
LTYPE
  2
DASHED
 70
    64
  3
__ __ __ __ __ __ __ __ __ __ __ __ __ __ __
 72
    65
 73
     2
 40
0.000330
 49
0.000220
 49
-0.000110
  0
LTYPE
  2
HIDDEN
 70
    64
  3
 _ _ _ _ _ _ _ _ _ _ _ _ _ _ _ _ _ _ _ _ _ _
 72
    65
 73
     2
 40
0.000165
 49
0.000110
 49
-0.000055
  0
LTYPE
  2
CENTER
 70
    64
  3
____ _ ____ _ ____ _ ____ _ ____ _ ____ _ ____
 72
    65
 73
     4
 40
0.000880
 49
0.000550
 49
-0.000110
 49
0.000110
 49
-0.000110
  0
LTYPE
  2
PHANTOM
 70
    64
  3
_____ _ _ _____ _ _ _____ _ _ _____ _ _ ____
 72
    65
 73
     6
 40
0.001100
 49
0.000550
 49
-0.000110
 49
0.000110
 49
-0.000110
 49
0.000110
 49
-0.000110
  0
LTYPE
  2
DOT
 70
    64
  3
...............................................
 72
    65
 73
     2
 40
0.000110
 49
0.000000
 49
-0.000110
  0
LTYPE
  2
DASHDOT
 70
    64
  3
__ . __ . __ . __ . __ . __ . __ . __ . __ . __
 72
    65
 73
     4
 40
0.000440
 49
0.000220
 49
-0.000110
 49
0.000000
 49
-0.000110
  0
LTYPE
  2
BORDER
 70
    64
  3
__ __ . __ __ . __ __ . __ __ . __ __ . __ __
 72
    65
 73
     6
 40
0.000770
 49
0.000220
 49
-0.000110
 49
0.000220
 49
-0.000110
 49
0.000000
 49
-0.000110
  0
LTYPE
  2
DIVIDE
 70
    64
  3
__ . . __ . . __ . . __ . . __ . . __ . . __
 72
    65
 73
     6
 40
0.000550
 49
0.000220
 49
-0.000110
 49
0.000000
 49
-0.000110
 49
0.000000
 49
-0.000110
  0
LTYPE
  2
DOTDOT
 70
    64
  3
 . .  . .  . .  . .  . .  . . 
 72
    65
 73
     5
 40
0.000242
 49
-0.000110
 49
0.000000
 49
-0.000110
 49
0.000000
 49
-0.000110
  0
ENDTAB
  0
TABLE
  2
STYLE
 70
     2
  0
STYLE
 70
     0
  2
SN0
 40
0.000000
 41
0.000440
 50
0.000000
 71
     0
 42
0.000000
  3
ROMAND
  0
STYLE
 70
    68
  2
SV0
 40
0.000000
 41
0.000440
 50
0.000000
 71
     0
 42
0.000000
  3
ROMAND
  0
ENDTAB
  0
TABLE
  2
LAYER
 70
     3
  0
LAYER
  2
FOREGROUND
 70
    64
 62
     7
  6
CONTINUOUS
  0
LAYER
  2
BACKGROUND
 70
    65
 62
    -7
  6
CONTINUOUS
  0
LAYER
  2
0
 70
    64
 62
     7
  6
CONTINUOUS
  0
ENDTAB
  0
ENDSEC
  0
SECTION
  2
ENTITIES
  0
POLYLINE
  8
FOREGROUND
  6
CONTINUOUS
 66
     1
 40
0.000000
 41
0.000000
  0
VERTEX
  8
FOREGROUND
  6
CONTINUOUS
 10
0.000000
 20
10.086560
  0
VERTEX
  8
FOREGROUND
  6
CONTINUOUS
 10
8.499920
 20
10.086560
  0
VERTEX
  8
FOREGROUND
  6
CONTINUOUS
 10
8.499920
 20
-0.913440
  0
VERTEX
  8
FOREGROUND
  6
CONTINUOUS
 10
0.000000
 20
-0.913440
  0
VERTEX
  8
FOREGROUND
  6
CONTINUOUS
 10
0.000000
 20
10.086560
  0
SEQEND
  8
0
  0
POLYLINE
  8
FOREGROUND
  6
CONTINUOUS
 66
     1
 40
0.000000
 41
0.000000
  0
VERTEX
  8
FOREGROUND
  6
CONTINUOUS
 10
0.000000
 20
10.086560
  0
VERTEX
  8
FOREGROUND
  6
CONTINUOUS
 10
8.499920
 20
10.086560
  0
VERTEX
  8
FOREGROUND
  6
CONTINUOUS
 10
8.499920
 20
-0.913440
  0
VERTEX
  8
FOREGROUND
  6
CONTINUOUS
 10
0.000000
 20
-0.913440
  0
VERTEX
  8
FOREGROUND
  6
CONTINUOUS
 10
0.000000
 20
10.086560
  0
SEQEND
  8
0
  0
SOLID
  8
0
 62
    15
 10
5.360080
 20
4.824160
 11
5.995880
 21
5.192440
 12
5.326640
 22
4.789400
 13
5.962440
 23
5.157680
  0
POLYLINE
  8
0
  6
CONTINUOUS
 66
     1
 40
0.000000
 41
0.000000
  0
VERTEX
  8
0
  6
CONTINUOUS
 10
5.360080
 20
4.824160
  0
VERTEX
  8
0
  6
CONTINUOUS
 10
5.995880
 20
5.192440
  0
VERTEX
  8
0
  6
CONTINUOUS
 10
5.962440
 20
5.157680
  0
VERTEX
  8
0
  6
CONTINUOUS
 10
5.326640
 20
4.789400
  0
VERTEX
  8
0
  6
CONTINUOUS
 10
5.360080
 20
4.824160
  0
SEQEND
  8
0
  0
SOLID
  8
0
 62
    15
 10
4.262720
 20
5.866960
 11
4.898520
 21
6.235240
 12
4.349400
 22
5.861240
 13
4.985200
 23
6.229520
  0
POLYLINE
  8
0
  6
CONTINUOUS
 66
     1
 40
0.000000
 41
0.000000
  0
VERTEX
  8
0
  6
CONTINUOUS
 10
4.262720
 20
5.866960
  0
VERTEX
  8
0
  6
CONTINUOUS
 10
4.898520
 20
6.235240
  0
VERTEX
  8
0
  6
CONTINUOUS
 10
4.985200
 20
6.229520
  0
VERTEX
  8
0
  6
CONTINUOUS
 10
4.349400
 20
5.861240
  0
VERTEX
  8
0
  6
CONTINUOUS
 10
4.262720
 20
5.866960
  0
SEQEND
  8
0
  0
SOLID
  8
0
 62
    15
 10
4.349400
 20
5.861240
 11
4.985200
 21
6.229520
 12
4.446200
 22
5.851560
 13
5.082000
 23
6.219840
  0
POLYLINE
  8
0
  6
CONTINUOUS
 66
     1
 40
0.000000
 41
0.000000
  0
VERTEX
  8
0
  6
CONTINUOUS
 10
4.349400
 20
5.861240
  0
VERTEX
  8
0
  6
CONTINUOUS
 10
4.985200
 20
6.229520
  0
VERTEX
  8
0
  6
CONTINUOUS
 10
5.082000
 20
6.219840
  0
VERTEX
  8
0
  6
CONTINUOUS
 10
4.446200
 20
5.851560
  0
VERTEX
  8
0
  6
CONTINUOUS
 10
4.349400
 20
5.861240
  0
SEQEND
  8
0
  0
SOLID
  8
0
 62
    15
 10
4.446200
 20
5.851560
 11
5.082000
 21
6.219840
 12
4.549600
 22
5.837480
 13
5.185400
 23
6.205760
  0
POLYLINE
  8
0
  6
CONTINUOUS
 66
     1
 40
0.000000
 41
0.000000
  0
VERTEX
  8
0
  6
CONTINUOUS
 10
4.446200
 20
5.851560
  0
VERTEX
  8
0
  6
CONTINUOUS
 10
5.082000
 20
6.219840
  0
VERTEX
  8
0
  6
CONTINUOUS
 10
5.185400
 20
6.205760
  0
VERTEX
  8
0
  6
CONTINUOUS
 10
4.549600
 20
5.837480
  0
VERTEX
  8
0
  6
CONTINUOUS
 10
4.446200
 20
5.851560
  0
SEQEND
  8
0
  0
SOLID
  8
0
 62
    15
 10
4.549600
 20
5.837480
 11
5.185400
 21
6.205760
 12
4.768280
 22
5.793920
 13
5.404080
 23
6.162200
  0
POLYLINE
  8
0
  6
CONTINUOUS
 66
     1
 40
0.000000
 41
0.000000
  0
VERTEX
  8
0
  6
CONTINUOUS
 10
4.549600
 20
5.837480
  0
VERTEX
  8
0
  6
CONTINUOUS
 10
5.185400
 20
6.205760
  0
VERTEX
  8
0
  6
CONTINUOUS
 10
5.404080
 20
6.162200
  0
VERTEX
  8
0
  6
CONTINUOUS
 10
4.768280
 20
5.793920
  0
VERTEX
  8
0
  6
CONTINUOUS
 10
4.549600
 20
5.837480
  0
SEQEND
  8
0
  0
SOLID
  8
0
 62
    15
 10
4.768280
 20
5.793920
 11
5.404080
 21
6.162200
 12
4.986960
 22
5.727480
 13
5.622760
 23
6.095760
  0
POLYLINE
  8
0
  6
CONTINUOUS
 66
     1
 40
0.000000
 41
0.000000
  0
VERTEX
  8
0
  6
CONTINUOUS
 10
4.768280
 20
5.793920
  0
VERTEX
  8
0
  6
CONTINUOUS
 10
5.404080
 20
6.162200
  0
VERTEX
  8
0
  6
CONTINUOUS
 10
5.622760
 20
6.095760
  0
VERTEX
  8
0
  6
CONTINUOUS
 10
4.986960
 20
5.727480
  0
VERTEX
  8
0
  6
CONTINUOUS
 10
4.768280
 20
5.793920
  0
SEQEND
  8
0
  0
SOLID
  8
0
 62
    15
 10
4.986960
 20
5.727480
 11
5.622760
 21
6.095760
 12
5.090360
 22
5.684360
 13
5.725720
 23
6.052640
  0
POLYLINE
  8
0
  6
CONTINUOUS
 66
     1
 40
0.000000
 41
0.000000
  0
VERTEX
  8
0
  6
CONTINUOUS
 10
4.986960
 20
5.727480
  0
VERTEX
  8
0
  6
CONTINUOUS
 10
5.622760
 20
6.095760
  0
VERTEX
  8
0
  6
CONTINUOUS
 10
5.725720
 20
6.052640
  0
VERTEX
  8
0
  6
CONTINUOUS
 10
5.090360
 20
5.684360
  0
VERTEX
  8
0
  6
CONTINUOUS
 10
4.986960
 20
5.727480
  0
SEQEND
  8
0
  0
SOLID
  8
0
 62
    15
 10
5.090360
 20
5.684360
 11
5.725720
 21
6.052640
 12
5.186280
 22
5.634200
 13
5.821640
 23
6.002480
  0
POLYLINE
  8
0
  6
CONTINUOUS
 66
     1
 40
0.000000
 41
0.000000
  0
VERTEX
  8
0
  6
CONTINUOUS
 10
5.090360
 20
5.684360
  0
VERTEX
  8
0
  6
CONTINUOUS
 10
5.725720
 20
6.052640
  0
VERTEX
  8
0
  6
CONTINUOUS
 10
5.821640
 20
6.002480
  0
VERTEX
  8
0
  6
CONTINUOUS
 10
5.186280
 20
5.634200
  0
VERTEX
  8
0
  6
CONTINUOUS
 10
5.090360
 20
5.684360
  0
SEQEND
  8
0
  0
SOLID
  8
0
 62
    15
 10
5.186280
 20
5.634200
 11
5.821640
 21
6.002480
 12
5.272080
 22
5.576560
 13
5.907880
 23
5.944840
  0
POLYLINE
  8
0
  6
CONTINUOUS
 66
     1
 40
0.000000
 41
0.000000
  0
VERTEX
  8
0
  6
CONTINUOUS
 10
5.186280
 20
5.634200
  0
VERTEX
  8
0
  6
CONTINUOUS
 10
5.821640
 20
6.002480
  0
VERTEX
  8
0
  6
CONTINUOUS
 10
5.907880
 20
5.944840
  0
VERTEX
  8
0
  6
CONTINUOUS
 10
5.272080
 20
5.576560
  0
VERTEX
  8
0
  6
CONTINUOUS
 10
5.186280
 20
5.634200
  0
SEQEND
  8
0
  0
SOLID
  8
0
 62
    15
 10
5.272080
 20
5.576560
 11
5.907880
 21
5.944840
 12
5.346440
 22
5.511000
 13
5.982240
 23
5.879280
  0
POLYLINE
  8
0
  6
CONTINUOUS
 66
     1
 40
0.000000
 41
0.000000
  0
VERTEX
  8
0
  6
CONTINUOUS
 10
5.272080
 20
5.576560
  0
VERTEX
  8
0
  6
CONTINUOUS
 10
5.907880
 20
5.944840
  0
VERTEX
  8
0
  6
CONTINUOUS
 10
5.982240
 20
5.879280
  0
VERTEX
  8
0
  6
CONTINUOUS
 10
5.346440
 20
5.511000
  0
VERTEX
  8
0
  6
CONTINUOUS
 10
5.272080
 20
5.576560
  0
SEQEND
  8
0
  0
SOLID
  8
0
 62
    15
 10
5.346440
 20
5.511000
 11
5.982240
 21
5.879280
 12
5.406280
 22
5.437080
 13
6.042080
 23
5.805360
  0
POLYLINE
  8
0
  6
CONTINUOUS
 66
     1
 40
0.000000
 41
0.000000
  0
VERTEX
  8
0
  6
CONTINUOUS
 10
5.346440
 20
5.511000
  0
VERTEX
  8
0
  6
CONTINUOUS
 10
5.982240
 20
5.879280
  0
VERTEX
  8
0
  6
CONTINUOUS
 10
6.042080
 20
5.805360
  0
VERTEX
  8
0
  6
CONTINUOUS
 10
5.406280
 20
5.437080
  0
VERTEX
  8
0
  6
CONTINUOUS
 10
5.346440
 20
5.511000
  0
SEQEND
  8
0
  0
SOLID
  8
0
 62
    15
 10
5.406280
 20
5.437080
 11
6.042080
 21
5.805360
 12
5.448960
 22
5.354360
 13
6.084760
 23
5.722200
  0
POLYLINE
  8
0
  6
CONTINUOUS
 66
     1
 40
0.000000
 41
0.000000
  0
VERTEX
  8
0
  6
CONTINUOUS
 10
5.406280
 20
5.437080
  0
VERTEX
  8
0
  6
CONTINUOUS
 10
6.042080
 20
5.805360
  0
VERTEX
  8
0
  6
CONTINUOUS
 10
6.084760
 20
5.722200
  0
VERTEX
  8
0
  6
CONTINUOUS
 10
5.448960
 20
5.354360
  0
VERTEX
  8
0
  6
CONTINUOUS
 10
5.406280
 20
5.437080
  0
SEQEND
  8
0
  0
SOLID
  8
0
 62
    15
 10
5.448960
 20
5.354360
 11
6.084760
 21
5.722200
 12
5.472720
 22
5.261960
 13
6.108520
 23
5.630240
  0
POLYLINE
  8
0
  6
CONTINUOUS
 66
     1
 40
0.000000
 41
0.000000
  0
VERTEX
  8
0
  6
CONTINUOUS
 10
5.448960
 20
5.354360
  0
VERTEX
  8
0
  6
CONTINUOUS
 10
6.084760
 20
5.722200
  0
VERTEX
  8
0
  6
CONTINUOUS
 10
6.108520
 20
5.630240
  0
VERTEX
  8
0
  6
CONTINUOUS
 10
5.472720
 20
5.261960
  0
VERTEX
  8
0
  6
CONTINUOUS
 10
5.448960
 20
5.354360
  0
SEQEND
  8
0
  0
SOLID
  8
0
 62
    15
 10
5.472720
 20
5.261960
 11
6.108520
 21
5.630240
 12
5.474920
 22
5.160320
 13
6.110720
 23
5.528600
  0
POLYLINE
  8
0
  6
CONTINUOUS
 66
     1
 40
0.000000
 41
0.000000
  0
VERTEX
  8
0
  6
CONTINUOUS
 10
5.472720
 20
5.261960
  0
VERTEX
  8
0
  6
CONTINUOUS
 10
6.108520
 20
5.630240
  0
VERTEX
  8
0
  6
CONTINUOUS
 10
6.110720
 20
5.528600
  0
VERTEX
  8
0
  6
CONTINUOUS
 10
5.474920
 20
5.160320
  0
VERTEX
  8
0
  6
CONTINUOUS
 10
5.472720
 20
5.261960
  0
SEQEND
  8
0
  0
SOLID
  8
0
 62
    15
 10
5.474920
 20
5.160320
 11
6.110720
 21
5.528600
 12
5.461720
 22
5.063080
 13
6.097520
 23
5.431360
  0
POLYLINE
  8
0
  6
CONTINUOUS
 66
     1
 40
0.000000
 41
0.000000
  0
VERTEX
  8
0
  6
CONTINUOUS
 10
5.474920
 20
5.160320
  0
VERTEX
  8
0
  6
CONTINUOUS
 10
6.110720
 20
5.528600
  0
VERTEX
  8
0
  6
CONTINUOUS
 10
6.097520
 20
5.431360
  0
VERTEX
  8
0
  6
CONTINUOUS
 10
5.461720
 20
5.063080
  0
VERTEX
  8
0
  6
CONTINUOUS
 10
5.474920
 20
5.160320
  0
SEQEND
  8
0
  0
SOLID
  8
0
 62
    15
 10
5.461720
 20
5.063080
 11
6.097520
 21
5.431360
 12
5.443240
 22
4.983440
 13
6.079040
 23
5.351280
  0
POLYLINE
  8
0
  6
CONTINUOUS
 66
     1
 40
0.000000
 41
0.000000
  0
VERTEX
  8
0
  6
CONTINUOUS
 10
5.461720
 20
5.063080
  0
VERTEX
  8
0
  6
CONTINUOUS
 10
6.097520
 20
5.431360
  0
VERTEX
  8
0
  6
CONTINUOUS
 10
6.079040
 20
5.351280
  0
VERTEX
  8
0
  6
CONTINUOUS
 10
5.443240
 20
4.983440
  0
VERTEX
  8
0
  6
CONTINUOUS
 10
5.461720
 20
5.063080
  0
SEQEND
  8
0
  0
SOLID
  8
0
 62
    15
 10
5.443240
 20
4.983440
 11
6.079040
 21
5.351280
 12
5.419480
 22
4.918320
 13
6.054840
 23
5.286600
  0
POLYLINE
  8
0
  6
CONTINUOUS
 66
     1
 40
0.000000
 41
0.000000
  0
VERTEX
  8
0
  6
CONTINUOUS
 10
5.443240
 20
4.983440
  0
VERTEX
  8
0
  6
CONTINUOUS
 10
6.079040
 20
5.351280
  0
VERTEX
  8
0
  6
CONTINUOUS
 10
6.054840
 20
5.286600
  0
VERTEX
  8
0
  6
CONTINUOUS
 10
5.419480
 20
4.918320
  0
VERTEX
  8
0
  6
CONTINUOUS
 10
5.443240
 20
4.983440
  0
SEQEND
  8
0
  0
SOLID
  8
0
 62
    15
 10
5.419480
 20
4.918320
 11
6.054840
 21
5.286600
 12
5.391320
 22
4.866400
 13
6.027120
 23
5.234240
  0
POLYLINE
  8
0
  6
CONTINUOUS
 66
     1
 40
0.000000
 41
0.000000
  0
VERTEX
  8
0
  6
CONTINUOUS
 10
5.419480
 20
4.918320
  0
VERTEX
  8
0
  6
CONTINUOUS
 10
6.054840
 20
5.286600
  0
VERTEX
  8
0
  6
CONTINUOUS
 10
6.027120
 20
5.234240
  0
VERTEX
  8
0
  6
CONTINUOUS
 10
5.391320
 20
4.866400
  0
VERTEX
  8
0
  6
CONTINUOUS
 10
5.419480
 20
4.918320
  0
SEQEND
  8
0
  0
SOLID
  8
0
 62
    15
 10
5.391320
 20
4.866400
 11
6.027120
 21
5.234240
 12
5.360080
 22
4.824160
 13
5.995880
 23
5.192440
  0
POLYLINE
  8
0
  6
CONTINUOUS
 66
     1
 40
0.000000
 41
0.000000
  0
VERTEX
  8
0
  6
CONTINUOUS
 10
5.391320
 20
4.866400
  0
VERTEX
  8
0
  6
CONTINUOUS
 10
6.027120
 20
5.234240
  0
VERTEX
  8
0
  6
CONTINUOUS
 10
5.995880
 20
5.192440
  0
VERTEX
  8
0
  6
CONTINUOUS
 10
5.360080
 20
4.824160
  0
VERTEX
  8
0
  6
CONTINUOUS
 10
5.391320
 20
4.866400
  0
SEQEND
  8
0
  0
SOLID
  8
0
 62
    15
 10
4.187480
 20
5.869160
 11
4.823280
 21
6.237440
 12
4.262720
 22
5.866960
 13
4.898520
 23
6.235240
  0
POLYLINE
  8
0
  6
CONTINUOUS
 66
     1
 40
0.000000
 41
0.000000
  0
VERTEX
  8
0
  6
CONTINUOUS
 10
4.187480
 20
5.869160
  0
VERTEX
  8
0
  6
CONTINUOUS
 10
4.823280
 20
6.237440
  0
VERTEX
  8
0
  6
CONTINUOUS
 10
4.898520
 20
6.235240
  0
VERTEX
  8
0
  6
CONTINUOUS
 10
4.262720
 20
5.866960
  0
VERTEX
  8
0
  6
CONTINUOUS
 10
4.187480
 20
5.869160
  0
SEQEND
  8
0
  0
SOLID
  8
0
 62
    15
 10
5.326640
 20
4.789400
 11
5.962440
 21
5.157680
 12
5.255800
 22
4.732640
 13
5.891600
 23
5.100920
  0
POLYLINE
  8
0
  6
CONTINUOUS
 66
     1
 40
0.000000
 41
0.000000
  0
VERTEX
  8
0
  6
CONTINUOUS
 10
5.326640
 20
4.789400
  0
VERTEX
  8
0
  6
CONTINUOUS
 10
5.962440
 20
5.157680
  0
VERTEX
  8
0
  6
CONTINUOUS
 10
5.891600
 20
5.100920
  0
VERTEX
  8
0
  6
CONTINUOUS
 10
5.255800
 20
4.732640
  0
VERTEX
  8
0
  6
CONTINUOUS
 10
5.326640
 20
4.789400
  0
SEQEND
  8
0
  0
SOLID
  8
0
 62
    15
 10
5.255800
 20
4.732640
 11
5.891600
 21
5.100920
 12
5.185840
 22
4.676760
 13
5.821640
 23
5.045040
  0
POLYLINE
  8
0
  6
CONTINUOUS
 66
     1
 40
0.000000
 41
0.000000
  0
VERTEX
  8
0
  6
CONTINUOUS
 10
5.255800
 20
4.732640
  0
VERTEX
  8
0
  6
CONTINUOUS
 10
5.891600
 20
5.100920
  0
VERTEX
  8
0
  6
CONTINUOUS
 10
5.821640
 20
5.045040
  0
VERTEX
  8
0
  6
CONTINUOUS
 10
5.185840
 20
4.676760
  0
VERTEX
  8
0
  6
CONTINUOUS
 10
5.255800
 20
4.732640
  0
SEQEND
  8
0
  0
SOLID
  8
0
 62
    15
 10
5.185840
 20
4.676760
 11
5.821640
 21
5.045040
 12
5.153720
 22
4.642880
 13
5.789520
 23
5.011160
  0
POLYLINE
  8
0
  6
CONTINUOUS
 66
     1
 40
0.000000
 41
0.000000
  0
VERTEX
  8
0
  6
CONTINUOUS
 10
5.185840
 20
4.676760
  0
VERTEX
  8
0
  6
CONTINUOUS
 10
5.821640
 20
5.045040
  0
VERTEX
  8
0
  6
CONTINUOUS
 10
5.789520
 20
5.011160
  0
VERTEX
  8
0
  6
CONTINUOUS
 10
5.153720
 20
4.642880
  0
VERTEX
  8
0
  6
CONTINUOUS
 10
5.185840
 20
4.676760
  0
SEQEND
  8
0
  0
SOLID
  8
0
 62
    15
 10
5.153720
 20
4.642880
 11
5.789520
 21
5.011160
 12
5.124240
 22
4.601520
 13
5.760040
 23
4.969800
  0
POLYLINE
  8
0
  6
CONTINUOUS
 66
     1
 40
0.000000
 41
0.000000
  0
VERTEX
  8
0
  6
CONTINUOUS
 10
5.153720
 20
4.642880
  0
VERTEX
  8
0
  6
CONTINUOUS
 10
5.789520
 20
5.011160
  0
VERTEX
  8
0
  6
CONTINUOUS
 10
5.760040
 20
4.969800
  0
VERTEX
  8
0
  6
CONTINUOUS
 10
5.124240
 20
4.601520
  0
VERTEX
  8
0
  6
CONTINUOUS
 10
5.153720
 20
4.642880
  0
SEQEND
  8
0
  0
SOLID
  8
0
 62
    15
 10
5.124240
 20
4.601520
 11
5.760040
 21
4.969800
 12
5.098280
 22
4.550480
 13
5.734080
 23
4.918760
  0
POLYLINE
  8
0
  6
CONTINUOUS
 66
     1
 40
0.000000
 41
0.000000
  0
VERTEX
  8
0
  6
CONTINUOUS
 10
5.124240
 20
4.601520
  0
VERTEX
  8
0
  6
CONTINUOUS
 10
5.760040
 20
4.969800
  0
VERTEX
  8
0
  6
CONTINUOUS
 10
5.734080
 20
4.918760
  0
VERTEX
  8
0
  6
CONTINUOUS
 10
5.098280
 20
4.550480
  0
VERTEX
  8
0
  6
CONTINUOUS
 10
5.124240
 20
4.601520
  0
SEQEND
  8
0
  0
SOLID
  8
0
 62
    15
 10
5.098280
 20
4.550480
 11
5.734080
 21
4.918760
 12
5.077160
 22
4.487120
 13
5.712960
 23
4.855400
  0
POLYLINE
  8
0
  6
CONTINUOUS
 66
     1
 40
0.000000
 41
0.000000
  0
VERTEX
  8
0
  6
CONTINUOUS
 10
5.098280
 20
4.550480
  0
VERTEX
  8
0
  6
CONTINUOUS
 10
5.734080
 20
4.918760
  0
VERTEX
  8
0
  6
CONTINUOUS
 10
5.712960
 20
4.855400
  0
VERTEX
  8
0
  6
CONTINUOUS
 10
5.077160
 20
4.487120
  0
VERTEX
  8
0
  6
CONTINUOUS
 10
5.098280
 20
4.550480
  0
SEQEND
  8
0
  0
SOLID
  8
0
 62
    15
 10
5.077160
 20
4.487120
 11
5.712960
 21
4.855400
 12
5.061760
 22
4.408800
 13
5.697560
 23
4.777080
  0
POLYLINE
  8
0
  6
CONTINUOUS
 66
     1
 40
0.000000
 41
0.000000
  0
VERTEX
  8
0
  6
CONTINUOUS
 10
5.077160
 20
4.487120
  0
VERTEX
  8
0
  6
CONTINUOUS
 10
5.712960
 20
4.855400
  0
VERTEX
  8
0
  6
CONTINUOUS
 10
5.697560
 20
4.777080
  0
VERTEX
  8
0
  6
CONTINUOUS
 10
5.061760
 20
4.408800
  0
VERTEX
  8
0
  6
CONTINUOUS
 10
5.077160
 20
4.487120
  0
SEQEND
  8
0
  0
SOLID
  8
0
 62
    15
 10
5.061760
 20
4.408800
 11
5.697560
 21
4.777080
 12
5.052520
 22
4.313320
 13
5.688320
 23
4.681600
  0
POLYLINE
  8
0
  6
CONTINUOUS
 66
     1
 40
0.000000
 41
0.000000
  0
VERTEX
  8
0
  6
CONTINUOUS
 10
5.061760
 20
4.408800
  0
VERTEX
  8
0
  6
CONTINUOUS
 10
5.697560
 20
4.777080
  0
VERTEX
  8
0
  6
CONTINUOUS
 10
5.688320
 20
4.681600
  0
VERTEX
  8
0
  6
CONTINUOUS
 10
5.052520
 20
4.313320
  0
VERTEX
  8
0
  6
CONTINUOUS
 10
5.061760
 20
4.408800
  0
SEQEND
  8
0
  0
SOLID
  8
0
 62
    15
 10
5.052520
 20
4.313320
 11
5.688320
 21
4.681600
 12
5.049440
 22
4.307600
 13
5.685240
 23
4.675440
  0
POLYLINE
  8
0
  6
CONTINUOUS
 66
     1
 40
0.000000
 41
0.000000
  0
VERTEX
  8
0
  6
CONTINUOUS
 10
5.052520
 20
4.313320
  0
VERTEX
  8
0
  6
CONTINUOUS
 10
5.688320
 20
4.681600
  0
VERTEX
  8
0
  6
CONTINUOUS
 10
5.685240
 20
4.675440
  0
VERTEX
  8
0
  6
CONTINUOUS
 10
5.049440
 20
4.307600
  0
VERTEX
  8
0
  6
CONTINUOUS
 10
5.052520
 20
4.313320
  0
SEQEND
  8
0
  0
SOLID
  8
0
 62
    15
 10
3.180760
 20
5.632000
 11
3.816120
 21
6.000280
 12
3.276240
 22
5.682160
 13
3.912040
 23
6.050440
  0
POLYLINE
  8
0
  6
CONTINUOUS
 66
     1
 40
0.000000
 41
0.000000
  0
VERTEX
  8
0
  6
CONTINUOUS
 10
3.180760
 20
5.632000
  0
VERTEX
  8
0
  6
CONTINUOUS
 10
3.816120
 20
6.000280
  0
VERTEX
  8
0
  6
CONTINUOUS
 10
3.912040
 20
6.050440
  0
VERTEX
  8
0
  6
CONTINUOUS
 10
3.276240
 20
5.682160
  0
VERTEX
  8
0
  6
CONTINUOUS
 10
3.180760
 20
5.632000
  0
SEQEND
  8
0
  0
SOLID
  8
0
 62
    15
 10
3.276240
 20
5.682160
 11
3.912040
 21
6.050440
 12
3.379640
 22
5.725280
 13
4.015440
 23
6.093120
  0
POLYLINE
  8
0
  6
CONTINUOUS
 66
     1
 40
0.000000
 41
0.000000
  0
VERTEX
  8
0
  6
CONTINUOUS
 10
3.276240
 20
5.682160
  0
VERTEX
  8
0
  6
CONTINUOUS
 10
3.912040
 20
6.050440
  0
VERTEX
  8
0
  6
CONTINUOUS
 10
4.015440
 20
6.093120
  0
VERTEX
  8
0
  6
CONTINUOUS
 10
3.379640
 20
5.725280
  0
VERTEX
  8
0
  6
CONTINUOUS
 10
3.276240
 20
5.682160
  0
SEQEND
  8
0
  0
SOLID
  8
0
 62
    15
 10
3.379640
 20
5.725280
 11
4.015440
 21
6.093120
 12
3.598320
 22
5.791720
 13
4.233680
 23
6.160000
  0
POLYLINE
  8
0
  6
CONTINUOUS
 66
     1
 40
0.000000
 41
0.000000
  0
VERTEX
  8
0
  6
CONTINUOUS
 10
3.379640
 20
5.725280
  0
VERTEX
  8
0
  6
CONTINUOUS
 10
4.015440
 20
6.093120
  0
VERTEX
  8
0
  6
CONTINUOUS
 10
4.233680
 20
6.160000
  0
VERTEX
  8
0
  6
CONTINUOUS
 10
3.598320
 20
5.791720
  0
VERTEX
  8
0
  6
CONTINUOUS
 10
3.379640
 20
5.725280
  0
SEQEND
  8
0
  0
SOLID
  8
0
 62
    15
 10
3.598320
 20
5.791720
 11
4.233680
 21
6.160000
 12
3.817000
 22
5.835280
 13
4.452800
 23
6.203560
  0
POLYLINE
  8
0
  6
CONTINUOUS
 66
     1
 40
0.000000
 41
0.000000
  0
VERTEX
  8
0
  6
CONTINUOUS
 10
3.598320
 20
5.791720
  0
VERTEX
  8
0
  6
CONTINUOUS
 10
4.233680
 20
6.160000
  0
VERTEX
  8
0
  6
CONTINUOUS
 10
4.452800
 20
6.203560
  0
VERTEX
  8
0
  6
CONTINUOUS
 10
3.817000
 20
5.835280
  0
VERTEX
  8
0
  6
CONTINUOUS
 10
3.598320
 20
5.791720
  0
SEQEND
  8
0
  0
SOLID
  8
0
 62
    15
 10
3.817000
 20
5.835280
 11
4.452800
 21
6.203560
 12
3.920400
 22
5.849360
 13
4.556200
 23
6.217640
  0
POLYLINE
  8
0
  6
CONTINUOUS
 66
     1
 40
0.000000
 41
0.000000
  0
VERTEX
  8
0
  6
CONTINUOUS
 10
3.817000
 20
5.835280
  0
VERTEX
  8
0
  6
CONTINUOUS
 10
4.452800
 20
6.203560
  0
VERTEX
  8
0
  6
CONTINUOUS
 10
4.556200
 20
6.217640
  0
VERTEX
  8
0
  6
CONTINUOUS
 10
3.920400
 20
5.849360
  0
VERTEX
  8
0
  6
CONTINUOUS
 10
3.817000
 20
5.835280
  0
SEQEND
  8
0
  0
SOLID
  8
0
 62
    15
 10
3.920400
 20
5.849360
 11
4.556200
 21
6.217640
 12
4.017200
 22
5.859040
 13
4.652560
 23
6.227320
  0
POLYLINE
  8
0
  6
CONTINUOUS
 66
     1
 40
0.000000
 41
0.000000
  0
VERTEX
  8
0
  6
CONTINUOUS
 10
3.920400
 20
5.849360
  0
VERTEX
  8
0
  6
CONTINUOUS
 10
4.556200
 20
6.217640
  0
VERTEX
  8
0
  6
CONTINUOUS
 10
4.652560
 20
6.227320
  0
VERTEX
  8
0
  6
CONTINUOUS
 10
4.017200
 20
5.859040
  0
VERTEX
  8
0
  6
CONTINUOUS
 10
3.920400
 20
5.849360
  0
SEQEND
  8
0
  0
SOLID
  8
0
 62
    15
 10
4.017200
 20
5.859040
 11
4.652560
 21
6.227320
 12
4.103880
 22
5.864760
 13
4.739680
 23
6.233040
  0
POLYLINE
  8
0
  6
CONTINUOUS
 66
     1
 40
0.000000
 41
0.000000
  0
VERTEX
  8
0
  6
CONTINUOUS
 10
4.017200
 20
5.859040
  0
VERTEX
  8
0
  6
CONTINUOUS
 10
4.652560
 20
6.227320
  0
VERTEX
  8
0
  6
CONTINUOUS
 10
4.739680
 20
6.233040
  0
VERTEX
  8
0
  6
CONTINUOUS
 10
4.103880
 20
5.864760
  0
VERTEX
  8
0
  6
CONTINUOUS
 10
4.017200
 20
5.859040
  0
SEQEND
  8
0
  0
SOLID
  8
0
 62
    15
 10
4.103880
 20
5.864760
 11
4.739680
 21
6.233040
 12
4.179120
 22
5.866960
 13
4.814920
 23
6.235240
  0
POLYLINE
  8
0
  6
CONTINUOUS
 66
     1
 40
0.000000
 41
0.000000
  0
VERTEX
  8
0
  6
CONTINUOUS
 10
4.103880
 20
5.864760
  0
VERTEX
  8
0
  6
CONTINUOUS
 10
4.739680
 20
6.233040
  0
VERTEX
  8
0
  6
CONTINUOUS
 10
4.814920
 20
6.235240
  0
VERTEX
  8
0
  6
CONTINUOUS
 10
4.179120
 20
5.866960
  0
VERTEX
  8
0
  6
CONTINUOUS
 10
4.103880
 20
5.864760
  0
SEQEND
  8
0
  0
SOLID
  8
0
 62
    15
 10
4.179120
 20
5.866960
 11
4.814920
 21
6.235240
 12
4.187480
 22
5.869160
 13
4.823280
 23
6.237440
  0
POLYLINE
  8
0
  6
CONTINUOUS
 66
     1
 40
0.000000
 41
0.000000
  0
VERTEX
  8
0
  6
CONTINUOUS
 10
4.179120
 20
5.866960
  0
VERTEX
  8
0
  6
CONTINUOUS
 10
4.814920
 20
6.235240
  0
VERTEX
  8
0
  6
CONTINUOUS
 10
4.823280
 20
6.237440
  0
VERTEX
  8
0
  6
CONTINUOUS
 10
4.187480
 20
5.869160
  0
VERTEX
  8
0
  6
CONTINUOUS
 10
4.179120
 20
5.866960
  0
SEQEND
  8
0
  0
POLYLINE
  8
0
  6
CONTINUOUS
 66
     1
 40
0.000000
 41
0.000000
  0
VERTEX
  8
0
  6
CONTINUOUS
 10
4.187480
 20
5.869160
  0
VERTEX
  8
0
  6
CONTINUOUS
 10
4.262720
 20
5.866960
  0
VERTEX
  8
0
  6
CONTINUOUS
 10
4.349400
 20
5.861240
  0
VERTEX
  8
0
  6
CONTINUOUS
 10
4.446200
 20
5.851560
  0
VERTEX
  8
0
  6
CONTINUOUS
 10
4.549600
 20
5.837480
  0
VERTEX
  8
0
  6
CONTINUOUS
 10
4.768280
 20
5.793920
  0
VERTEX
  8
0
  6
CONTINUOUS
 10
4.986960
 20
5.727480
  0
VERTEX
  8
0
  6
CONTINUOUS
 10
5.090360
 20
5.684360
  0
VERTEX
  8
0
  6
CONTINUOUS
 10
5.186280
 20
5.634200
  0
VERTEX
  8
0
  6
CONTINUOUS
 10
5.272080
 20
5.576560
  0
VERTEX
  8
0
  6
CONTINUOUS
 10
5.346440
 20
5.511000
  0
VERTEX
  8
0
  6
CONTINUOUS
 10
5.406280
 20
5.437080
  0
VERTEX
  8
0
  6
CONTINUOUS
 10
5.448960
 20
5.354360
  0
VERTEX
  8
0
  6
CONTINUOUS
 10
5.472720
 20
5.261960
  0
VERTEX
  8
0
  6
CONTINUOUS
 10
5.474920
 20
5.160320
  0
VERTEX
  8
0
  6
CONTINUOUS
 10
5.461720
 20
5.063080
  0
VERTEX
  8
0
  6
CONTINUOUS
 10
5.443240
 20
4.983440
  0
VERTEX
  8
0
  6
CONTINUOUS
 10
5.419480
 20
4.918320
  0
VERTEX
  8
0
  6
CONTINUOUS
 10
5.391320
 20
4.866400
  0
VERTEX
  8
0
  6
CONTINUOUS
 10
5.360080
 20
4.824160
  0
VERTEX
  8
0
  6
CONTINUOUS
 10
5.326640
 20
4.789400
  0
VERTEX
  8
0
  6
CONTINUOUS
 10
5.185840
 20
4.676760
  0
VERTEX
  8
0
  6
CONTINUOUS
 10
5.153720
 20
4.642880
  0
VERTEX
  8
0
  6
CONTINUOUS
 10
5.124240
 20
4.601520
  0
VERTEX
  8
0
  6
CONTINUOUS
 10
5.098280
 20
4.550480
  0
VERTEX
  8
0
  6
CONTINUOUS
 10
5.077160
 20
4.487120
  0
VERTEX
  8
0
  6
CONTINUOUS
 10
5.061760
 20
4.408800
  0
VERTEX
  8
0
  6
CONTINUOUS
 10
5.052520
 20
4.313320
  0
VERTEX
  8
0
  6
CONTINUOUS
 10
5.049440
 20
4.307600
  0
VERTEX
  8
0
  6
CONTINUOUS
 10
3.312760
 20
4.307600
  0
VERTEX
  8
0
  6
CONTINUOUS
 10
3.314080
 20
4.311120
  0
VERTEX
  8
0
  6
CONTINUOUS
 10
3.304840
 20
4.406600
  0
VERTEX
  8
0
  6
CONTINUOUS
 10
3.289440
 20
4.484920
  0
VERTEX
  8
0
  6
CONTINUOUS
 10
3.268320
 20
4.548280
  0
VERTEX
  8
0
  6
CONTINUOUS
 10
3.242360
 20
4.599320
  0
VERTEX
  8
0
  6
CONTINUOUS
 10
3.212880
 20
4.640680
  0
VERTEX
  8
0
  6
CONTINUOUS
 10
3.180760
 20
4.674560
  0
VERTEX
  8
0
  6
CONTINUOUS
 10
3.039960
 20
4.787200
  0
VERTEX
  8
0
  6
CONTINUOUS
 10
3.006520
 20
4.821960
  0
VERTEX
  8
0
  6
CONTINUOUS
 10
2.975280
 20
4.863760
  0
VERTEX
  8
0
  6
CONTINUOUS
 10
2.947120
 20
4.916120
  0
VERTEX
  8
0
  6
CONTINUOUS
 10
2.923360
 20
4.980800
  0
VERTEX
  8
0
  6
CONTINUOUS
 10
2.904880
 20
5.060880
  0
VERTEX
  8
0
  6
CONTINUOUS
 10
2.892120
 20
5.158120
  0
VERTEX
  8
0
  6
CONTINUOUS
 10
2.893880
 20
5.259760
  0
VERTEX
  8
0
  6
CONTINUOUS
 10
2.917640
 20
5.351720
  0
VERTEX
  8
0
  6
CONTINUOUS
 10
2.960320
 20
5.434880
  0
VERTEX
  8
0
  6
CONTINUOUS
 10
3.020160
 20
5.508800
  0
VERTEX
  8
0
  6
CONTINUOUS
 10
3.094080
 20
5.574360
  0
VERTEX
  8
0
  6
CONTINUOUS
 10
3.180760
 20
5.632000
  0
VERTEX
  8
0
  6
CONTINUOUS
 10
3.276240
 20
5.682160
  0
VERTEX
  8
0
  6
CONTINUOUS
 10
3.379640
 20
5.725280
  0
VERTEX
  8
0
  6
CONTINUOUS
 10
3.598320
 20
5.791720
  0
VERTEX
  8
0
  6
CONTINUOUS
 10
3.817000
 20
5.835280
  0
VERTEX
  8
0
  6
CONTINUOUS
 10
3.920400
 20
5.849360
  0
VERTEX
  8
0
  6
CONTINUOUS
 10
4.017200
 20
5.859040
  0
VERTEX
  8
0
  6
CONTINUOUS
 10
4.103880
 20
5.864760
  0
VERTEX
  8
0
  6
CONTINUOUS
 10
4.179120
 20
5.866960
  0
VERTEX
  8
0
  6
CONTINUOUS
 10
4.187480
 20
5.869160
  0
SEQEND
  8
0
  0
TEXT
  8
0
 10
4.205960
 20
4.086720
 40
0.138121
  1
BA  377
 41
1.000000
  7
SN0
 71
     0
 72
     5
 11
4.796252
 21
4.086720
  0
TEXT
  8
0
 10
3.883880
 20
3.894880
 40
0.138121
  1
1-9/16" x 2-9/16"
 41
1.000000
  7
SN0
 71
     0
 72
     5
 11
5.116136
 21
3.894880
  0
ENDSEC
  0
EOF
