  0
SECTION
  2
HEADER
  9
$ACADVER
  1
AC1006
  9
$EXTMIN
 10
2.825680
 20
0.531080
  9
$EXTMAX
 10
7.914720
 20
4.942520
  9
$LTSCALE
 40
0.044000
  9
$PDMODE
 70
    35
  9
$PDSIZE
 40
0.035200
  0
ENDSEC
  0
SECTION
  2
TABLES
  0
TABLE
  2
LTYPE
 70
     9
  0
LTYPE
  2
CONTINUOUS
 70
    64
  3
Solid line
 72
    65
 73
     0
 40
0.000000
  0
LTYPE
  2
DASHED
 70
    64
  3
__ __ __ __ __ __ __ __ __ __ __ __ __ __ __
 72
    65
 73
     2
 40
0.000330
 49
0.000220
 49
-0.000110
  0
LTYPE
  2
HIDDEN
 70
    64
  3
 _ _ _ _ _ _ _ _ _ _ _ _ _ _ _ _ _ _ _ _ _ _
 72
    65
 73
     2
 40
0.000165
 49
0.000110
 49
-0.000055
  0
LTYPE
  2
CENTER
 70
    64
  3
____ _ ____ _ ____ _ ____ _ ____ _ ____ _ ____
 72
    65
 73
     4
 40
0.000880
 49
0.000550
 49
-0.000110
 49
0.000110
 49
-0.000110
  0
LTYPE
  2
PHANTOM
 70
    64
  3
_____ _ _ _____ _ _ _____ _ _ _____ _ _ ____
 72
    65
 73
     6
 40
0.001100
 49
0.000550
 49
-0.000110
 49
0.000110
 49
-0.000110
 49
0.000110
 49
-0.000110
  0
LTYPE
  2
DOT
 70
    64
  3
...............................................
 72
    65
 73
     2
 40
0.000110
 49
0.000000
 49
-0.000110
  0
LTYPE
  2
DASHDOT
 70
    64
  3
__ . __ . __ . __ . __ . __ . __ . __ . __ . __
 72
    65
 73
     4
 40
0.000440
 49
0.000220
 49
-0.000110
 49
0.000000
 49
-0.000110
  0
LTYPE
  2
BORDER
 70
    64
  3
__ __ . __ __ . __ __ . __ __ . __ __ . __ __
 72
    65
 73
     6
 40
0.000770
 49
0.000220
 49
-0.000110
 49
0.000220
 49
-0.000110
 49
0.000000
 49
-0.000110
  0
LTYPE
  2
DIVIDE
 70
    64
  3
__ . . __ . . __ . . __ . . __ . . __ . . __
 72
    65
 73
     6
 40
0.000550
 49
0.000220
 49
-0.000110
 49
0.000000
 49
-0.000110
 49
0.000000
 49
-0.000110
  0
LTYPE
  2
DOTDOT
 70
    64
  3
 . .  . .  . .  . .  . .  . . 
 72
    65
 73
     5
 40
0.000242
 49
-0.000110
 49
0.000000
 49
-0.000110
 49
0.000000
 49
-0.000110
  0
ENDTAB
  0
TABLE
  2
STYLE
 70
     2
  0
STYLE
 70
     0
  2
SN0
 40
0.000000
 41
0.000440
 50
0.000000
 71
     0
 42
0.000000
  3
ROMAND
  0
STYLE
 70
    68
  2
SV0
 40
0.000000
 41
0.000440
 50
0.000000
 71
     0
 42
0.000000
  3
ROMAND
  0
ENDTAB
  0
TABLE
  2
LAYER
 70
     3
  0
LAYER
  2
FOREGROUND
 70
    64
 62
     7
  6
CONTINUOUS
  0
LAYER
  2
BACKGROUND
 70
    65
 62
    -7
  6
CONTINUOUS
  0
LAYER
  2
0
 70
    64
 62
     7
  6
CONTINUOUS
  0
ENDTAB
  0
ENDSEC
  0
SECTION
  2
ENTITIES
  0
POLYLINE
  8
FOREGROUND
  6
CONTINUOUS
 66
     1
 40
0.000000
 41
0.000000
  0
VERTEX
  8
FOREGROUND
  6
CONTINUOUS
 10
0.000000
 20
5.473600
  0
VERTEX
  8
FOREGROUND
  6
CONTINUOUS
 10
8.499920
 20
5.473600
  0
VERTEX
  8
FOREGROUND
  6
CONTINUOUS
 10
8.499920
 20
-5.526400
  0
VERTEX
  8
FOREGROUND
  6
CONTINUOUS
 10
0.000000
 20
-5.526400
  0
VERTEX
  8
FOREGROUND
  6
CONTINUOUS
 10
0.000000
 20
5.473600
  0
SEQEND
  8
0
  0
POLYLINE
  8
FOREGROUND
  6
CONTINUOUS
 66
     1
 40
0.000000
 41
0.000000
  0
VERTEX
  8
FOREGROUND
  6
CONTINUOUS
 10
0.000000
 20
5.473600
  0
VERTEX
  8
FOREGROUND
  6
CONTINUOUS
 10
8.499920
 20
5.473600
  0
VERTEX
  8
FOREGROUND
  6
CONTINUOUS
 10
8.499920
 20
-5.526400
  0
VERTEX
  8
FOREGROUND
  6
CONTINUOUS
 10
0.000000
 20
-5.526400
  0
VERTEX
  8
FOREGROUND
  6
CONTINUOUS
 10
0.000000
 20
5.473600
  0
SEQEND
  8
0
  0
POLYLINE
  8
0
  6
CONTINUOUS
 66
     1
 40
0.014080
 41
0.014080
  0
VERTEX
  8
0
  6
CONTINUOUS
 10
5.877520
 20
4.639800
  0
VERTEX
  8
0
  6
CONTINUOUS
 10
5.877520
 20
4.611640
  0
VERTEX
  8
0
  6
CONTINUOUS
 10
5.791720
 20
4.611640
  0
VERTEX
  8
0
  6
CONTINUOUS
 10
5.758720
 20
4.934600
  0
VERTEX
  8
0
  6
CONTINUOUS
 10
2.833160
 20
4.934600
  0
VERTEX
  8
0
  6
CONTINUOUS
 10
2.833160
 20
4.180440
  0
VERTEX
  8
0
  6
CONTINUOUS
 10
6.355360
 20
4.180440
  0
VERTEX
  8
0
  6
CONTINUOUS
 10
6.355360
 20
4.639800
  0
VERTEX
  8
0
  6
CONTINUOUS
 10
6.354920
 20
4.652120
  0
VERTEX
  8
0
  6
CONTINUOUS
 10
6.354040
 20
4.664000
  0
VERTEX
  8
0
  6
CONTINUOUS
 10
6.352720
 20
4.675880
  0
VERTEX
  8
0
  6
CONTINUOUS
 10
6.350520
 20
4.687760
  0
VERTEX
  8
0
  6
CONTINUOUS
 10
6.344800
 20
4.710640
  0
VERTEX
  8
0
  6
CONTINUOUS
 10
6.336880
 20
4.732200
  0
VERTEX
  8
0
  6
CONTINUOUS
 10
6.326760
 20
4.753320
  0
VERTEX
  8
0
  6
CONTINUOUS
 10
6.314880
 20
4.772680
  0
VERTEX
  8
0
  6
CONTINUOUS
 10
6.301240
 20
4.791160
  0
VERTEX
  8
0
  6
CONTINUOUS
 10
6.285840
 20
4.807880
  0
VERTEX
  8
0
  6
CONTINUOUS
 10
6.268680
 20
4.823280
  0
VERTEX
  8
0
  6
CONTINUOUS
 10
6.250640
 20
4.836920
  0
VERTEX
  8
0
  6
CONTINUOUS
 10
6.230840
 20
4.849240
  0
VERTEX
  8
0
  6
CONTINUOUS
 10
6.210160
 20
4.858920
  0
VERTEX
  8
0
  6
CONTINUOUS
 10
6.188160
 20
4.867280
  0
VERTEX
  8
0
  6
CONTINUOUS
 10
6.165280
 20
4.873000
  0
VERTEX
  8
0
  6
CONTINUOUS
 10
6.153400
 20
4.875200
  0
VERTEX
  8
0
  6
CONTINUOUS
 10
6.141520
 20
4.876520
  0
VERTEX
  8
0
  6
CONTINUOUS
 10
6.129640
 20
4.877400
  0
VERTEX
  8
0
  6
CONTINUOUS
 10
6.117320
 20
4.877840
  0
VERTEX
  8
0
  6
CONTINUOUS
 10
6.105000
 20
4.877400
  0
VERTEX
  8
0
  6
CONTINUOUS
 10
6.093120
 20
4.876520
  0
VERTEX
  8
0
  6
CONTINUOUS
 10
6.081240
 20
4.875200
  0
VERTEX
  8
0
  6
CONTINUOUS
 10
6.069360
 20
4.873000
  0
VERTEX
  8
0
  6
CONTINUOUS
 10
6.046480
 20
4.867280
  0
VERTEX
  8
0
  6
CONTINUOUS
 10
6.024920
 20
4.858920
  0
VERTEX
  8
0
  6
CONTINUOUS
 10
6.003800
 20
4.849240
  0
VERTEX
  8
0
  6
CONTINUOUS
 10
5.984440
 20
4.836920
  0
VERTEX
  8
0
  6
CONTINUOUS
 10
5.965960
 20
4.823280
  0
VERTEX
  8
0
  6
CONTINUOUS
 10
5.949240
 20
4.807880
  0
VERTEX
  8
0
  6
CONTINUOUS
 10
5.933840
 20
4.791160
  0
VERTEX
  8
0
  6
CONTINUOUS
 10
5.920200
 20
4.772680
  0
VERTEX
  8
0
  6
CONTINUOUS
 10
5.907880
 20
4.753320
  0
VERTEX
  8
0
  6
CONTINUOUS
 10
5.898200
 20
4.732200
  0
VERTEX
  8
0
  6
CONTINUOUS
 10
5.889840
 20
4.710640
  0
VERTEX
  8
0
  6
CONTINUOUS
 10
5.884120
 20
4.687760
  0
VERTEX
  8
0
  6
CONTINUOUS
 10
5.881920
 20
4.675880
  0
VERTEX
  8
0
  6
CONTINUOUS
 10
5.880600
 20
4.664000
  0
VERTEX
  8
0
  6
CONTINUOUS
 10
5.879720
 20
4.652120
  0
VERTEX
  8
0
  6
CONTINUOUS
 10
5.879280
 20
4.639800
  0
VERTEX
  8
0
  6
CONTINUOUS
 10
5.877520
 20
4.639800
  0
SEQEND
  8
0
  0
SOLID
  8
0
 62
    15
 10
7.179920
 20
4.463360
 11
7.816600
 21
4.826360
 12
7.201920
 22
4.422880
 13
7.838600
 23
4.785880
  0
POLYLINE
  8
0
  6
CONTINUOUS
 66
     1
 40
0.000000
 41
0.000000
  0
VERTEX
  8
0
  6
CONTINUOUS
 10
7.179920
 20
4.463360
  0
VERTEX
  8
0
  6
CONTINUOUS
 10
7.816600
 20
4.826360
  0
VERTEX
  8
0
  6
CONTINUOUS
 10
7.838600
 20
4.785880
  0
VERTEX
  8
0
  6
CONTINUOUS
 10
7.201920
 20
4.422880
  0
VERTEX
  8
0
  6
CONTINUOUS
 10
7.179920
 20
4.463360
  0
SEQEND
  8
0
  0
SOLID
  8
0
 62
    15
 10
6.954640
 20
4.004440
 11
7.591320
 21
4.367440
 12
7.277600
 22
3.971440
 13
7.914280
 23
4.334440
  0
POLYLINE
  8
0
  6
CONTINUOUS
 66
     1
 40
0.000000
 41
0.000000
  0
VERTEX
  8
0
  6
CONTINUOUS
 10
6.954640
 20
4.004440
  0
VERTEX
  8
0
  6
CONTINUOUS
 10
7.591320
 20
4.367440
  0
VERTEX
  8
0
  6
CONTINUOUS
 10
7.914280
 20
4.334440
  0
VERTEX
  8
0
  6
CONTINUOUS
 10
7.277600
 20
3.971440
  0
VERTEX
  8
0
  6
CONTINUOUS
 10
6.954640
 20
4.004440
  0
SEQEND
  8
0
  0
SOLID
  8
0
 62
    15
 10
7.277600
 20
3.971440
 11
7.914280
 21
4.334440
 12
7.277600
 22
1.045880
 13
7.914280
 23
1.408880
  0
POLYLINE
  8
0
  6
CONTINUOUS
 66
     1
 40
0.000000
 41
0.000000
  0
VERTEX
  8
0
  6
CONTINUOUS
 10
7.277600
 20
3.971440
  0
VERTEX
  8
0
  6
CONTINUOUS
 10
7.914280
 20
4.334440
  0
VERTEX
  8
0
  6
CONTINUOUS
 10
7.914280
 20
1.408880
  0
VERTEX
  8
0
  6
CONTINUOUS
 10
7.277600
 20
1.045880
  0
VERTEX
  8
0
  6
CONTINUOUS
 10
7.277600
 20
3.971440
  0
SEQEND
  8
0
  0
SOLID
  8
0
 62
    15
 10
6.523440
 20
4.568080
 11
7.159680
 21
4.931080
 12
6.982800
 22
4.568080
 13
7.619480
 23
4.931080
  0
POLYLINE
  8
0
  6
CONTINUOUS
 66
     1
 40
0.000000
 41
0.000000
  0
VERTEX
  8
0
  6
CONTINUOUS
 10
6.523440
 20
4.568080
  0
VERTEX
  8
0
  6
CONTINUOUS
 10
7.159680
 20
4.931080
  0
VERTEX
  8
0
  6
CONTINUOUS
 10
7.619480
 20
4.931080
  0
VERTEX
  8
0
  6
CONTINUOUS
 10
6.982800
 20
4.568080
  0
VERTEX
  8
0
  6
CONTINUOUS
 10
6.523440
 20
4.568080
  0
SEQEND
  8
0
  0
SOLID
  8
0
 62
    15
 10
6.982800
 20
4.568080
 11
7.619480
 21
4.931080
 12
7.030760
 22
4.563240
 13
7.667000
 23
4.926240
  0
POLYLINE
  8
0
  6
CONTINUOUS
 66
     1
 40
0.000000
 41
0.000000
  0
VERTEX
  8
0
  6
CONTINUOUS
 10
6.982800
 20
4.568080
  0
VERTEX
  8
0
  6
CONTINUOUS
 10
7.619480
 20
4.931080
  0
VERTEX
  8
0
  6
CONTINUOUS
 10
7.667000
 20
4.926240
  0
VERTEX
  8
0
  6
CONTINUOUS
 10
7.030760
 20
4.563240
  0
VERTEX
  8
0
  6
CONTINUOUS
 10
6.982800
 20
4.568080
  0
SEQEND
  8
0
  0
SOLID
  8
0
 62
    15
 10
7.030760
 20
4.563240
 11
7.667000
 21
4.926240
 12
7.075200
 22
4.549600
 13
7.711880
 23
4.912600
  0
POLYLINE
  8
0
  6
CONTINUOUS
 66
     1
 40
0.000000
 41
0.000000
  0
VERTEX
  8
0
  6
CONTINUOUS
 10
7.030760
 20
4.563240
  0
VERTEX
  8
0
  6
CONTINUOUS
 10
7.667000
 20
4.926240
  0
VERTEX
  8
0
  6
CONTINUOUS
 10
7.711880
 20
4.912600
  0
VERTEX
  8
0
  6
CONTINUOUS
 10
7.075200
 20
4.549600
  0
VERTEX
  8
0
  6
CONTINUOUS
 10
7.030760
 20
4.563240
  0
SEQEND
  8
0
  0
SOLID
  8
0
 62
    15
 10
7.075200
 20
4.549600
 11
7.711880
 21
4.912600
 12
7.115680
 22
4.527600
 13
7.752360
 23
4.890600
  0
POLYLINE
  8
0
  6
CONTINUOUS
 66
     1
 40
0.000000
 41
0.000000
  0
VERTEX
  8
0
  6
CONTINUOUS
 10
7.075200
 20
4.549600
  0
VERTEX
  8
0
  6
CONTINUOUS
 10
7.711880
 20
4.912600
  0
VERTEX
  8
0
  6
CONTINUOUS
 10
7.752360
 20
4.890600
  0
VERTEX
  8
0
  6
CONTINUOUS
 10
7.115680
 20
4.527600
  0
VERTEX
  8
0
  6
CONTINUOUS
 10
7.075200
 20
4.549600
  0
SEQEND
  8
0
  0
SOLID
  8
0
 62
    15
 10
7.115680
 20
4.527600
 11
7.752360
 21
4.890600
 12
7.150880
 22
4.498560
 13
7.787560
 23
4.861560
  0
POLYLINE
  8
0
  6
CONTINUOUS
 66
     1
 40
0.000000
 41
0.000000
  0
VERTEX
  8
0
  6
CONTINUOUS
 10
7.115680
 20
4.527600
  0
VERTEX
  8
0
  6
CONTINUOUS
 10
7.752360
 20
4.890600
  0
VERTEX
  8
0
  6
CONTINUOUS
 10
7.787560
 20
4.861560
  0
VERTEX
  8
0
  6
CONTINUOUS
 10
7.150880
 20
4.498560
  0
VERTEX
  8
0
  6
CONTINUOUS
 10
7.115680
 20
4.527600
  0
SEQEND
  8
0
  0
SOLID
  8
0
 62
    15
 10
7.150880
 20
4.498560
 11
7.787560
 21
4.861560
 12
7.179920
 22
4.463360
 13
7.816600
 23
4.826360
  0
POLYLINE
  8
0
  6
CONTINUOUS
 66
     1
 40
0.000000
 41
0.000000
  0
VERTEX
  8
0
  6
CONTINUOUS
 10
7.150880
 20
4.498560
  0
VERTEX
  8
0
  6
CONTINUOUS
 10
7.787560
 20
4.861560
  0
VERTEX
  8
0
  6
CONTINUOUS
 10
7.816600
 20
4.826360
  0
VERTEX
  8
0
  6
CONTINUOUS
 10
7.179920
 20
4.463360
  0
VERTEX
  8
0
  6
CONTINUOUS
 10
7.150880
 20
4.498560
  0
SEQEND
  8
0
  0
SOLID
  8
0
 62
    15
 10
6.954640
 20
4.090240
 11
7.591320
 21
4.453240
 12
6.954640
 22
4.004440
 13
7.591320
 23
4.367440
  0
POLYLINE
  8
0
  6
CONTINUOUS
 66
     1
 40
0.000000
 41
0.000000
  0
VERTEX
  8
0
  6
CONTINUOUS
 10
6.954640
 20
4.090240
  0
VERTEX
  8
0
  6
CONTINUOUS
 10
7.591320
 20
4.453240
  0
VERTEX
  8
0
  6
CONTINUOUS
 10
7.591320
 20
4.367440
  0
VERTEX
  8
0
  6
CONTINUOUS
 10
6.954640
 20
4.004440
  0
VERTEX
  8
0
  6
CONTINUOUS
 10
6.954640
 20
4.090240
  0
SEQEND
  8
0
  0
SOLID
  8
0
 62
    15
 10
7.201920
 20
4.422880
 11
7.838600
 21
4.785880
 12
7.216000
 22
4.378000
 13
7.852240
 23
4.741000
  0
POLYLINE
  8
0
  6
CONTINUOUS
 66
     1
 40
0.000000
 41
0.000000
  0
VERTEX
  8
0
  6
CONTINUOUS
 10
7.201920
 20
4.422880
  0
VERTEX
  8
0
  6
CONTINUOUS
 10
7.838600
 20
4.785880
  0
VERTEX
  8
0
  6
CONTINUOUS
 10
7.852240
 20
4.741000
  0
VERTEX
  8
0
  6
CONTINUOUS
 10
7.216000
 20
4.378000
  0
VERTEX
  8
0
  6
CONTINUOUS
 10
7.201920
 20
4.422880
  0
SEQEND
  8
0
  0
SOLID
  8
0
 62
    15
 10
7.216000
 20
4.378000
 11
7.852240
 21
4.741000
 12
7.220840
 22
4.330040
 13
7.857520
 23
4.693040
  0
POLYLINE
  8
0
  6
CONTINUOUS
 66
     1
 40
0.000000
 41
0.000000
  0
VERTEX
  8
0
  6
CONTINUOUS
 10
7.216000
 20
4.378000
  0
VERTEX
  8
0
  6
CONTINUOUS
 10
7.852240
 20
4.741000
  0
VERTEX
  8
0
  6
CONTINUOUS
 10
7.857520
 20
4.693040
  0
VERTEX
  8
0
  6
CONTINUOUS
 10
7.220840
 20
4.330040
  0
VERTEX
  8
0
  6
CONTINUOUS
 10
7.216000
 20
4.378000
  0
SEQEND
  8
0
  0
SOLID
  8
0
 62
    15
 10
7.220840
 20
4.330040
 11
7.857520
 21
4.693040
 12
7.216000
 22
4.282080
 13
7.852240
 23
4.645080
  0
POLYLINE
  8
0
  6
CONTINUOUS
 66
     1
 40
0.000000
 41
0.000000
  0
VERTEX
  8
0
  6
CONTINUOUS
 10
7.220840
 20
4.330040
  0
VERTEX
  8
0
  6
CONTINUOUS
 10
7.857520
 20
4.693040
  0
VERTEX
  8
0
  6
CONTINUOUS
 10
7.852240
 20
4.645080
  0
VERTEX
  8
0
  6
CONTINUOUS
 10
7.216000
 20
4.282080
  0
VERTEX
  8
0
  6
CONTINUOUS
 10
7.220840
 20
4.330040
  0
SEQEND
  8
0
  0
SOLID
  8
0
 62
    15
 10
7.216000
 20
4.282080
 11
7.852240
 21
4.645080
 12
7.201920
 22
4.237640
 13
7.838600
 23
4.600640
  0
POLYLINE
  8
0
  6
CONTINUOUS
 66
     1
 40
0.000000
 41
0.000000
  0
VERTEX
  8
0
  6
CONTINUOUS
 10
7.216000
 20
4.282080
  0
VERTEX
  8
0
  6
CONTINUOUS
 10
7.852240
 20
4.645080
  0
VERTEX
  8
0
  6
CONTINUOUS
 10
7.838600
 20
4.600640
  0
VERTEX
  8
0
  6
CONTINUOUS
 10
7.201920
 20
4.237640
  0
VERTEX
  8
0
  6
CONTINUOUS
 10
7.216000
 20
4.282080
  0
SEQEND
  8
0
  0
SOLID
  8
0
 62
    15
 10
6.982800
 20
4.092000
 11
7.619480
 21
4.455000
 12
6.982800
 22
4.090240
 13
7.619480
 23
4.453240
  0
POLYLINE
  8
0
  6
CONTINUOUS
 66
     1
 40
0.000000
 41
0.000000
  0
VERTEX
  8
0
  6
CONTINUOUS
 10
6.982800
 20
4.092000
  0
VERTEX
  8
0
  6
CONTINUOUS
 10
7.619480
 20
4.455000
  0
VERTEX
  8
0
  6
CONTINUOUS
 10
7.619480
 20
4.453240
  0
VERTEX
  8
0
  6
CONTINUOUS
 10
6.982800
 20
4.090240
  0
VERTEX
  8
0
  6
CONTINUOUS
 10
6.982800
 20
4.092000
  0
SEQEND
  8
0
  0
SOLID
  8
0
 62
    15
 10
7.179920
 20
4.197160
 11
7.816600
 21
4.560160
 12
7.150880
 22
4.161960
 13
7.787560
 23
4.524960
  0
POLYLINE
  8
0
  6
CONTINUOUS
 66
     1
 40
0.000000
 41
0.000000
  0
VERTEX
  8
0
  6
CONTINUOUS
 10
7.179920
 20
4.197160
  0
VERTEX
  8
0
  6
CONTINUOUS
 10
7.816600
 20
4.560160
  0
VERTEX
  8
0
  6
CONTINUOUS
 10
7.787560
 20
4.524960
  0
VERTEX
  8
0
  6
CONTINUOUS
 10
7.150880
 20
4.161960
  0
VERTEX
  8
0
  6
CONTINUOUS
 10
7.179920
 20
4.197160
  0
SEQEND
  8
0
  0
SOLID
  8
0
 62
    15
 10
7.150880
 20
4.161960
 11
7.787560
 21
4.524960
 12
7.115680
 22
4.132920
 13
7.752360
 23
4.495920
  0
POLYLINE
  8
0
  6
CONTINUOUS
 66
     1
 40
0.000000
 41
0.000000
  0
VERTEX
  8
0
  6
CONTINUOUS
 10
7.150880
 20
4.161960
  0
VERTEX
  8
0
  6
CONTINUOUS
 10
7.787560
 20
4.524960
  0
VERTEX
  8
0
  6
CONTINUOUS
 10
7.752360
 20
4.495920
  0
VERTEX
  8
0
  6
CONTINUOUS
 10
7.115680
 20
4.132920
  0
VERTEX
  8
0
  6
CONTINUOUS
 10
7.150880
 20
4.161960
  0
SEQEND
  8
0
  0
SOLID
  8
0
 62
    15
 10
7.201920
 20
4.237640
 11
7.838600
 21
4.600640
 12
7.179920
 22
4.197160
 13
7.816600
 23
4.560160
  0
POLYLINE
  8
0
  6
CONTINUOUS
 66
     1
 40
0.000000
 41
0.000000
  0
VERTEX
  8
0
  6
CONTINUOUS
 10
7.201920
 20
4.237640
  0
VERTEX
  8
0
  6
CONTINUOUS
 10
7.838600
 20
4.600640
  0
VERTEX
  8
0
  6
CONTINUOUS
 10
7.816600
 20
4.560160
  0
VERTEX
  8
0
  6
CONTINUOUS
 10
7.179920
 20
4.197160
  0
VERTEX
  8
0
  6
CONTINUOUS
 10
7.201920
 20
4.237640
  0
SEQEND
  8
0
  0
POLYLINE
  8
0
  6
CONTINUOUS
 66
     1
 40
0.000000
 41
0.000000
  0
VERTEX
  8
0
  6
CONTINUOUS
 10
6.982800
 20
4.090240
  0
VERTEX
  8
0
  6
CONTINUOUS
 10
6.954640
 20
4.090240
  0
VERTEX
  8
0
  6
CONTINUOUS
 10
6.954640
 20
4.004440
  0
VERTEX
  8
0
  6
CONTINUOUS
 10
7.277600
 20
3.971440
  0
VERTEX
  8
0
  6
CONTINUOUS
 10
7.277600
 20
1.045880
  0
VERTEX
  8
0
  6
CONTINUOUS
 10
6.523440
 20
1.045880
  0
VERTEX
  8
0
  6
CONTINUOUS
 10
6.523440
 20
4.568080
  0
VERTEX
  8
0
  6
CONTINUOUS
 10
6.982800
 20
4.568080
  0
VERTEX
  8
0
  6
CONTINUOUS
 10
7.030760
 20
4.563240
  0
VERTEX
  8
0
  6
CONTINUOUS
 10
7.075200
 20
4.549600
  0
VERTEX
  8
0
  6
CONTINUOUS
 10
7.115680
 20
4.527600
  0
VERTEX
  8
0
  6
CONTINUOUS
 10
7.150880
 20
4.498560
  0
VERTEX
  8
0
  6
CONTINUOUS
 10
7.179920
 20
4.463360
  0
VERTEX
  8
0
  6
CONTINUOUS
 10
7.201920
 20
4.422880
  0
VERTEX
  8
0
  6
CONTINUOUS
 10
7.216000
 20
4.378000
  0
VERTEX
  8
0
  6
CONTINUOUS
 10
7.220840
 20
4.330040
  0
VERTEX
  8
0
  6
CONTINUOUS
 10
7.216000
 20
4.282080
  0
VERTEX
  8
0
  6
CONTINUOUS
 10
7.201920
 20
4.237640
  0
VERTEX
  8
0
  6
CONTINUOUS
 10
7.179920
 20
4.197160
  0
VERTEX
  8
0
  6
CONTINUOUS
 10
7.150880
 20
4.161960
  0
VERTEX
  8
0
  6
CONTINUOUS
 10
7.115680
 20
4.132920
  0
VERTEX
  8
0
  6
CONTINUOUS
 10
7.075200
 20
4.110920
  0
VERTEX
  8
0
  6
CONTINUOUS
 10
7.030760
 20
4.096840
  0
VERTEX
  8
0
  6
CONTINUOUS
 10
6.982800
 20
4.092000
  0
VERTEX
  8
0
  6
CONTINUOUS
 10
6.982800
 20
4.090240
  0
SEQEND
  8
0
  0
TEXT
  8
0
 10
6.920760
 20
0.766040
 40
0.138088
  1
BA  376
 41
1.000000
  7
SN0
 71
     0
 72
     5
 11
7.511598
 21
0.766040
  0
TEXT
  8
0
 10
6.765000
 20
0.574200
 40
0.138088
  1
3/4" x 3-7/8"
 41
1.000000
  7
SN0
 71
     0
 72
     5
 11
7.667032
 21
0.574200
  0
ENDSEC
  0
EOF
