  0
SECTION
  2
HEADER
  9
$ACADVER
  1
AC1006
  9
$EXTMIN
 10
4.140400
 20
0.586080
  9
$EXTMAX
 10
7.529720
 20
4.121480
  9
$LTSCALE
 40
0.044000
  9
$PDMODE
 70
    35
  9
$PDSIZE
 40
0.035200
  0
ENDSEC
  0
SECTION
  2
TABLES
  0
TABLE
  2
LTYPE
 70
     9
  0
LTYPE
  2
CONTINUOUS
 70
    64
  3
Solid line
 72
    65
 73
     0
 40
0.000000
  0
LTYPE
  2
DASHED
 70
    64
  3
__ __ __ __ __ __ __ __ __ __ __ __ __ __ __
 72
    65
 73
     2
 40
0.000330
 49
0.000220
 49
-0.000110
  0
LTYPE
  2
HIDDEN
 70
    64
  3
 _ _ _ _ _ _ _ _ _ _ _ _ _ _ _ _ _ _ _ _ _ _
 72
    65
 73
     2
 40
0.000165
 49
0.000110
 49
-0.000055
  0
LTYPE
  2
CENTER
 70
    64
  3
____ _ ____ _ ____ _ ____ _ ____ _ ____ _ ____
 72
    65
 73
     4
 40
0.000880
 49
0.000550
 49
-0.000110
 49
0.000110
 49
-0.000110
  0
LTYPE
  2
PHANTOM
 70
    64
  3
_____ _ _ _____ _ _ _____ _ _ _____ _ _ ____
 72
    65
 73
     6
 40
0.001100
 49
0.000550
 49
-0.000110
 49
0.000110
 49
-0.000110
 49
0.000110
 49
-0.000110
  0
LTYPE
  2
DOT
 70
    64
  3
...............................................
 72
    65
 73
     2
 40
0.000110
 49
0.000000
 49
-0.000110
  0
LTYPE
  2
DASHDOT
 70
    64
  3
__ . __ . __ . __ . __ . __ . __ . __ . __ . __
 72
    65
 73
     4
 40
0.000440
 49
0.000220
 49
-0.000110
 49
0.000000
 49
-0.000110
  0
LTYPE
  2
BORDER
 70
    64
  3
__ __ . __ __ . __ __ . __ __ . __ __ . __ __
 72
    65
 73
     6
 40
0.000770
 49
0.000220
 49
-0.000110
 49
0.000220
 49
-0.000110
 49
0.000000
 49
-0.000110
  0
LTYPE
  2
DIVIDE
 70
    64
  3
__ . . __ . . __ . . __ . . __ . . __ . . __
 72
    65
 73
     6
 40
0.000550
 49
0.000220
 49
-0.000110
 49
0.000000
 49
-0.000110
 49
0.000000
 49
-0.000110
  0
LTYPE
  2
DOTDOT
 70
    64
  3
 . .  . .  . .  . .  . .  . . 
 72
    65
 73
     5
 40
0.000242
 49
-0.000110
 49
0.000000
 49
-0.000110
 49
0.000000
 49
-0.000110
  0
ENDTAB
  0
TABLE
  2
STYLE
 70
     2
  0
STYLE
 70
     0
  2
SN0
 40
0.000000
 41
0.000440
 50
0.000000
 71
     0
 42
0.000000
  3
ROMAND
  0
STYLE
 70
    68
  2
SV0
 40
0.000000
 41
0.000440
 50
0.000000
 71
     0
 42
0.000000
  3
ROMAND
  0
ENDTAB
  0
TABLE
  2
LAYER
 70
     3
  0
LAYER
  2
FOREGROUND
 70
    64
 62
     7
  6
CONTINUOUS
  0
LAYER
  2
BACKGROUND
 70
    65
 62
    -7
  6
CONTINUOUS
  0
LAYER
  2
0
 70
    64
 62
     7
  6
CONTINUOUS
  0
ENDTAB
  0
ENDSEC
  0
SECTION
  2
ENTITIES
  0
POLYLINE
  8
FOREGROUND
  6
CONTINUOUS
 66
     1
 40
0.000000
 41
0.000000
  0
VERTEX
  8
FOREGROUND
  6
CONTINUOUS
 10
0.000000
 20
4.707560
  0
VERTEX
  8
FOREGROUND
  6
CONTINUOUS
 10
8.499920
 20
4.707560
  0
VERTEX
  8
FOREGROUND
  6
CONTINUOUS
 10
8.499920
 20
-6.292440
  0
VERTEX
  8
FOREGROUND
  6
CONTINUOUS
 10
0.000000
 20
-6.292440
  0
VERTEX
  8
FOREGROUND
  6
CONTINUOUS
 10
0.000000
 20
4.707560
  0
SEQEND
  8
0
  0
POLYLINE
  8
FOREGROUND
  6
CONTINUOUS
 66
     1
 40
0.000000
 41
0.000000
  0
VERTEX
  8
FOREGROUND
  6
CONTINUOUS
 10
0.000000
 20
4.707560
  0
VERTEX
  8
FOREGROUND
  6
CONTINUOUS
 10
8.499920
 20
4.707560
  0
VERTEX
  8
FOREGROUND
  6
CONTINUOUS
 10
8.499920
 20
-6.292440
  0
VERTEX
  8
FOREGROUND
  6
CONTINUOUS
 10
0.000000
 20
-6.292440
  0
VERTEX
  8
FOREGROUND
  6
CONTINUOUS
 10
0.000000
 20
4.707560
  0
SEQEND
  8
0
  0
POLYLINE
  8
0
  6
CONTINUOUS
 66
     1
 40
0.014080
 41
0.014080
  0
VERTEX
  8
0
  6
CONTINUOUS
 10
6.997320
 20
4.111800
  0
VERTEX
  8
0
  6
CONTINUOUS
 10
6.970920
 20
4.069560
  0
VERTEX
  8
0
  6
CONTINUOUS
 10
6.942320
 20
4.031720
  0
VERTEX
  8
0
  6
CONTINUOUS
 10
6.911960
 20
3.998280
  0
VERTEX
  8
0
  6
CONTINUOUS
 10
6.879840
 20
3.969240
  0
VERTEX
  8
0
  6
CONTINUOUS
 10
6.846400
 20
3.944160
  0
VERTEX
  8
0
  6
CONTINUOUS
 10
6.810760
 20
3.923920
  0
VERTEX
  8
0
  6
CONTINUOUS
 10
6.774240
 20
3.908080
  0
VERTEX
  8
0
  6
CONTINUOUS
 10
6.735960
 20
3.896640
  0
VERTEX
  8
0
  6
CONTINUOUS
 10
6.696800
 20
3.890480
  0
VERTEX
  8
0
  6
CONTINUOUS
 10
6.656320
 20
3.888280
  0
VERTEX
  8
0
  6
CONTINUOUS
 10
6.614960
 20
3.891360
  0
VERTEX
  8
0
  6
CONTINUOUS
 10
6.572280
 20
3.899280
  0
VERTEX
  8
0
  6
CONTINUOUS
 10
6.529160
 20
3.912040
  0
VERTEX
  8
0
  6
CONTINUOUS
 10
6.485160
 20
3.930080
  0
VERTEX
  8
0
  6
CONTINUOUS
 10
6.440720
 20
3.952960
  0
VERTEX
  8
0
  6
CONTINUOUS
 10
6.395400
 20
3.981120
  0
VERTEX
  8
0
  6
CONTINUOUS
 10
6.264280
 20
3.836800
  0
VERTEX
  8
0
  6
CONTINUOUS
 10
6.228200
 20
3.878160
  0
VERTEX
  8
0
  6
CONTINUOUS
 10
6.185520
 20
3.916880
  0
VERTEX
  8
0
  6
CONTINUOUS
 10
6.153400
 20
3.940200
  0
VERTEX
  8
0
  6
CONTINUOUS
 10
6.117320
 20
3.961760
  0
VERTEX
  8
0
  6
CONTINUOUS
 10
6.077280
 20
3.980240
  0
VERTEX
  8
0
  6
CONTINUOUS
 10
6.032840
 20
3.995640
  0
VERTEX
  8
0
  6
CONTINUOUS
 10
5.984000
 20
4.007960
  0
VERTEX
  8
0
  6
CONTINUOUS
 10
5.929880
 20
4.015880
  0
VERTEX
  8
0
  6
CONTINUOUS
 10
5.870480
 20
4.019840
  0
VERTEX
  8
0
  6
CONTINUOUS
 10
5.805360
 20
4.018960
  0
VERTEX
  8
0
  6
CONTINUOUS
 10
5.734080
 20
4.012800
  0
VERTEX
  8
0
  6
CONTINUOUS
 10
5.656200
 20
4.000920
  0
VERTEX
  8
0
  6
CONTINUOUS
 10
5.571720
 20
3.983320
  0
VERTEX
  8
0
  6
CONTINUOUS
 10
5.480200
 20
3.959560
  0
VERTEX
  8
0
  6
CONTINUOUS
 10
5.305080
 20
3.905880
  0
VERTEX
  8
0
  6
CONTINUOUS
 10
5.232920
 20
3.889160
  0
VERTEX
  8
0
  6
CONTINUOUS
 10
5.186280
 20
3.880800
  0
VERTEX
  8
0
  6
CONTINUOUS
 10
5.119840
 20
3.872440
  0
VERTEX
  8
0
  6
CONTINUOUS
 10
5.056480
 20
3.868920
  0
VERTEX
  8
0
  6
CONTINUOUS
 10
5.016440
 20
3.868920
  0
VERTEX
  8
0
  6
CONTINUOUS
 10
4.977720
 20
3.870240
  0
VERTEX
  8
0
  6
CONTINUOUS
 10
4.940320
 20
3.873320
  0
VERTEX
  8
0
  6
CONTINUOUS
 10
4.904680
 20
3.877720
  0
VERTEX
  8
0
  6
CONTINUOUS
 10
4.838240
 20
3.890040
  0
VERTEX
  8
0
  6
CONTINUOUS
 10
4.778400
 20
3.906320
  0
VERTEX
  8
0
  6
CONTINUOUS
 10
4.724720
 20
3.925240
  0
VERTEX
  8
0
  6
CONTINUOUS
 10
4.677200
 20
3.945920
  0
VERTEX
  8
0
  6
CONTINUOUS
 10
4.618680
 20
3.977160
  0
VERTEX
  8
0
  6
CONTINUOUS
 10
4.564120
 20
4.014120
  0
VERTEX
  8
0
  6
CONTINUOUS
 10
4.530680
 20
4.040960
  0
VERTEX
  8
0
  6
CONTINUOUS
 10
4.529360
 20
4.041400
  0
VERTEX
  8
0
  6
CONTINUOUS
 10
4.532880
 20
4.040080
  0
VERTEX
  8
0
  6
CONTINUOUS
 10
4.529360
 20
4.040960
  0
VERTEX
  8
0
  6
CONTINUOUS
 10
4.416280
 20
3.893560
  0
VERTEX
  8
0
  6
CONTINUOUS
 10
4.307160
 20
3.967920
  0
VERTEX
  8
0
  6
CONTINUOUS
 10
4.150520
 20
3.736920
  0
VERTEX
  8
0
  6
CONTINUOUS
 10
4.660920
 20
3.375240
  0
VERTEX
  8
0
  6
CONTINUOUS
 10
6.691960
 20
3.375240
  0
VERTEX
  8
0
  6
CONTINUOUS
 10
7.131520
 20
4.022040
  0
VERTEX
  8
0
  6
CONTINUOUS
 10
7.000400
 20
4.115320
  0
VERTEX
  8
0
  6
CONTINUOUS
 10
6.997320
 20
4.111800
  0
SEQEND
  8
0
  0
SOLID
  8
0
 62
    15
 10
5.855080
 20
1.917080
 11
6.492200
 21
1.540880
 12
5.795240
 22
1.854600
 13
6.432360
 23
1.478400
  0
POLYLINE
  8
0
  6
CONTINUOUS
 66
     1
 40
0.000000
 41
0.000000
  0
VERTEX
  8
0
  6
CONTINUOUS
 10
5.855080
 20
1.917080
  0
VERTEX
  8
0
  6
CONTINUOUS
 10
6.492200
 20
1.540880
  0
VERTEX
  8
0
  6
CONTINUOUS
 10
6.432360
 20
1.478400
  0
VERTEX
  8
0
  6
CONTINUOUS
 10
5.795240
 20
1.854600
  0
VERTEX
  8
0
  6
CONTINUOUS
 10
5.855080
 20
1.917080
  0
SEQEND
  8
0
  0
SOLID
  8
0
 62
    15
 10
6.891720
 20
2.919840
 11
7.529280
 21
2.543640
 12
6.892160
 22
2.640440
 13
7.529280
 23
2.264240
  0
POLYLINE
  8
0
  6
CONTINUOUS
 66
     1
 40
0.000000
 41
0.000000
  0
VERTEX
  8
0
  6
CONTINUOUS
 10
6.891720
 20
2.919840
  0
VERTEX
  8
0
  6
CONTINUOUS
 10
7.529280
 20
2.543640
  0
VERTEX
  8
0
  6
CONTINUOUS
 10
7.529280
 20
2.264240
  0
VERTEX
  8
0
  6
CONTINUOUS
 10
6.892160
 20
2.640440
  0
VERTEX
  8
0
  6
CONTINUOUS
 10
6.891720
 20
2.919840
  0
SEQEND
  8
0
  0
SOLID
  8
0
 62
    15
 10
6.892160
 20
2.640440
 11
7.529280
 21
2.264240
 12
6.760160
 22
2.640880
 13
7.397280
 23
2.264680
  0
POLYLINE
  8
0
  6
CONTINUOUS
 66
     1
 40
0.000000
 41
0.000000
  0
VERTEX
  8
0
  6
CONTINUOUS
 10
6.892160
 20
2.640440
  0
VERTEX
  8
0
  6
CONTINUOUS
 10
7.529280
 20
2.264240
  0
VERTEX
  8
0
  6
CONTINUOUS
 10
7.397280
 20
2.264680
  0
VERTEX
  8
0
  6
CONTINUOUS
 10
6.760160
 20
2.640880
  0
VERTEX
  8
0
  6
CONTINUOUS
 10
6.892160
 20
2.640440
  0
SEQEND
  8
0
  0
SOLID
  8
0
 62
    15
 10
6.760160
 20
2.640880
 11
7.397280
 21
2.264680
 12
6.749600
 22
2.455640
 13
7.386720
 23
2.079000
  0
POLYLINE
  8
0
  6
CONTINUOUS
 66
     1
 40
0.000000
 41
0.000000
  0
VERTEX
  8
0
  6
CONTINUOUS
 10
6.760160
 20
2.640880
  0
VERTEX
  8
0
  6
CONTINUOUS
 10
7.397280
 20
2.264680
  0
VERTEX
  8
0
  6
CONTINUOUS
 10
7.386720
 20
2.079000
  0
VERTEX
  8
0
  6
CONTINUOUS
 10
6.749600
 20
2.455640
  0
VERTEX
  8
0
  6
CONTINUOUS
 10
6.760160
 20
2.640880
  0
SEQEND
  8
0
  0
SOLID
  8
0
 62
    15
 10
6.749600
 20
2.455640
 11
7.386720
 21
2.079000
 12
6.746080
 22
2.453880
 13
7.383200
 23
2.077680
  0
POLYLINE
  8
0
  6
CONTINUOUS
 66
     1
 40
0.000000
 41
0.000000
  0
VERTEX
  8
0
  6
CONTINUOUS
 10
6.749600
 20
2.455640
  0
VERTEX
  8
0
  6
CONTINUOUS
 10
7.386720
 20
2.079000
  0
VERTEX
  8
0
  6
CONTINUOUS
 10
7.383200
 20
2.077680
  0
VERTEX
  8
0
  6
CONTINUOUS
 10
6.746080
 20
2.453880
  0
VERTEX
  8
0
  6
CONTINUOUS
 10
6.749600
 20
2.455640
  0
SEQEND
  8
0
  0
SOLID
  8
0
 62
    15
 10
6.746080
 20
2.453880
 11
7.383200
 21
2.077680
 12
6.727600
 22
2.456080
 13
7.365160
 23
2.079880
  0
POLYLINE
  8
0
  6
CONTINUOUS
 66
     1
 40
0.000000
 41
0.000000
  0
VERTEX
  8
0
  6
CONTINUOUS
 10
6.746080
 20
2.453880
  0
VERTEX
  8
0
  6
CONTINUOUS
 10
7.383200
 20
2.077680
  0
VERTEX
  8
0
  6
CONTINUOUS
 10
7.365160
 20
2.079880
  0
VERTEX
  8
0
  6
CONTINUOUS
 10
6.727600
 20
2.456080
  0
VERTEX
  8
0
  6
CONTINUOUS
 10
6.746080
 20
2.453880
  0
SEQEND
  8
0
  0
SOLID
  8
0
 62
    15
 10
6.727600
 20
2.456080
 11
7.365160
 21
2.079880
 12
6.676120
 22
2.458720
 13
7.313680
 23
2.082080
  0
POLYLINE
  8
0
  6
CONTINUOUS
 66
     1
 40
0.000000
 41
0.000000
  0
VERTEX
  8
0
  6
CONTINUOUS
 10
6.727600
 20
2.456080
  0
VERTEX
  8
0
  6
CONTINUOUS
 10
7.365160
 20
2.079880
  0
VERTEX
  8
0
  6
CONTINUOUS
 10
7.313680
 20
2.082080
  0
VERTEX
  8
0
  6
CONTINUOUS
 10
6.676120
 20
2.458720
  0
VERTEX
  8
0
  6
CONTINUOUS
 10
6.727600
 20
2.456080
  0
SEQEND
  8
0
  0
SOLID
  8
0
 62
    15
 10
6.676120
 20
2.458720
 11
7.313680
 21
2.082080
 12
6.597360
 22
2.453880
 13
7.234480
 23
2.077240
  0
POLYLINE
  8
0
  6
CONTINUOUS
 66
     1
 40
0.000000
 41
0.000000
  0
VERTEX
  8
0
  6
CONTINUOUS
 10
6.676120
 20
2.458720
  0
VERTEX
  8
0
  6
CONTINUOUS
 10
7.313680
 20
2.082080
  0
VERTEX
  8
0
  6
CONTINUOUS
 10
7.234480
 20
2.077240
  0
VERTEX
  8
0
  6
CONTINUOUS
 10
6.597360
 20
2.453880
  0
VERTEX
  8
0
  6
CONTINUOUS
 10
6.676120
 20
2.458720
  0
SEQEND
  8
0
  0
SOLID
  8
0
 62
    15
 10
6.597360
 20
2.453880
 11
7.234480
 21
2.077240
 12
6.496160
 22
2.434520
 13
7.133280
 23
2.058320
  0
POLYLINE
  8
0
  6
CONTINUOUS
 66
     1
 40
0.000000
 41
0.000000
  0
VERTEX
  8
0
  6
CONTINUOUS
 10
6.597360
 20
2.453880
  0
VERTEX
  8
0
  6
CONTINUOUS
 10
7.234480
 20
2.077240
  0
VERTEX
  8
0
  6
CONTINUOUS
 10
7.133280
 20
2.058320
  0
VERTEX
  8
0
  6
CONTINUOUS
 10
6.496160
 20
2.434520
  0
VERTEX
  8
0
  6
CONTINUOUS
 10
6.597360
 20
2.453880
  0
SEQEND
  8
0
  0
SOLID
  8
0
 62
    15
 10
6.496160
 20
2.434520
 11
7.133280
 21
2.058320
 12
6.378680
 22
2.393600
 13
7.015800
 23
2.017400
  0
POLYLINE
  8
0
  6
CONTINUOUS
 66
     1
 40
0.000000
 41
0.000000
  0
VERTEX
  8
0
  6
CONTINUOUS
 10
6.496160
 20
2.434520
  0
VERTEX
  8
0
  6
CONTINUOUS
 10
7.133280
 20
2.058320
  0
VERTEX
  8
0
  6
CONTINUOUS
 10
7.015800
 20
2.017400
  0
VERTEX
  8
0
  6
CONTINUOUS
 10
6.378680
 20
2.393600
  0
VERTEX
  8
0
  6
CONTINUOUS
 10
6.496160
 20
2.434520
  0
SEQEND
  8
0
  0
SOLID
  8
0
 62
    15
 10
6.378680
 20
2.393600
 11
7.015800
 21
2.017400
 12
6.249760
 22
2.324080
 13
6.887320
 23
1.947880
  0
POLYLINE
  8
0
  6
CONTINUOUS
 66
     1
 40
0.000000
 41
0.000000
  0
VERTEX
  8
0
  6
CONTINUOUS
 10
6.378680
 20
2.393600
  0
VERTEX
  8
0
  6
CONTINUOUS
 10
7.015800
 20
2.017400
  0
VERTEX
  8
0
  6
CONTINUOUS
 10
6.887320
 20
1.947880
  0
VERTEX
  8
0
  6
CONTINUOUS
 10
6.249760
 20
2.324080
  0
VERTEX
  8
0
  6
CONTINUOUS
 10
6.378680
 20
2.393600
  0
SEQEND
  8
0
  0
SOLID
  8
0
 62
    15
 10
6.249760
 20
2.324080
 11
6.887320
 21
1.947880
 12
6.183320
 22
2.276120
 13
6.820440
 23
1.899920
  0
POLYLINE
  8
0
  6
CONTINUOUS
 66
     1
 40
0.000000
 41
0.000000
  0
VERTEX
  8
0
  6
CONTINUOUS
 10
6.249760
 20
2.324080
  0
VERTEX
  8
0
  6
CONTINUOUS
 10
6.887320
 20
1.947880
  0
VERTEX
  8
0
  6
CONTINUOUS
 10
6.820440
 20
1.899920
  0
VERTEX
  8
0
  6
CONTINUOUS
 10
6.183320
 20
2.276120
  0
VERTEX
  8
0
  6
CONTINUOUS
 10
6.249760
 20
2.324080
  0
SEQEND
  8
0
  0
SOLID
  8
0
 62
    15
 10
6.183320
 20
2.276120
 11
6.820440
 21
1.899920
 12
6.116000
 22
2.218480
 13
6.753120
 23
1.842280
  0
POLYLINE
  8
0
  6
CONTINUOUS
 66
     1
 40
0.000000
 41
0.000000
  0
VERTEX
  8
0
  6
CONTINUOUS
 10
6.183320
 20
2.276120
  0
VERTEX
  8
0
  6
CONTINUOUS
 10
6.820440
 20
1.899920
  0
VERTEX
  8
0
  6
CONTINUOUS
 10
6.753120
 20
1.842280
  0
VERTEX
  8
0
  6
CONTINUOUS
 10
6.116000
 20
2.218480
  0
VERTEX
  8
0
  6
CONTINUOUS
 10
6.183320
 20
2.276120
  0
SEQEND
  8
0
  0
SOLID
  8
0
 62
    15
 10
6.116000
 20
2.218480
 11
6.753120
 21
1.842280
 12
6.048680
 22
2.149840
 13
6.685800
 23
1.773640
  0
POLYLINE
  8
0
  6
CONTINUOUS
 66
     1
 40
0.000000
 41
0.000000
  0
VERTEX
  8
0
  6
CONTINUOUS
 10
6.116000
 20
2.218480
  0
VERTEX
  8
0
  6
CONTINUOUS
 10
6.753120
 20
1.842280
  0
VERTEX
  8
0
  6
CONTINUOUS
 10
6.685800
 20
1.773640
  0
VERTEX
  8
0
  6
CONTINUOUS
 10
6.048680
 20
2.149840
  0
VERTEX
  8
0
  6
CONTINUOUS
 10
6.116000
 20
2.218480
  0
SEQEND
  8
0
  0
SOLID
  8
0
 62
    15
 10
6.048680
 20
2.149840
 11
6.685800
 21
1.773640
 12
5.982240
 22
2.069760
 13
6.619360
 23
1.693560
  0
POLYLINE
  8
0
  6
CONTINUOUS
 66
     1
 40
0.000000
 41
0.000000
  0
VERTEX
  8
0
  6
CONTINUOUS
 10
6.048680
 20
2.149840
  0
VERTEX
  8
0
  6
CONTINUOUS
 10
6.685800
 20
1.773640
  0
VERTEX
  8
0
  6
CONTINUOUS
 10
6.619360
 20
1.693560
  0
VERTEX
  8
0
  6
CONTINUOUS
 10
5.982240
 20
2.069760
  0
VERTEX
  8
0
  6
CONTINUOUS
 10
6.048680
 20
2.149840
  0
SEQEND
  8
0
  0
SOLID
  8
0
 62
    15
 10
5.982240
 20
2.069760
 11
6.619360
 21
1.693560
 12
5.917560
 22
1.988360
 13
6.554680
 23
1.612160
  0
POLYLINE
  8
0
  6
CONTINUOUS
 66
     1
 40
0.000000
 41
0.000000
  0
VERTEX
  8
0
  6
CONTINUOUS
 10
5.982240
 20
2.069760
  0
VERTEX
  8
0
  6
CONTINUOUS
 10
6.619360
 20
1.693560
  0
VERTEX
  8
0
  6
CONTINUOUS
 10
6.554680
 20
1.612160
  0
VERTEX
  8
0
  6
CONTINUOUS
 10
5.917560
 20
1.988360
  0
VERTEX
  8
0
  6
CONTINUOUS
 10
5.982240
 20
2.069760
  0
SEQEND
  8
0
  0
SOLID
  8
0
 62
    15
 10
5.917560
 20
1.988360
 11
6.554680
 21
1.612160
 12
5.855080
 22
1.917080
 13
6.492200
 23
1.540880
  0
POLYLINE
  8
0
  6
CONTINUOUS
 66
     1
 40
0.000000
 41
0.000000
  0
VERTEX
  8
0
  6
CONTINUOUS
 10
5.917560
 20
1.988360
  0
VERTEX
  8
0
  6
CONTINUOUS
 10
6.554680
 20
1.612160
  0
VERTEX
  8
0
  6
CONTINUOUS
 10
6.492200
 20
1.540880
  0
VERTEX
  8
0
  6
CONTINUOUS
 10
5.855080
 20
1.917080
  0
VERTEX
  8
0
  6
CONTINUOUS
 10
5.917560
 20
1.988360
  0
SEQEND
  8
0
  0
SOLID
  8
0
 62
    15
 10
4.747600
 20
1.004960
 11
5.384720
 21
0.628760
 12
4.586560
 22
1.008480
 13
5.224120
 23
0.631840
  0
POLYLINE
  8
0
  6
CONTINUOUS
 66
     1
 40
0.000000
 41
0.000000
  0
VERTEX
  8
0
  6
CONTINUOUS
 10
4.747600
 20
1.004960
  0
VERTEX
  8
0
  6
CONTINUOUS
 10
5.384720
 20
0.628760
  0
VERTEX
  8
0
  6
CONTINUOUS
 10
5.224120
 20
0.631840
  0
VERTEX
  8
0
  6
CONTINUOUS
 10
4.586560
 20
1.008480
  0
VERTEX
  8
0
  6
CONTINUOUS
 10
4.747600
 20
1.004960
  0
SEQEND
  8
0
  0
SOLID
  8
0
 62
    15
 10
5.795240
 20
1.854600
 11
6.432360
 21
1.478400
 12
5.737160
 22
1.801360
 13
6.374720
 23
1.425160
  0
POLYLINE
  8
0
  6
CONTINUOUS
 66
     1
 40
0.000000
 41
0.000000
  0
VERTEX
  8
0
  6
CONTINUOUS
 10
5.795240
 20
1.854600
  0
VERTEX
  8
0
  6
CONTINUOUS
 10
6.432360
 20
1.478400
  0
VERTEX
  8
0
  6
CONTINUOUS
 10
6.374720
 20
1.425160
  0
VERTEX
  8
0
  6
CONTINUOUS
 10
5.737160
 20
1.801360
  0
VERTEX
  8
0
  6
CONTINUOUS
 10
5.795240
 20
1.854600
  0
SEQEND
  8
0
  0
SOLID
  8
0
 62
    15
 10
5.737160
 20
1.801360
 11
6.374720
 21
1.425160
 12
5.628480
 22
1.719080
 13
6.265600
 23
1.342880
  0
POLYLINE
  8
0
  6
CONTINUOUS
 66
     1
 40
0.000000
 41
0.000000
  0
VERTEX
  8
0
  6
CONTINUOUS
 10
5.737160
 20
1.801360
  0
VERTEX
  8
0
  6
CONTINUOUS
 10
6.374720
 20
1.425160
  0
VERTEX
  8
0
  6
CONTINUOUS
 10
6.265600
 20
1.342880
  0
VERTEX
  8
0
  6
CONTINUOUS
 10
5.628480
 20
1.719080
  0
VERTEX
  8
0
  6
CONTINUOUS
 10
5.737160
 20
1.801360
  0
SEQEND
  8
0
  0
SOLID
  8
0
 62
    15
 10
5.628480
 20
1.719080
 11
6.265600
 21
1.342880
 12
5.527720
 22
1.664960
 13
6.164840
 23
1.288760
  0
POLYLINE
  8
0
  6
CONTINUOUS
 66
     1
 40
0.000000
 41
0.000000
  0
VERTEX
  8
0
  6
CONTINUOUS
 10
5.628480
 20
1.719080
  0
VERTEX
  8
0
  6
CONTINUOUS
 10
6.265600
 20
1.342880
  0
VERTEX
  8
0
  6
CONTINUOUS
 10
6.164840
 20
1.288760
  0
VERTEX
  8
0
  6
CONTINUOUS
 10
5.527720
 20
1.664960
  0
VERTEX
  8
0
  6
CONTINUOUS
 10
5.628480
 20
1.719080
  0
SEQEND
  8
0
  0
SOLID
  8
0
 62
    15
 10
5.527720
 20
1.664960
 11
6.164840
 21
1.288760
 12
5.434880
 22
1.635480
 13
6.072440
 23
1.259280
  0
POLYLINE
  8
0
  6
CONTINUOUS
 66
     1
 40
0.000000
 41
0.000000
  0
VERTEX
  8
0
  6
CONTINUOUS
 10
5.527720
 20
1.664960
  0
VERTEX
  8
0
  6
CONTINUOUS
 10
6.164840
 20
1.288760
  0
VERTEX
  8
0
  6
CONTINUOUS
 10
6.072440
 20
1.259280
  0
VERTEX
  8
0
  6
CONTINUOUS
 10
5.434880
 20
1.635480
  0
VERTEX
  8
0
  6
CONTINUOUS
 10
5.527720
 20
1.664960
  0
SEQEND
  8
0
  0
SOLID
  8
0
 62
    15
 10
5.434880
 20
1.635480
 11
6.072440
 21
1.259280
 12
5.349960
 22
1.625800
 13
5.987080
 23
1.249160
  0
POLYLINE
  8
0
  6
CONTINUOUS
 66
     1
 40
0.000000
 41
0.000000
  0
VERTEX
  8
0
  6
CONTINUOUS
 10
5.434880
 20
1.635480
  0
VERTEX
  8
0
  6
CONTINUOUS
 10
6.072440
 20
1.259280
  0
VERTEX
  8
0
  6
CONTINUOUS
 10
5.987080
 20
1.249160
  0
VERTEX
  8
0
  6
CONTINUOUS
 10
5.349960
 20
1.625800
  0
VERTEX
  8
0
  6
CONTINUOUS
 10
5.434880
 20
1.635480
  0
SEQEND
  8
0
  0
SOLID
  8
0
 62
    15
 10
5.349960
 20
1.625800
 11
5.987080
 21
1.249160
 12
5.271640
 22
1.631520
 13
5.908760
 23
1.255320
  0
POLYLINE
  8
0
  6
CONTINUOUS
 66
     1
 40
0.000000
 41
0.000000
  0
VERTEX
  8
0
  6
CONTINUOUS
 10
5.349960
 20
1.625800
  0
VERTEX
  8
0
  6
CONTINUOUS
 10
5.987080
 20
1.249160
  0
VERTEX
  8
0
  6
CONTINUOUS
 10
5.908760
 20
1.255320
  0
VERTEX
  8
0
  6
CONTINUOUS
 10
5.271640
 20
1.631520
  0
VERTEX
  8
0
  6
CONTINUOUS
 10
5.349960
 20
1.625800
  0
SEQEND
  8
0
  0
SOLID
  8
0
 62
    15
 10
5.271640
 20
1.631520
 11
5.908760
 21
1.255320
 12
5.199920
 22
1.648680
 13
5.837040
 23
1.272480
  0
POLYLINE
  8
0
  6
CONTINUOUS
 66
     1
 40
0.000000
 41
0.000000
  0
VERTEX
  8
0
  6
CONTINUOUS
 10
5.271640
 20
1.631520
  0
VERTEX
  8
0
  6
CONTINUOUS
 10
5.908760
 20
1.255320
  0
VERTEX
  8
0
  6
CONTINUOUS
 10
5.837040
 20
1.272480
  0
VERTEX
  8
0
  6
CONTINUOUS
 10
5.199920
 20
1.648680
  0
VERTEX
  8
0
  6
CONTINUOUS
 10
5.271640
 20
1.631520
  0
SEQEND
  8
0
  0
SOLID
  8
0
 62
    15
 10
5.199920
 20
1.648680
 11
5.837040
 21
1.272480
 12
5.172640
 22
1.455960
 13
5.809760
 23
1.079760
  0
POLYLINE
  8
0
  6
CONTINUOUS
 66
     1
 40
0.000000
 41
0.000000
  0
VERTEX
  8
0
  6
CONTINUOUS
 10
5.199920
 20
1.648680
  0
VERTEX
  8
0
  6
CONTINUOUS
 10
5.837040
 20
1.272480
  0
VERTEX
  8
0
  6
CONTINUOUS
 10
5.809760
 20
1.079760
  0
VERTEX
  8
0
  6
CONTINUOUS
 10
5.172640
 20
1.455960
  0
VERTEX
  8
0
  6
CONTINUOUS
 10
5.199920
 20
1.648680
  0
SEQEND
  8
0
  0
SOLID
  8
0
 62
    15
 10
5.172640
 20
1.455960
 11
5.809760
 21
1.079760
 12
5.069680
 22
1.447600
 13
5.706800
 23
1.071400
  0
POLYLINE
  8
0
  6
CONTINUOUS
 66
     1
 40
0.000000
 41
0.000000
  0
VERTEX
  8
0
  6
CONTINUOUS
 10
5.172640
 20
1.455960
  0
VERTEX
  8
0
  6
CONTINUOUS
 10
5.809760
 20
1.079760
  0
VERTEX
  8
0
  6
CONTINUOUS
 10
5.706800
 20
1.071400
  0
VERTEX
  8
0
  6
CONTINUOUS
 10
5.069680
 20
1.447600
  0
VERTEX
  8
0
  6
CONTINUOUS
 10
5.172640
 20
1.455960
  0
SEQEND
  8
0
  0
SOLID
  8
0
 62
    15
 10
5.069680
 20
1.447600
 11
5.706800
 21
1.071400
 12
4.979920
 22
1.423840
 13
5.617480
 23
1.047640
  0
POLYLINE
  8
0
  6
CONTINUOUS
 66
     1
 40
0.000000
 41
0.000000
  0
VERTEX
  8
0
  6
CONTINUOUS
 10
5.069680
 20
1.447600
  0
VERTEX
  8
0
  6
CONTINUOUS
 10
5.706800
 20
1.071400
  0
VERTEX
  8
0
  6
CONTINUOUS
 10
5.617480
 20
1.047640
  0
VERTEX
  8
0
  6
CONTINUOUS
 10
4.979920
 20
1.423840
  0
VERTEX
  8
0
  6
CONTINUOUS
 10
5.069680
 20
1.447600
  0
SEQEND
  8
0
  0
SOLID
  8
0
 62
    15
 10
4.979920
 20
1.423840
 11
5.617480
 21
1.047640
 12
4.904680
 22
1.386000
 13
5.541800
 23
1.009800
  0
POLYLINE
  8
0
  6
CONTINUOUS
 66
     1
 40
0.000000
 41
0.000000
  0
VERTEX
  8
0
  6
CONTINUOUS
 10
4.979920
 20
1.423840
  0
VERTEX
  8
0
  6
CONTINUOUS
 10
5.617480
 20
1.047640
  0
VERTEX
  8
0
  6
CONTINUOUS
 10
5.541800
 20
1.009800
  0
VERTEX
  8
0
  6
CONTINUOUS
 10
4.904680
 20
1.386000
  0
VERTEX
  8
0
  6
CONTINUOUS
 10
4.979920
 20
1.423840
  0
SEQEND
  8
0
  0
SOLID
  8
0
 62
    15
 10
4.904680
 20
1.386000
 11
5.541800
 21
1.009800
 12
4.843080
 22
1.334080
 13
5.480640
 23
0.957880
  0
POLYLINE
  8
0
  6
CONTINUOUS
 66
     1
 40
0.000000
 41
0.000000
  0
VERTEX
  8
0
  6
CONTINUOUS
 10
4.904680
 20
1.386000
  0
VERTEX
  8
0
  6
CONTINUOUS
 10
5.541800
 20
1.009800
  0
VERTEX
  8
0
  6
CONTINUOUS
 10
5.480640
 20
0.957880
  0
VERTEX
  8
0
  6
CONTINUOUS
 10
4.843080
 20
1.334080
  0
VERTEX
  8
0
  6
CONTINUOUS
 10
4.904680
 20
1.386000
  0
SEQEND
  8
0
  0
SOLID
  8
0
 62
    15
 10
4.843080
 20
1.334080
 11
5.480640
 21
0.957880
 12
4.796440
 22
1.269840
 13
5.434000
 23
0.893640
  0
POLYLINE
  8
0
  6
CONTINUOUS
 66
     1
 40
0.000000
 41
0.000000
  0
VERTEX
  8
0
  6
CONTINUOUS
 10
4.843080
 20
1.334080
  0
VERTEX
  8
0
  6
CONTINUOUS
 10
5.480640
 20
0.957880
  0
VERTEX
  8
0
  6
CONTINUOUS
 10
5.434000
 20
0.893640
  0
VERTEX
  8
0
  6
CONTINUOUS
 10
4.796440
 20
1.269840
  0
VERTEX
  8
0
  6
CONTINUOUS
 10
4.843080
 20
1.334080
  0
SEQEND
  8
0
  0
SOLID
  8
0
 62
    15
 10
4.796440
 20
1.269840
 11
5.434000
 21
0.893640
 12
4.764760
 22
1.193280
 13
5.402320
 23
0.817080
  0
POLYLINE
  8
0
  6
CONTINUOUS
 66
     1
 40
0.000000
 41
0.000000
  0
VERTEX
  8
0
  6
CONTINUOUS
 10
4.796440
 20
1.269840
  0
VERTEX
  8
0
  6
CONTINUOUS
 10
5.434000
 20
0.893640
  0
VERTEX
  8
0
  6
CONTINUOUS
 10
5.402320
 20
0.817080
  0
VERTEX
  8
0
  6
CONTINUOUS
 10
4.764760
 20
1.193280
  0
VERTEX
  8
0
  6
CONTINUOUS
 10
4.796440
 20
1.269840
  0
SEQEND
  8
0
  0
SOLID
  8
0
 62
    15
 10
4.764760
 20
1.193280
 11
5.402320
 21
0.817080
 12
4.748480
 22
1.106160
 13
5.386040
 23
0.729960
  0
POLYLINE
  8
0
  6
CONTINUOUS
 66
     1
 40
0.000000
 41
0.000000
  0
VERTEX
  8
0
  6
CONTINUOUS
 10
4.764760
 20
1.193280
  0
VERTEX
  8
0
  6
CONTINUOUS
 10
5.402320
 20
0.817080
  0
VERTEX
  8
0
  6
CONTINUOUS
 10
5.386040
 20
0.729960
  0
VERTEX
  8
0
  6
CONTINUOUS
 10
4.748480
 20
1.106160
  0
VERTEX
  8
0
  6
CONTINUOUS
 10
4.764760
 20
1.193280
  0
SEQEND
  8
0
  0
SOLID
  8
0
 62
    15
 10
4.748480
 20
1.106160
 11
5.386040
 21
0.729960
 12
4.748040
 22
1.009360
 13
5.385160
 23
0.633160
  0
POLYLINE
  8
0
  6
CONTINUOUS
 66
     1
 40
0.000000
 41
0.000000
  0
VERTEX
  8
0
  6
CONTINUOUS
 10
4.748480
 20
1.106160
  0
VERTEX
  8
0
  6
CONTINUOUS
 10
5.386040
 20
0.729960
  0
VERTEX
  8
0
  6
CONTINUOUS
 10
5.385160
 20
0.633160
  0
VERTEX
  8
0
  6
CONTINUOUS
 10
4.748040
 20
1.009360
  0
VERTEX
  8
0
  6
CONTINUOUS
 10
4.748480
 20
1.106160
  0
SEQEND
  8
0
  0
SOLID
  8
0
 62
    15
 10
4.748040
 20
1.009360
 11
5.385160
 21
0.633160
 12
4.747600
 22
1.004960
 13
5.384720
 23
0.628760
  0
POLYLINE
  8
0
  6
CONTINUOUS
 66
     1
 40
0.000000
 41
0.000000
  0
VERTEX
  8
0
  6
CONTINUOUS
 10
4.748040
 20
1.009360
  0
VERTEX
  8
0
  6
CONTINUOUS
 10
5.385160
 20
0.633160
  0
VERTEX
  8
0
  6
CONTINUOUS
 10
5.384720
 20
0.628760
  0
VERTEX
  8
0
  6
CONTINUOUS
 10
4.747600
 20
1.004960
  0
VERTEX
  8
0
  6
CONTINUOUS
 10
4.748040
 20
1.009360
  0
SEQEND
  8
0
  0
POLYLINE
  8
0
  6
CONTINUOUS
 66
     1
 40
0.000000
 41
0.000000
  0
VERTEX
  8
0
  6
CONTINUOUS
 10
4.747600
 20
1.004960
  0
VERTEX
  8
0
  6
CONTINUOUS
 10
4.586560
 20
1.008480
  0
VERTEX
  8
0
  6
CONTINUOUS
 10
4.586560
 20
1.790360
  0
VERTEX
  8
0
  6
CONTINUOUS
 10
6.266480
 20
2.931720
  0
VERTEX
  8
0
  6
CONTINUOUS
 10
6.891720
 20
2.919840
  0
VERTEX
  8
0
  6
CONTINUOUS
 10
6.892160
 20
2.640440
  0
VERTEX
  8
0
  6
CONTINUOUS
 10
6.760160
 20
2.640880
  0
VERTEX
  8
0
  6
CONTINUOUS
 10
6.749600
 20
2.455640
  0
VERTEX
  8
0
  6
CONTINUOUS
 10
6.746080
 20
2.453880
  0
VERTEX
  8
0
  6
CONTINUOUS
 10
6.727600
 20
2.456080
  0
VERTEX
  8
0
  6
CONTINUOUS
 10
6.676120
 20
2.458720
  0
VERTEX
  8
0
  6
CONTINUOUS
 10
6.597360
 20
2.453880
  0
VERTEX
  8
0
  6
CONTINUOUS
 10
6.496160
 20
2.434520
  0
VERTEX
  8
0
  6
CONTINUOUS
 10
6.378680
 20
2.393600
  0
VERTEX
  8
0
  6
CONTINUOUS
 10
6.249760
 20
2.324080
  0
VERTEX
  8
0
  6
CONTINUOUS
 10
6.183320
 20
2.276120
  0
VERTEX
  8
0
  6
CONTINUOUS
 10
6.116000
 20
2.218480
  0
VERTEX
  8
0
  6
CONTINUOUS
 10
6.048680
 20
2.149840
  0
VERTEX
  8
0
  6
CONTINUOUS
 10
5.982240
 20
2.069760
  0
VERTEX
  8
0
  6
CONTINUOUS
 10
5.917560
 20
1.988360
  0
VERTEX
  8
0
  6
CONTINUOUS
 10
5.855080
 20
1.917080
  0
VERTEX
  8
0
  6
CONTINUOUS
 10
5.795240
 20
1.854600
  0
VERTEX
  8
0
  6
CONTINUOUS
 10
5.737160
 20
1.801360
  0
VERTEX
  8
0
  6
CONTINUOUS
 10
5.628480
 20
1.719080
  0
VERTEX
  8
0
  6
CONTINUOUS
 10
5.527720
 20
1.664960
  0
VERTEX
  8
0
  6
CONTINUOUS
 10
5.434880
 20
1.635480
  0
VERTEX
  8
0
  6
CONTINUOUS
 10
5.349960
 20
1.625800
  0
VERTEX
  8
0
  6
CONTINUOUS
 10
5.271640
 20
1.631520
  0
VERTEX
  8
0
  6
CONTINUOUS
 10
5.199920
 20
1.648680
  0
VERTEX
  8
0
  6
CONTINUOUS
 10
5.172640
 20
1.455960
  0
VERTEX
  8
0
  6
CONTINUOUS
 10
5.069680
 20
1.447600
  0
VERTEX
  8
0
  6
CONTINUOUS
 10
4.979920
 20
1.423840
  0
VERTEX
  8
0
  6
CONTINUOUS
 10
4.904680
 20
1.386000
  0
VERTEX
  8
0
  6
CONTINUOUS
 10
4.843080
 20
1.334080
  0
VERTEX
  8
0
  6
CONTINUOUS
 10
4.796440
 20
1.269840
  0
VERTEX
  8
0
  6
CONTINUOUS
 10
4.764760
 20
1.193280
  0
VERTEX
  8
0
  6
CONTINUOUS
 10
4.748480
 20
1.106160
  0
VERTEX
  8
0
  6
CONTINUOUS
 10
4.748040
 20
1.009360
  0
VERTEX
  8
0
  6
CONTINUOUS
 10
4.747600
 20
1.004960
  0
SEQEND
  8
0
  0
TEXT
  8
0
 10
5.953640
 20
0.821920
 40
0.138224
  1
BA  375
 41
1.000000
  7
SN0
 71
     0
 72
     5
 11
6.544052
 21
0.821920
  0
TEXT
  8
0
 10
5.940880
 20
0.630520
 40
0.138224
  1
3/4" x 3"
 41
1.000000
  7
SN0
 71
     0
 72
     5
 11
6.556216
 21
0.630520
  0
ENDSEC
  0
EOF
