  0
SECTION
  2
HEADER
  9
$ACADVER
  1
AC1006
  9
$EXTMIN
 10
4.696560
 20
0.395560
  9
$EXTMAX
 10
7.051000
 20
2.739880
  9
$LTSCALE
 40
0.044000
  9
$PDMODE
 70
    35
  9
$PDSIZE
 40
0.035200
  0
ENDSEC
  0
SECTION
  2
TABLES
  0
TABLE
  2
LTYPE
 70
     9
  0
LTYPE
  2
CONTINUOUS
 70
    64
  3
Solid line
 72
    65
 73
     0
 40
0.000000
  0
LTYPE
  2
DASHED
 70
    64
  3
__ __ __ __ __ __ __ __ __ __ __ __ __ __ __
 72
    65
 73
     2
 40
0.000330
 49
0.000220
 49
-0.000110
  0
LTYPE
  2
HIDDEN
 70
    64
  3
 _ _ _ _ _ _ _ _ _ _ _ _ _ _ _ _ _ _ _ _ _ _
 72
    65
 73
     2
 40
0.000165
 49
0.000110
 49
-0.000055
  0
LTYPE
  2
CENTER
 70
    64
  3
____ _ ____ _ ____ _ ____ _ ____ _ ____ _ ____
 72
    65
 73
     4
 40
0.000880
 49
0.000550
 49
-0.000110
 49
0.000110
 49
-0.000110
  0
LTYPE
  2
PHANTOM
 70
    64
  3
_____ _ _ _____ _ _ _____ _ _ _____ _ _ ____
 72
    65
 73
     6
 40
0.001100
 49
0.000550
 49
-0.000110
 49
0.000110
 49
-0.000110
 49
0.000110
 49
-0.000110
  0
LTYPE
  2
DOT
 70
    64
  3
...............................................
 72
    65
 73
     2
 40
0.000110
 49
0.000000
 49
-0.000110
  0
LTYPE
  2
DASHDOT
 70
    64
  3
__ . __ . __ . __ . __ . __ . __ . __ . __ . __
 72
    65
 73
     4
 40
0.000440
 49
0.000220
 49
-0.000110
 49
0.000000
 49
-0.000110
  0
LTYPE
  2
BORDER
 70
    64
  3
__ __ . __ __ . __ __ . __ __ . __ __ . __ __
 72
    65
 73
     6
 40
0.000770
 49
0.000220
 49
-0.000110
 49
0.000220
 49
-0.000110
 49
0.000000
 49
-0.000110
  0
LTYPE
  2
DIVIDE
 70
    64
  3
__ . . __ . . __ . . __ . . __ . . __ . . __
 72
    65
 73
     6
 40
0.000550
 49
0.000220
 49
-0.000110
 49
0.000000
 49
-0.000110
 49
0.000000
 49
-0.000110
  0
LTYPE
  2
DOTDOT
 70
    64
  3
 . .  . .  . .  . .  . .  . . 
 72
    65
 73
     5
 40
0.000242
 49
-0.000110
 49
0.000000
 49
-0.000110
 49
0.000000
 49
-0.000110
  0
ENDTAB
  0
TABLE
  2
STYLE
 70
     2
  0
STYLE
 70
     0
  2
SN0
 40
0.000000
 41
0.000440
 50
0.000000
 71
     0
 42
0.000000
  3
ROMAND
  0
STYLE
 70
    68
  2
SV0
 40
0.000000
 41
0.000440
 50
0.000000
 71
     0
 42
0.000000
  3
ROMAND
  0
ENDTAB
  0
TABLE
  2
LAYER
 70
     3
  0
LAYER
  2
FOREGROUND
 70
    64
 62
     7
  6
CONTINUOUS
  0
LAYER
  2
BACKGROUND
 70
    65
 62
    -7
  6
CONTINUOUS
  0
LAYER
  2
0
 70
    64
 62
     7
  6
CONTINUOUS
  0
ENDTAB
  0
ENDSEC
  0
SECTION
  2
ENTITIES
  0
POLYLINE
  8
FOREGROUND
  6
CONTINUOUS
 66
     1
 40
0.000000
 41
0.000000
  0
VERTEX
  8
FOREGROUND
  6
CONTINUOUS
 10
0.000000
 20
3.135440
  0
VERTEX
  8
FOREGROUND
  6
CONTINUOUS
 10
8.499920
 20
3.135440
  0
VERTEX
  8
FOREGROUND
  6
CONTINUOUS
 10
8.499920
 20
-7.864560
  0
VERTEX
  8
FOREGROUND
  6
CONTINUOUS
 10
0.000000
 20
-7.864560
  0
VERTEX
  8
FOREGROUND
  6
CONTINUOUS
 10
0.000000
 20
3.135440
  0
SEQEND
  8
0
  0
POLYLINE
  8
FOREGROUND
  6
CONTINUOUS
 66
     1
 40
0.000000
 41
0.000000
  0
VERTEX
  8
FOREGROUND
  6
CONTINUOUS
 10
0.000000
 20
3.135440
  0
VERTEX
  8
FOREGROUND
  6
CONTINUOUS
 10
8.499920
 20
3.135440
  0
VERTEX
  8
FOREGROUND
  6
CONTINUOUS
 10
8.499920
 20
-7.864560
  0
VERTEX
  8
FOREGROUND
  6
CONTINUOUS
 10
0.000000
 20
-7.864560
  0
VERTEX
  8
FOREGROUND
  6
CONTINUOUS
 10
0.000000
 20
3.135440
  0
SEQEND
  8
0
  0
POLYLINE
  8
0
  6
CONTINUOUS
 66
     1
 40
0.014080
 41
0.014080
  0
VERTEX
  8
0
  6
CONTINUOUS
 10
6.537080
 20
2.731960
  0
VERTEX
  8
0
  6
CONTINUOUS
 10
6.538840
 20
2.633400
  0
VERTEX
  8
0
  6
CONTINUOUS
 10
6.543680
 20
2.564760
  0
VERTEX
  8
0
  6
CONTINUOUS
 10
6.552480
 20
2.500520
  0
VERTEX
  8
0
  6
CONTINUOUS
 10
6.565240
 20
2.441560
  0
VERTEX
  8
0
  6
CONTINUOUS
 10
6.576240
 20
2.405480
  0
VERTEX
  8
0
  6
CONTINUOUS
 10
6.597360
 20
2.356200
  0
VERTEX
  8
0
  6
CONTINUOUS
 10
6.614080
 20
2.327600
  0
VERTEX
  8
0
  6
CONTINUOUS
 10
6.633880
 20
2.301640
  0
VERTEX
  8
0
  6
CONTINUOUS
 10
6.656320
 20
2.279200
  0
VERTEX
  8
0
  6
CONTINUOUS
 10
6.681400
 20
2.260280
  0
VERTEX
  8
0
  6
CONTINUOUS
 10
6.709560
 20
2.245320
  0
VERTEX
  8
0
  6
CONTINUOUS
 10
6.741240
 20
2.233880
  0
VERTEX
  8
0
  6
CONTINUOUS
 10
6.776000
 20
2.226400
  0
VERTEX
  8
0
  6
CONTINUOUS
 10
6.776000
 20
2.090440
  0
VERTEX
  8
0
  6
CONTINUOUS
 10
6.803280
 20
2.085160
  0
VERTEX
  8
0
  6
CONTINUOUS
 10
6.841560
 20
2.071520
  0
VERTEX
  8
0
  6
CONTINUOUS
 10
6.877200
 20
2.052160
  0
VERTEX
  8
0
  6
CONTINUOUS
 10
6.910200
 20
2.027960
  0
VERTEX
  8
0
  6
CONTINUOUS
 10
6.940120
 20
1.998920
  0
VERTEX
  8
0
  6
CONTINUOUS
 10
6.958160
 20
1.977360
  0
VERTEX
  8
0
  6
CONTINUOUS
 10
6.974440
 20
1.954040
  0
VERTEX
  8
0
  6
CONTINUOUS
 10
6.989400
 20
1.929400
  0
VERTEX
  8
0
  6
CONTINUOUS
 10
7.002600
 20
1.903440
  0
VERTEX
  8
0
  6
CONTINUOUS
 10
7.014040
 20
1.876160
  0
VERTEX
  8
0
  6
CONTINUOUS
 10
7.023720
 20
1.848440
  0
VERTEX
  8
0
  6
CONTINUOUS
 10
7.031640
 20
1.819840
  0
VERTEX
  8
0
  6
CONTINUOUS
 10
7.037800
 20
1.790360
  0
VERTEX
  8
0
  6
CONTINUOUS
 10
7.041760
 20
1.760880
  0
VERTEX
  8
0
  6
CONTINUOUS
 10
7.043520
 20
1.730960
  0
VERTEX
  8
0
  6
CONTINUOUS
 10
7.043520
 20
1.701040
  0
VERTEX
  8
0
  6
CONTINUOUS
 10
7.041760
 20
1.671560
  0
VERTEX
  8
0
  6
CONTINUOUS
 10
7.037360
 20
1.642080
  0
VERTEX
  8
0
  6
CONTINUOUS
 10
7.026800
 20
1.598960
  0
VERTEX
  8
0
  6
CONTINUOUS
 10
7.010520
 20
1.557600
  0
VERTEX
  8
0
  6
CONTINUOUS
 10
6.997320
 20
1.531200
  0
VERTEX
  8
0
  6
CONTINUOUS
 10
6.972240
 20
1.494240
  0
VERTEX
  8
0
  6
CONTINUOUS
 10
6.941440
 20
1.460360
  0
VERTEX
  8
0
  6
CONTINUOUS
 10
6.904480
 20
1.430000
  0
VERTEX
  8
0
  6
CONTINUOUS
 10
6.861800
 20
1.404480
  0
VERTEX
  8
0
  6
CONTINUOUS
 10
6.829680
 20
1.390400
  0
VERTEX
  8
0
  6
CONTINUOUS
 10
6.794480
 20
1.378520
  0
VERTEX
  8
0
  6
CONTINUOUS
 10
6.342160
 20
1.379400
  0
VERTEX
  8
0
  6
CONTINUOUS
 10
6.342160
 20
2.732400
  0
VERTEX
  8
0
  6
CONTINUOUS
 10
6.537080
 20
2.732400
  0
SEQEND
  8
0
  0
SOLID
  8
0
 62
    15
 10
5.184080
 20
1.573000
 11
5.815920
 21
1.939520
 12
5.232480
 22
1.548800
 13
5.864320
 23
1.915320
  0
POLYLINE
  8
0
  6
CONTINUOUS
 66
     1
 40
0.000000
 41
0.000000
  0
VERTEX
  8
0
  6
CONTINUOUS
 10
5.184080
 20
1.573000
  0
VERTEX
  8
0
  6
CONTINUOUS
 10
5.815920
 20
1.939520
  0
VERTEX
  8
0
  6
CONTINUOUS
 10
5.864320
 20
1.915320
  0
VERTEX
  8
0
  6
CONTINUOUS
 10
5.232480
 20
1.548800
  0
VERTEX
  8
0
  6
CONTINUOUS
 10
5.184080
 20
1.573000
  0
SEQEND
  8
0
  0
SOLID
  8
0
 62
    15
 10
4.893680
 20
2.130040
 11
5.525960
 21
2.496560
 12
4.901160
 22
2.038960
 13
5.533440
 23
2.405480
  0
POLYLINE
  8
0
  6
CONTINUOUS
 66
     1
 40
0.000000
 41
0.000000
  0
VERTEX
  8
0
  6
CONTINUOUS
 10
4.893680
 20
2.130040
  0
VERTEX
  8
0
  6
CONTINUOUS
 10
5.525960
 20
2.496560
  0
VERTEX
  8
0
  6
CONTINUOUS
 10
5.533440
 20
2.405480
  0
VERTEX
  8
0
  6
CONTINUOUS
 10
4.901160
 20
2.038960
  0
VERTEX
  8
0
  6
CONTINUOUS
 10
4.893680
 20
2.130040
  0
SEQEND
  8
0
  0
SOLID
  8
0
 62
    15
 10
4.901160
 20
2.038960
 11
5.533440
 21
2.405480
 12
4.915240
 22
1.956680
 13
5.547520
 23
2.323200
  0
POLYLINE
  8
0
  6
CONTINUOUS
 66
     1
 40
0.000000
 41
0.000000
  0
VERTEX
  8
0
  6
CONTINUOUS
 10
4.901160
 20
2.038960
  0
VERTEX
  8
0
  6
CONTINUOUS
 10
5.533440
 20
2.405480
  0
VERTEX
  8
0
  6
CONTINUOUS
 10
5.547520
 20
2.323200
  0
VERTEX
  8
0
  6
CONTINUOUS
 10
4.915240
 20
1.956680
  0
VERTEX
  8
0
  6
CONTINUOUS
 10
4.901160
 20
2.038960
  0
SEQEND
  8
0
  0
SOLID
  8
0
 62
    15
 10
4.915240
 20
1.956680
 11
5.547520
 21
2.323200
 12
4.925360
 22
1.919280
 13
5.557640
 23
2.285800
  0
POLYLINE
  8
0
  6
CONTINUOUS
 66
     1
 40
0.000000
 41
0.000000
  0
VERTEX
  8
0
  6
CONTINUOUS
 10
4.915240
 20
1.956680
  0
VERTEX
  8
0
  6
CONTINUOUS
 10
5.547520
 20
2.323200
  0
VERTEX
  8
0
  6
CONTINUOUS
 10
5.557640
 20
2.285800
  0
VERTEX
  8
0
  6
CONTINUOUS
 10
4.925360
 20
1.919280
  0
VERTEX
  8
0
  6
CONTINUOUS
 10
4.915240
 20
1.956680
  0
SEQEND
  8
0
  0
SOLID
  8
0
 62
    15
 10
4.925360
 20
1.919280
 11
5.557640
 21
2.285800
 12
4.937680
 22
1.884520
 13
5.569520
 23
2.251040
  0
POLYLINE
  8
0
  6
CONTINUOUS
 66
     1
 40
0.000000
 41
0.000000
  0
VERTEX
  8
0
  6
CONTINUOUS
 10
4.925360
 20
1.919280
  0
VERTEX
  8
0
  6
CONTINUOUS
 10
5.557640
 20
2.285800
  0
VERTEX
  8
0
  6
CONTINUOUS
 10
5.569520
 20
2.251040
  0
VERTEX
  8
0
  6
CONTINUOUS
 10
4.937680
 20
1.884520
  0
VERTEX
  8
0
  6
CONTINUOUS
 10
4.925360
 20
1.919280
  0
SEQEND
  8
0
  0
SOLID
  8
0
 62
     7
 10
4.937680
 20
1.884520
 11
5.569520
 21
2.251040
 12
4.952200
 22
1.852840
 13
5.584040
 23
2.219360
  0
POLYLINE
  8
0
  6
CONTINUOUS
 66
     1
 40
0.000000
 41
0.000000
  0
VERTEX
  8
0
  6
CONTINUOUS
 10
4.937680
 20
1.884520
  0
VERTEX
  8
0
  6
CONTINUOUS
 10
5.569520
 20
2.251040
  0
VERTEX
  8
0
  6
CONTINUOUS
 10
5.584040
 20
2.219360
  0
VERTEX
  8
0
  6
CONTINUOUS
 10
4.952200
 20
1.852840
  0
VERTEX
  8
0
  6
CONTINUOUS
 10
4.937680
 20
1.884520
  0
SEQEND
  8
0
  0
SOLID
  8
0
 62
     7
 10
4.952200
 20
1.852840
 11
5.584040
 21
2.219360
 12
4.968920
 22
1.823800
 13
5.601200
 23
2.190320
  0
POLYLINE
  8
0
  6
CONTINUOUS
 66
     1
 40
0.000000
 41
0.000000
  0
VERTEX
  8
0
  6
CONTINUOUS
 10
4.952200
 20
1.852840
  0
VERTEX
  8
0
  6
CONTINUOUS
 10
5.584040
 20
2.219360
  0
VERTEX
  8
0
  6
CONTINUOUS
 10
5.601200
 20
2.190320
  0
VERTEX
  8
0
  6
CONTINUOUS
 10
4.968920
 20
1.823800
  0
VERTEX
  8
0
  6
CONTINUOUS
 10
4.952200
 20
1.852840
  0
SEQEND
  8
0
  0
SOLID
  8
0
 62
    15
 10
4.968920
 20
1.823800
 11
5.601200
 21
2.190320
 12
4.988720
 22
1.798280
 13
5.621000
 23
2.164360
  0
POLYLINE
  8
0
  6
CONTINUOUS
 66
     1
 40
0.000000
 41
0.000000
  0
VERTEX
  8
0
  6
CONTINUOUS
 10
4.968920
 20
1.823800
  0
VERTEX
  8
0
  6
CONTINUOUS
 10
5.601200
 20
2.190320
  0
VERTEX
  8
0
  6
CONTINUOUS
 10
5.621000
 20
2.164360
  0
VERTEX
  8
0
  6
CONTINUOUS
 10
4.988720
 20
1.798280
  0
VERTEX
  8
0
  6
CONTINUOUS
 10
4.968920
 20
1.823800
  0
SEQEND
  8
0
  0
SOLID
  8
0
 62
    15
 10
4.988720
 20
1.798280
 11
5.621000
 21
2.164360
 12
5.011160
 22
1.775840
 13
5.643000
 23
2.141920
  0
POLYLINE
  8
0
  6
CONTINUOUS
 66
     1
 40
0.000000
 41
0.000000
  0
VERTEX
  8
0
  6
CONTINUOUS
 10
4.988720
 20
1.798280
  0
VERTEX
  8
0
  6
CONTINUOUS
 10
5.621000
 20
2.164360
  0
VERTEX
  8
0
  6
CONTINUOUS
 10
5.643000
 20
2.141920
  0
VERTEX
  8
0
  6
CONTINUOUS
 10
5.011160
 20
1.775840
  0
VERTEX
  8
0
  6
CONTINUOUS
 10
4.988720
 20
1.798280
  0
SEQEND
  8
0
  0
SOLID
  8
0
 62
    15
 10
5.011160
 20
1.775840
 11
5.643000
 21
2.141920
 12
5.036240
 22
1.756920
 13
5.668520
 23
2.123000
  0
POLYLINE
  8
0
  6
CONTINUOUS
 66
     1
 40
0.000000
 41
0.000000
  0
VERTEX
  8
0
  6
CONTINUOUS
 10
5.011160
 20
1.775840
  0
VERTEX
  8
0
  6
CONTINUOUS
 10
5.643000
 20
2.141920
  0
VERTEX
  8
0
  6
CONTINUOUS
 10
5.668520
 20
2.123000
  0
VERTEX
  8
0
  6
CONTINUOUS
 10
5.036240
 20
1.756920
  0
VERTEX
  8
0
  6
CONTINUOUS
 10
5.011160
 20
1.775840
  0
SEQEND
  8
0
  0
SOLID
  8
0
 62
    15
 10
5.036240
 20
1.756920
 11
5.668520
 21
2.123000
 12
5.064400
 22
1.741520
 13
5.696680
 23
2.108040
  0
POLYLINE
  8
0
  6
CONTINUOUS
 66
     1
 40
0.000000
 41
0.000000
  0
VERTEX
  8
0
  6
CONTINUOUS
 10
5.036240
 20
1.756920
  0
VERTEX
  8
0
  6
CONTINUOUS
 10
5.668520
 20
2.123000
  0
VERTEX
  8
0
  6
CONTINUOUS
 10
5.696680
 20
2.108040
  0
VERTEX
  8
0
  6
CONTINUOUS
 10
5.064400
 20
1.741520
  0
VERTEX
  8
0
  6
CONTINUOUS
 10
5.036240
 20
1.756920
  0
SEQEND
  8
0
  0
SOLID
  8
0
 62
    15
 10
5.064400
 20
1.741520
 11
5.696680
 21
2.108040
 12
5.096080
 22
1.730080
 13
5.728360
 23
2.096600
  0
POLYLINE
  8
0
  6
CONTINUOUS
 66
     1
 40
0.000000
 41
0.000000
  0
VERTEX
  8
0
  6
CONTINUOUS
 10
5.064400
 20
1.741520
  0
VERTEX
  8
0
  6
CONTINUOUS
 10
5.696680
 20
2.108040
  0
VERTEX
  8
0
  6
CONTINUOUS
 10
5.728360
 20
2.096600
  0
VERTEX
  8
0
  6
CONTINUOUS
 10
5.096080
 20
1.730080
  0
VERTEX
  8
0
  6
CONTINUOUS
 10
5.064400
 20
1.741520
  0
SEQEND
  8
0
  0
SOLID
  8
0
 62
    15
 10
5.096080
 20
1.730080
 11
5.728360
 21
2.096600
 12
5.130840
 22
1.722600
 13
5.763120
 23
2.089120
  0
POLYLINE
  8
0
  6
CONTINUOUS
 66
     1
 40
0.000000
 41
0.000000
  0
VERTEX
  8
0
  6
CONTINUOUS
 10
5.096080
 20
1.730080
  0
VERTEX
  8
0
  6
CONTINUOUS
 10
5.728360
 20
2.096600
  0
VERTEX
  8
0
  6
CONTINUOUS
 10
5.763120
 20
2.089120
  0
VERTEX
  8
0
  6
CONTINUOUS
 10
5.130840
 20
1.722600
  0
VERTEX
  8
0
  6
CONTINUOUS
 10
5.096080
 20
1.730080
  0
SEQEND
  8
0
  0
SOLID
  8
0
 62
    15
 10
5.130840
 20
1.722600
 11
5.763120
 21
2.089120
 12
5.130840
 22
1.587080
 13
5.763120
 23
1.953160
  0
POLYLINE
  8
0
  6
CONTINUOUS
 66
     1
 40
0.000000
 41
0.000000
  0
VERTEX
  8
0
  6
CONTINUOUS
 10
5.130840
 20
1.722600
  0
VERTEX
  8
0
  6
CONTINUOUS
 10
5.763120
 20
2.089120
  0
VERTEX
  8
0
  6
CONTINUOUS
 10
5.763120
 20
1.953160
  0
VERTEX
  8
0
  6
CONTINUOUS
 10
5.130840
 20
1.587080
  0
VERTEX
  8
0
  6
CONTINUOUS
 10
5.130840
 20
1.722600
  0
SEQEND
  8
0
  0
SOLID
  8
0
 62
    15
 10
5.130840
 20
1.587080
 11
5.763120
 21
1.953160
 12
5.184080
 22
1.573000
 13
5.815920
 23
1.939520
  0
POLYLINE
  8
0
  6
CONTINUOUS
 66
     1
 40
0.000000
 41
0.000000
  0
VERTEX
  8
0
  6
CONTINUOUS
 10
5.130840
 20
1.587080
  0
VERTEX
  8
0
  6
CONTINUOUS
 10
5.763120
 20
1.953160
  0
VERTEX
  8
0
  6
CONTINUOUS
 10
5.815920
 20
1.939520
  0
VERTEX
  8
0
  6
CONTINUOUS
 10
5.184080
 20
1.573000
  0
VERTEX
  8
0
  6
CONTINUOUS
 10
5.130840
 20
1.587080
  0
SEQEND
  8
0
  0
SOLID
  8
0
 62
    15
 10
4.891920
 20
2.228600
 11
5.524200
 21
2.594680
 12
4.893680
 22
2.130040
 13
5.525960
 23
2.496560
  0
POLYLINE
  8
0
  6
CONTINUOUS
 66
     1
 40
0.000000
 41
0.000000
  0
VERTEX
  8
0
  6
CONTINUOUS
 10
4.891920
 20
2.228600
  0
VERTEX
  8
0
  6
CONTINUOUS
 10
5.524200
 20
2.594680
  0
VERTEX
  8
0
  6
CONTINUOUS
 10
5.525960
 20
2.496560
  0
VERTEX
  8
0
  6
CONTINUOUS
 10
4.893680
 20
2.130040
  0
VERTEX
  8
0
  6
CONTINUOUS
 10
4.891920
 20
2.228600
  0
SEQEND
  8
0
  0
SOLID
  8
0
 62
    15
 10
5.232480
 20
1.548800
 11
5.864320
 21
1.915320
 12
5.275600
 22
1.515360
 13
5.907440
 23
1.881440
  0
POLYLINE
  8
0
  6
CONTINUOUS
 66
     1
 40
0.000000
 41
0.000000
  0
VERTEX
  8
0
  6
CONTINUOUS
 10
5.232480
 20
1.548800
  0
VERTEX
  8
0
  6
CONTINUOUS
 10
5.864320
 20
1.915320
  0
VERTEX
  8
0
  6
CONTINUOUS
 10
5.907440
 20
1.881440
  0
VERTEX
  8
0
  6
CONTINUOUS
 10
5.275600
 20
1.515360
  0
VERTEX
  8
0
  6
CONTINUOUS
 10
5.232480
 20
1.548800
  0
SEQEND
  8
0
  0
SOLID
  8
0
 62
    15
 10
5.275600
 20
1.515360
 11
5.907440
 21
1.881440
 12
5.313000
 22
1.473560
 13
5.944840
 23
1.840080
  0
POLYLINE
  8
0
  6
CONTINUOUS
 66
     1
 40
0.000000
 41
0.000000
  0
VERTEX
  8
0
  6
CONTINUOUS
 10
5.275600
 20
1.515360
  0
VERTEX
  8
0
  6
CONTINUOUS
 10
5.907440
 20
1.881440
  0
VERTEX
  8
0
  6
CONTINUOUS
 10
5.944840
 20
1.840080
  0
VERTEX
  8
0
  6
CONTINUOUS
 10
5.313000
 20
1.473560
  0
VERTEX
  8
0
  6
CONTINUOUS
 10
5.275600
 20
1.515360
  0
SEQEND
  8
0
  0
SOLID
  8
0
 62
    15
 10
5.313000
 20
1.473560
 11
5.944840
 21
1.840080
 12
5.344240
 22
1.425600
 13
5.976520
 23
1.792120
  0
POLYLINE
  8
0
  6
CONTINUOUS
 66
     1
 40
0.000000
 41
0.000000
  0
VERTEX
  8
0
  6
CONTINUOUS
 10
5.313000
 20
1.473560
  0
VERTEX
  8
0
  6
CONTINUOUS
 10
5.944840
 20
1.840080
  0
VERTEX
  8
0
  6
CONTINUOUS
 10
5.976520
 20
1.792120
  0
VERTEX
  8
0
  6
CONTINUOUS
 10
5.344240
 20
1.425600
  0
VERTEX
  8
0
  6
CONTINUOUS
 10
5.313000
 20
1.473560
  0
SEQEND
  8
0
  0
SOLID
  8
0
 62
    15
 10
5.344240
 20
1.425600
 11
5.976520
 21
1.792120
 12
5.368880
 22
1.372800
 13
6.001160
 23
1.739320
  0
POLYLINE
  8
0
  6
CONTINUOUS
 66
     1
 40
0.000000
 41
0.000000
  0
VERTEX
  8
0
  6
CONTINUOUS
 10
5.344240
 20
1.425600
  0
VERTEX
  8
0
  6
CONTINUOUS
 10
5.976520
 20
1.792120
  0
VERTEX
  8
0
  6
CONTINUOUS
 10
6.001160
 20
1.739320
  0
VERTEX
  8
0
  6
CONTINUOUS
 10
5.368880
 20
1.372800
  0
VERTEX
  8
0
  6
CONTINUOUS
 10
5.344240
 20
1.425600
  0
SEQEND
  8
0
  0
SOLID
  8
0
 62
    15
 10
5.368880
 20
1.372800
 11
6.001160
 21
1.739320
 12
5.386480
 22
1.316040
 13
6.018760
 23
1.682560
  0
POLYLINE
  8
0
  6
CONTINUOUS
 66
     1
 40
0.000000
 41
0.000000
  0
VERTEX
  8
0
  6
CONTINUOUS
 10
5.368880
 20
1.372800
  0
VERTEX
  8
0
  6
CONTINUOUS
 10
6.001160
 20
1.739320
  0
VERTEX
  8
0
  6
CONTINUOUS
 10
6.018760
 20
1.682560
  0
VERTEX
  8
0
  6
CONTINUOUS
 10
5.386480
 20
1.316040
  0
VERTEX
  8
0
  6
CONTINUOUS
 10
5.368880
 20
1.372800
  0
SEQEND
  8
0
  0
SOLID
  8
0
 62
    15
 10
5.386480
 20
1.316040
 11
6.018760
 21
1.682560
 12
5.396600
 22
1.257520
 13
6.028880
 23
1.623600
  0
POLYLINE
  8
0
  6
CONTINUOUS
 66
     1
 40
0.000000
 41
0.000000
  0
VERTEX
  8
0
  6
CONTINUOUS
 10
5.386480
 20
1.316040
  0
VERTEX
  8
0
  6
CONTINUOUS
 10
6.018760
 20
1.682560
  0
VERTEX
  8
0
  6
CONTINUOUS
 10
6.028880
 20
1.623600
  0
VERTEX
  8
0
  6
CONTINUOUS
 10
5.396600
 20
1.257520
  0
VERTEX
  8
0
  6
CONTINUOUS
 10
5.386480
 20
1.316040
  0
SEQEND
  8
0
  0
SOLID
  8
0
 62
    15
 10
5.396600
 20
1.257520
 11
6.028880
 21
1.623600
 12
5.398800
 22
1.197680
 13
6.030640
 23
1.564200
  0
POLYLINE
  8
0
  6
CONTINUOUS
 66
     1
 40
0.000000
 41
0.000000
  0
VERTEX
  8
0
  6
CONTINUOUS
 10
5.396600
 20
1.257520
  0
VERTEX
  8
0
  6
CONTINUOUS
 10
6.028880
 20
1.623600
  0
VERTEX
  8
0
  6
CONTINUOUS
 10
6.030640
 20
1.564200
  0
VERTEX
  8
0
  6
CONTINUOUS
 10
5.398800
 20
1.197680
  0
VERTEX
  8
0
  6
CONTINUOUS
 10
5.396600
 20
1.257520
  0
SEQEND
  8
0
  0
SOLID
  8
0
 62
    15
 10
5.398800
 20
1.197680
 11
6.030640
 21
1.564200
 12
5.392200
 22
1.138720
 13
6.024480
 23
1.505240
  0
POLYLINE
  8
0
  6
CONTINUOUS
 66
     1
 40
0.000000
 41
0.000000
  0
VERTEX
  8
0
  6
CONTINUOUS
 10
5.398800
 20
1.197680
  0
VERTEX
  8
0
  6
CONTINUOUS
 10
6.030640
 20
1.564200
  0
VERTEX
  8
0
  6
CONTINUOUS
 10
6.024480
 20
1.505240
  0
VERTEX
  8
0
  6
CONTINUOUS
 10
5.392200
 20
1.138720
  0
VERTEX
  8
0
  6
CONTINUOUS
 10
5.398800
 20
1.197680
  0
SEQEND
  8
0
  0
SOLID
  8
0
 62
    15
 10
5.392200
 20
1.138720
 11
6.024480
 21
1.505240
 12
5.376800
 22
1.081520
 13
6.009080
 23
1.448040
  0
POLYLINE
  8
0
  6
CONTINUOUS
 66
     1
 40
0.000000
 41
0.000000
  0
VERTEX
  8
0
  6
CONTINUOUS
 10
5.392200
 20
1.138720
  0
VERTEX
  8
0
  6
CONTINUOUS
 10
6.024480
 20
1.505240
  0
VERTEX
  8
0
  6
CONTINUOUS
 10
6.009080
 20
1.448040
  0
VERTEX
  8
0
  6
CONTINUOUS
 10
5.376800
 20
1.081520
  0
VERTEX
  8
0
  6
CONTINUOUS
 10
5.392200
 20
1.138720
  0
SEQEND
  8
0
  0
SOLID
  8
0
 62
    15
 10
5.376800
 20
1.081520
 11
6.009080
 21
1.448040
 12
5.352160
 22
1.027840
 13
5.984440
 23
1.394360
  0
POLYLINE
  8
0
  6
CONTINUOUS
 66
     1
 40
0.000000
 41
0.000000
  0
VERTEX
  8
0
  6
CONTINUOUS
 10
5.376800
 20
1.081520
  0
VERTEX
  8
0
  6
CONTINUOUS
 10
6.009080
 20
1.448040
  0
VERTEX
  8
0
  6
CONTINUOUS
 10
5.984440
 20
1.394360
  0
VERTEX
  8
0
  6
CONTINUOUS
 10
5.352160
 20
1.027840
  0
VERTEX
  8
0
  6
CONTINUOUS
 10
5.376800
 20
1.081520
  0
SEQEND
  8
0
  0
SOLID
  8
0
 62
    15
 10
5.352160
 20
1.027840
 11
5.984440
 21
1.394360
 12
5.317400
 22
0.979000
 13
5.949680
 23
1.345520
  0
POLYLINE
  8
0
  6
CONTINUOUS
 66
     1
 40
0.000000
 41
0.000000
  0
VERTEX
  8
0
  6
CONTINUOUS
 10
5.352160
 20
1.027840
  0
VERTEX
  8
0
  6
CONTINUOUS
 10
5.984440
 20
1.394360
  0
VERTEX
  8
0
  6
CONTINUOUS
 10
5.949680
 20
1.345520
  0
VERTEX
  8
0
  6
CONTINUOUS
 10
5.317400
 20
0.979000
  0
VERTEX
  8
0
  6
CONTINUOUS
 10
5.352160
 20
1.027840
  0
SEQEND
  8
0
  0
SOLID
  8
0
 62
    15
 10
5.317400
 20
0.979000
 11
5.949680
 21
1.345520
 12
5.272520
 22
0.936320
 13
5.904800
 23
1.302840
  0
POLYLINE
  8
0
  6
CONTINUOUS
 66
     1
 40
0.000000
 41
0.000000
  0
VERTEX
  8
0
  6
CONTINUOUS
 10
5.317400
 20
0.979000
  0
VERTEX
  8
0
  6
CONTINUOUS
 10
5.949680
 20
1.345520
  0
VERTEX
  8
0
  6
CONTINUOUS
 10
5.904800
 20
1.302840
  0
VERTEX
  8
0
  6
CONTINUOUS
 10
5.272520
 20
0.936320
  0
VERTEX
  8
0
  6
CONTINUOUS
 10
5.317400
 20
0.979000
  0
SEQEND
  8
0
  0
SOLID
  8
0
 62
    15
 10
5.272520
 20
0.936320
 11
5.904800
 21
1.302840
 12
5.246120
 22
0.917840
 13
5.877960
 23
1.284360
  0
POLYLINE
  8
0
  6
CONTINUOUS
 66
     1
 40
0.000000
 41
0.000000
  0
VERTEX
  8
0
  6
CONTINUOUS
 10
5.272520
 20
0.936320
  0
VERTEX
  8
0
  6
CONTINUOUS
 10
5.904800
 20
1.302840
  0
VERTEX
  8
0
  6
CONTINUOUS
 10
5.877960
 20
1.284360
  0
VERTEX
  8
0
  6
CONTINUOUS
 10
5.246120
 20
0.917840
  0
VERTEX
  8
0
  6
CONTINUOUS
 10
5.272520
 20
0.936320
  0
SEQEND
  8
0
  0
SOLID
  8
0
 62
    15
 10
4.697000
 20
2.228600
 11
5.329280
 21
2.595120
 12
4.891920
 22
2.228600
 13
5.524200
 23
2.595120
  0
POLYLINE
  8
0
  6
CONTINUOUS
 66
     1
 40
0.000000
 41
0.000000
  0
VERTEX
  8
0
  6
CONTINUOUS
 10
4.697000
 20
2.228600
  0
VERTEX
  8
0
  6
CONTINUOUS
 10
5.329280
 20
2.595120
  0
VERTEX
  8
0
  6
CONTINUOUS
 10
5.524200
 20
2.595120
  0
VERTEX
  8
0
  6
CONTINUOUS
 10
4.891920
 20
2.228600
  0
VERTEX
  8
0
  6
CONTINUOUS
 10
4.697000
 20
2.228600
  0
SEQEND
  8
0
  0
SOLID
  8
0
 62
    15
 10
4.891920
 20
2.228600
 11
5.524200
 21
2.595120
 12
4.891920
 22
2.228600
 13
5.524200
 23
2.594680
  0
POLYLINE
  8
0
  6
CONTINUOUS
 66
     1
 40
0.000000
 41
0.000000
  0
VERTEX
  8
0
  6
CONTINUOUS
 10
4.891920
 20
2.228600
  0
VERTEX
  8
0
  6
CONTINUOUS
 10
5.524200
 20
2.595120
  0
VERTEX
  8
0
  6
CONTINUOUS
 10
5.524200
 20
2.594680
  0
VERTEX
  8
0
  6
CONTINUOUS
 10
4.891920
 20
2.228600
  0
SEQEND
  8
0
  0
POLYLINE
  8
0
  6
CONTINUOUS
 66
     1
 40
0.000000
 41
0.000000
  0
VERTEX
  8
0
  6
CONTINUOUS
 10
4.891920
 20
2.228600
  0
VERTEX
  8
0
  6
CONTINUOUS
 10
4.893680
 20
2.130040
  0
VERTEX
  8
0
  6
CONTINUOUS
 10
4.901160
 20
2.038960
  0
VERTEX
  8
0
  6
CONTINUOUS
 10
4.915240
 20
1.956680
  0
VERTEX
  8
0
  6
CONTINUOUS
 10
4.925360
 20
1.919280
  0
VERTEX
  8
0
  6
CONTINUOUS
 10
4.937680
 20
1.884520
  0
VERTEX
  8
0
  6
CONTINUOUS
 10
4.952200
 20
1.852840
  0
VERTEX
  8
0
  6
CONTINUOUS
 10
4.968920
 20
1.823800
  0
VERTEX
  8
0
  6
CONTINUOUS
 10
4.988720
 20
1.798280
  0
VERTEX
  8
0
  6
CONTINUOUS
 10
5.011160
 20
1.775840
  0
VERTEX
  8
0
  6
CONTINUOUS
 10
5.036240
 20
1.756920
  0
VERTEX
  8
0
  6
CONTINUOUS
 10
5.064400
 20
1.741520
  0
VERTEX
  8
0
  6
CONTINUOUS
 10
5.096080
 20
1.730080
  0
VERTEX
  8
0
  6
CONTINUOUS
 10
5.130840
 20
1.722600
  0
VERTEX
  8
0
  6
CONTINUOUS
 10
5.130840
 20
1.587080
  0
VERTEX
  8
0
  6
CONTINUOUS
 10
5.184080
 20
1.573000
  0
VERTEX
  8
0
  6
CONTINUOUS
 10
5.232480
 20
1.548800
  0
VERTEX
  8
0
  6
CONTINUOUS
 10
5.275600
 20
1.515360
  0
VERTEX
  8
0
  6
CONTINUOUS
 10
5.313000
 20
1.473560
  0
VERTEX
  8
0
  6
CONTINUOUS
 10
5.344240
 20
1.425600
  0
VERTEX
  8
0
  6
CONTINUOUS
 10
5.368880
 20
1.372800
  0
VERTEX
  8
0
  6
CONTINUOUS
 10
5.386480
 20
1.316040
  0
VERTEX
  8
0
  6
CONTINUOUS
 10
5.396600
 20
1.257520
  0
VERTEX
  8
0
  6
CONTINUOUS
 10
5.398800
 20
1.197680
  0
VERTEX
  8
0
  6
CONTINUOUS
 10
5.392200
 20
1.138720
  0
VERTEX
  8
0
  6
CONTINUOUS
 10
5.376800
 20
1.081520
  0
VERTEX
  8
0
  6
CONTINUOUS
 10
5.352160
 20
1.027840
  0
VERTEX
  8
0
  6
CONTINUOUS
 10
5.317400
 20
0.979000
  0
VERTEX
  8
0
  6
CONTINUOUS
 10
5.272520
 20
0.936320
  0
VERTEX
  8
0
  6
CONTINUOUS
 10
5.246120
 20
0.917840
  0
VERTEX
  8
0
  6
CONTINUOUS
 10
5.216640
 20
0.901120
  0
VERTEX
  8
0
  6
CONTINUOUS
 10
5.184520
 20
0.887040
  0
VERTEX
  8
0
  6
CONTINUOUS
 10
5.149760
 20
0.875160
  0
VERTEX
  8
0
  6
CONTINUOUS
 10
4.697000
 20
0.876040
  0
VERTEX
  8
0
  6
CONTINUOUS
 10
4.697000
 20
2.228600
  0
VERTEX
  8
0
  6
CONTINUOUS
 10
4.891920
 20
2.228600
  0
SEQEND
  8
0
  0
TEXT
  8
0
 10
5.069240
 20
0.630960
 40
0.138132
  1
BA  374
 41
1.000000
  7
SN0
 71
     0
 72
     5
 11
5.659263
 21
0.630960
  0
TEXT
  8
0
 10
4.821080
 20
0.439120
 40
0.138132
  1
11/16" x 1-3/8"
 41
1.000000
  7
SN0
 71
     0
 72
     5
 11
5.905771
 21
0.439120
  0
ENDSEC
  0
EOF
