  0
SECTION
  2
HEADER
  9
$ACADVER
  1
AC1006
  9
$EXTMIN
 10
4.389440
 20
0.394680
  9
$EXTMAX
 10
7.994800
 20
2.410320
  9
$LTSCALE
 40
0.044000
  9
$PDMODE
 70
    35
  9
$PDSIZE
 40
0.035200
  0
ENDSEC
  0
SECTION
  2
TABLES
  0
TABLE
  2
LTYPE
 70
     9
  0
LTYPE
  2
CONTINUOUS
 70
    64
  3
Solid line
 72
    65
 73
     0
 40
0.000000
  0
LTYPE
  2
DASHED
 70
    64
  3
__ __ __ __ __ __ __ __ __ __ __ __ __ __ __
 72
    65
 73
     2
 40
0.000330
 49
0.000220
 49
-0.000110
  0
LTYPE
  2
HIDDEN
 70
    64
  3
 _ _ _ _ _ _ _ _ _ _ _ _ _ _ _ _ _ _ _ _ _ _
 72
    65
 73
     2
 40
0.000165
 49
0.000110
 49
-0.000055
  0
LTYPE
  2
CENTER
 70
    64
  3
____ _ ____ _ ____ _ ____ _ ____ _ ____ _ ____
 72
    65
 73
     4
 40
0.000880
 49
0.000550
 49
-0.000110
 49
0.000110
 49
-0.000110
  0
LTYPE
  2
PHANTOM
 70
    64
  3
_____ _ _ _____ _ _ _____ _ _ _____ _ _ ____
 72
    65
 73
     6
 40
0.001100
 49
0.000550
 49
-0.000110
 49
0.000110
 49
-0.000110
 49
0.000110
 49
-0.000110
  0
LTYPE
  2
DOT
 70
    64
  3
...............................................
 72
    65
 73
     2
 40
0.000110
 49
0.000000
 49
-0.000110
  0
LTYPE
  2
DASHDOT
 70
    64
  3
__ . __ . __ . __ . __ . __ . __ . __ . __ . __
 72
    65
 73
     4
 40
0.000440
 49
0.000220
 49
-0.000110
 49
0.000000
 49
-0.000110
  0
LTYPE
  2
BORDER
 70
    64
  3
__ __ . __ __ . __ __ . __ __ . __ __ . __ __
 72
    65
 73
     6
 40
0.000770
 49
0.000220
 49
-0.000110
 49
0.000220
 49
-0.000110
 49
0.000000
 49
-0.000110
  0
LTYPE
  2
DIVIDE
 70
    64
  3
__ . . __ . . __ . . __ . . __ . . __ . . __
 72
    65
 73
     6
 40
0.000550
 49
0.000220
 49
-0.000110
 49
0.000000
 49
-0.000110
 49
0.000000
 49
-0.000110
  0
LTYPE
  2
DOTDOT
 70
    64
  3
 . .  . .  . .  . .  . .  . . 
 72
    65
 73
     5
 40
0.000242
 49
-0.000110
 49
0.000000
 49
-0.000110
 49
0.000000
 49
-0.000110
  0
ENDTAB
  0
TABLE
  2
STYLE
 70
     2
  0
STYLE
 70
     0
  2
SN0
 40
0.000000
 41
0.000440
 50
0.000000
 71
     0
 42
0.000000
  3
ROMAND
  0
STYLE
 70
    68
  2
SV0
 40
0.000000
 41
0.000440
 50
0.000000
 71
     0
 42
0.000000
  3
ROMAND
  0
ENDTAB
  0
TABLE
  2
LAYER
 70
     3
  0
LAYER
  2
FOREGROUND
 70
    64
 62
     7
  6
CONTINUOUS
  0
LAYER
  2
BACKGROUND
 70
    65
 62
    -7
  6
CONTINUOUS
  0
LAYER
  2
0
 70
    64
 62
     7
  6
CONTINUOUS
  0
ENDTAB
  0
ENDSEC
  0
SECTION
  2
ENTITIES
  0
POLYLINE
  8
FOREGROUND
  6
CONTINUOUS
 66
     1
 40
0.000000
 41
0.000000
  0
VERTEX
  8
FOREGROUND
  6
CONTINUOUS
 10
0.000000
 20
2.805000
  0
VERTEX
  8
FOREGROUND
  6
CONTINUOUS
 10
8.499920
 20
2.805000
  0
VERTEX
  8
FOREGROUND
  6
CONTINUOUS
 10
8.499920
 20
-8.195000
  0
VERTEX
  8
FOREGROUND
  6
CONTINUOUS
 10
0.000000
 20
-8.195000
  0
VERTEX
  8
FOREGROUND
  6
CONTINUOUS
 10
0.000000
 20
2.805000
  0
SEQEND
  8
0
  0
POLYLINE
  8
FOREGROUND
  6
CONTINUOUS
 66
     1
 40
0.000000
 41
0.000000
  0
VERTEX
  8
FOREGROUND
  6
CONTINUOUS
 10
0.000000
 20
2.805000
  0
VERTEX
  8
FOREGROUND
  6
CONTINUOUS
 10
8.499920
 20
2.805000
  0
VERTEX
  8
FOREGROUND
  6
CONTINUOUS
 10
8.499920
 20
-8.195000
  0
VERTEX
  8
FOREGROUND
  6
CONTINUOUS
 10
0.000000
 20
-8.195000
  0
VERTEX
  8
FOREGROUND
  6
CONTINUOUS
 10
0.000000
 20
2.805000
  0
SEQEND
  8
0
  0
POLYLINE
  8
0
  6
CONTINUOUS
 66
     1
 40
0.014080
 41
0.014080
  0
VERTEX
  8
0
  6
CONTINUOUS
 10
7.302680
 20
2.357960
  0
VERTEX
  8
0
  6
CONTINUOUS
 10
7.311920
 20
2.287560
  0
VERTEX
  8
0
  6
CONTINUOUS
 10
7.325560
 20
2.224640
  0
VERTEX
  8
0
  6
CONTINUOUS
 10
7.344040
 20
2.169200
  0
VERTEX
  8
0
  6
CONTINUOUS
 10
7.366480
 20
2.119480
  0
VERTEX
  8
0
  6
CONTINUOUS
 10
7.393320
 20
2.075480
  0
VERTEX
  8
0
  6
CONTINUOUS
 10
7.424120
 20
2.036320
  0
VERTEX
  8
0
  6
CONTINUOUS
 10
7.446560
 20
2.013000
  0
VERTEX
  8
0
  6
CONTINUOUS
 10
7.470760
 20
1.991000
  0
VERTEX
  8
0
  6
CONTINUOUS
 10
7.496720
 20
1.970320
  0
VERTEX
  8
0
  6
CONTINUOUS
 10
7.553480
 20
1.932480
  0
VERTEX
  8
0
  6
CONTINUOUS
 10
7.615960
 20
1.898160
  0
VERTEX
  8
0
  6
CONTINUOUS
 10
7.710560
 20
1.856360
  0
VERTEX
  8
0
  6
CONTINUOUS
 10
7.852680
 20
1.794320
  0
VERTEX
  8
0
  6
CONTINUOUS
 10
7.902400
 20
1.768360
  0
VERTEX
  8
0
  6
CONTINUOUS
 10
7.916920
 20
1.759120
  0
VERTEX
  8
0
  6
CONTINUOUS
 10
7.941120
 20
1.737120
  0
VERTEX
  8
0
  6
CONTINUOUS
 10
7.958280
 20
1.711600
  0
VERTEX
  8
0
  6
CONTINUOUS
 10
7.964440
 20
1.697960
  0
VERTEX
  8
0
  6
CONTINUOUS
 10
7.968840
 20
1.683880
  0
VERTEX
  8
0
  6
CONTINUOUS
 10
7.972800
 20
1.655280
  0
VERTEX
  8
0
  6
CONTINUOUS
 10
7.970600
 20
1.626240
  0
VERTEX
  8
0
  6
CONTINUOUS
 10
7.967080
 20
1.611720
  0
VERTEX
  8
0
  6
CONTINUOUS
 10
7.955200
 20
1.584000
  0
VERTEX
  8
0
  6
CONTINUOUS
 10
7.937600
 20
1.558920
  0
VERTEX
  8
0
  6
CONTINUOUS
 10
7.909440
 20
1.529880
  0
VERTEX
  8
0
  6
CONTINUOUS
 10
7.885240
 20
1.512720
  0
VERTEX
  8
0
  6
CONTINUOUS
 10
7.850480
 20
1.498200
  0
VERTEX
  8
0
  6
CONTINUOUS
 10
7.827600
 20
1.491600
  0
VERTEX
  8
0
  6
CONTINUOUS
 10
7.827600
 20
1.388640
  0
VERTEX
  8
0
  6
CONTINUOUS
 10
7.987760
 20
1.388640
  0
VERTEX
  8
0
  6
CONTINUOUS
 10
7.987760
 20
1.184920
  0
VERTEX
  8
0
  6
CONTINUOUS
 10
7.102480
 20
1.184920
  0
VERTEX
  8
0
  6
CONTINUOUS
 10
7.102480
 20
2.361480
  0
VERTEX
  8
0
  6
CONTINUOUS
 10
7.302680
 20
2.361480
  0
SEQEND
  8
0
  0
SOLID
  8
0
 62
     7
 10
5.217520
 20
1.425160
 11
5.854640
 21
1.796960
 12
5.238200
 22
1.401400
 13
5.875320
 23
1.773200
  0
POLYLINE
  8
0
  6
CONTINUOUS
 66
     1
 40
0.000000
 41
0.000000
  0
VERTEX
  8
0
  6
CONTINUOUS
 10
5.217520
 20
1.425160
  0
VERTEX
  8
0
  6
CONTINUOUS
 10
5.854640
 20
1.796960
  0
VERTEX
  8
0
  6
CONTINUOUS
 10
5.875320
 20
1.773200
  0
VERTEX
  8
0
  6
CONTINUOUS
 10
5.238200
 20
1.401400
  0
VERTEX
  8
0
  6
CONTINUOUS
 10
5.217520
 20
1.425160
  0
SEQEND
  8
0
  0
SOLID
  8
0
 62
     7
 10
4.596240
 20
1.987040
 11
5.233360
 21
2.358840
 12
4.603720
 22
1.942600
 13
5.240840
 23
2.314400
  0
POLYLINE
  8
0
  6
CONTINUOUS
 66
     1
 40
0.000000
 41
0.000000
  0
VERTEX
  8
0
  6
CONTINUOUS
 10
4.596240
 20
1.987040
  0
VERTEX
  8
0
  6
CONTINUOUS
 10
5.233360
 20
2.358840
  0
VERTEX
  8
0
  6
CONTINUOUS
 10
5.240840
 20
2.314400
  0
VERTEX
  8
0
  6
CONTINUOUS
 10
4.603720
 20
1.942600
  0
VERTEX
  8
0
  6
CONTINUOUS
 10
4.596240
 20
1.987040
  0
SEQEND
  8
0
  0
SOLID
  8
0
 62
     7
 10
4.603720
 20
1.942600
 11
5.240840
 21
2.314400
 12
4.625280
 22
1.863400
 13
5.262400
 23
2.235200
  0
POLYLINE
  8
0
  6
CONTINUOUS
 66
     1
 40
0.000000
 41
0.000000
  0
VERTEX
  8
0
  6
CONTINUOUS
 10
4.603720
 20
1.942600
  0
VERTEX
  8
0
  6
CONTINUOUS
 10
5.240840
 20
2.314400
  0
VERTEX
  8
0
  6
CONTINUOUS
 10
5.262400
 20
2.235200
  0
VERTEX
  8
0
  6
CONTINUOUS
 10
4.625280
 20
1.863400
  0
VERTEX
  8
0
  6
CONTINUOUS
 10
4.603720
 20
1.942600
  0
SEQEND
  8
0
  0
SOLID
  8
0
 62
     7
 10
4.625280
 20
1.863400
 11
5.262400
 21
2.235200
 12
4.654320
 22
1.796080
 13
5.291440
 23
2.167880
  0
POLYLINE
  8
0
  6
CONTINUOUS
 66
     1
 40
0.000000
 41
0.000000
  0
VERTEX
  8
0
  6
CONTINUOUS
 10
4.625280
 20
1.863400
  0
VERTEX
  8
0
  6
CONTINUOUS
 10
5.262400
 20
2.235200
  0
VERTEX
  8
0
  6
CONTINUOUS
 10
5.291440
 20
2.167880
  0
VERTEX
  8
0
  6
CONTINUOUS
 10
4.654320
 20
1.796080
  0
VERTEX
  8
0
  6
CONTINUOUS
 10
4.625280
 20
1.863400
  0
SEQEND
  8
0
  0
SOLID
  8
0
 62
     7
 10
4.654320
 20
1.796080
 11
5.291440
 21
2.167880
 12
4.690840
 22
1.738880
 13
5.327960
 23
2.110240
  0
POLYLINE
  8
0
  6
CONTINUOUS
 66
     1
 40
0.000000
 41
0.000000
  0
VERTEX
  8
0
  6
CONTINUOUS
 10
4.654320
 20
1.796080
  0
VERTEX
  8
0
  6
CONTINUOUS
 10
5.291440
 20
2.167880
  0
VERTEX
  8
0
  6
CONTINUOUS
 10
5.327960
 20
2.110240
  0
VERTEX
  8
0
  6
CONTINUOUS
 10
4.690840
 20
1.738880
  0
VERTEX
  8
0
  6
CONTINUOUS
 10
4.654320
 20
1.796080
  0
SEQEND
  8
0
  0
SOLID
  8
0
 62
     7
 10
4.690840
 20
1.738880
 11
5.327960
 21
2.110240
 12
4.734400
 22
1.689600
 13
5.371520
 23
2.061400
  0
POLYLINE
  8
0
  6
CONTINUOUS
 66
     1
 40
0.000000
 41
0.000000
  0
VERTEX
  8
0
  6
CONTINUOUS
 10
4.690840
 20
1.738880
  0
VERTEX
  8
0
  6
CONTINUOUS
 10
5.327960
 20
2.110240
  0
VERTEX
  8
0
  6
CONTINUOUS
 10
5.371520
 20
2.061400
  0
VERTEX
  8
0
  6
CONTINUOUS
 10
4.734400
 20
1.689600
  0
VERTEX
  8
0
  6
CONTINUOUS
 10
4.690840
 20
1.738880
  0
SEQEND
  8
0
  0
SOLID
  8
0
 62
     7
 10
4.734400
 20
1.689600
 11
5.371520
 21
2.061400
 12
4.784560
 22
1.646920
 13
5.421680
 23
2.018720
  0
POLYLINE
  8
0
  6
CONTINUOUS
 66
     1
 40
0.000000
 41
0.000000
  0
VERTEX
  8
0
  6
CONTINUOUS
 10
4.734400
 20
1.689600
  0
VERTEX
  8
0
  6
CONTINUOUS
 10
5.371520
 20
2.061400
  0
VERTEX
  8
0
  6
CONTINUOUS
 10
5.421680
 20
2.018720
  0
VERTEX
  8
0
  6
CONTINUOUS
 10
4.784560
 20
1.646920
  0
VERTEX
  8
0
  6
CONTINUOUS
 10
4.734400
 20
1.689600
  0
SEQEND
  8
0
  0
SOLID
  8
0
 62
     7
 10
4.784560
 20
1.646920
 11
5.421680
 21
2.018720
 12
4.841320
 22
1.609080
 13
5.478440
 23
1.980880
  0
POLYLINE
  8
0
  6
CONTINUOUS
 66
     1
 40
0.000000
 41
0.000000
  0
VERTEX
  8
0
  6
CONTINUOUS
 10
4.784560
 20
1.646920
  0
VERTEX
  8
0
  6
CONTINUOUS
 10
5.421680
 20
2.018720
  0
VERTEX
  8
0
  6
CONTINUOUS
 10
5.478440
 20
1.980880
  0
VERTEX
  8
0
  6
CONTINUOUS
 10
4.841320
 20
1.609080
  0
VERTEX
  8
0
  6
CONTINUOUS
 10
4.784560
 20
1.646920
  0
SEQEND
  8
0
  0
SOLID
  8
0
 62
    15
 10
4.841320
 20
1.609080
 11
5.478440
 21
1.980880
 12
4.903800
 22
1.575200
 13
5.540920
 23
1.946560
  0
POLYLINE
  8
0
  6
CONTINUOUS
 66
     1
 40
0.000000
 41
0.000000
  0
VERTEX
  8
0
  6
CONTINUOUS
 10
4.841320
 20
1.609080
  0
VERTEX
  8
0
  6
CONTINUOUS
 10
5.478440
 20
1.980880
  0
VERTEX
  8
0
  6
CONTINUOUS
 10
5.540920
 20
1.946560
  0
VERTEX
  8
0
  6
CONTINUOUS
 10
4.903800
 20
1.575200
  0
VERTEX
  8
0
  6
CONTINUOUS
 10
4.841320
 20
1.609080
  0
SEQEND
  8
0
  0
SOLID
  8
0
 62
    15
 10
4.903800
 20
1.575200
 11
5.540920
 21
1.946560
 12
4.928440
 22
1.563320
 13
5.566000
 23
1.935120
  0
POLYLINE
  8
0
  6
CONTINUOUS
 66
     1
 40
0.000000
 41
0.000000
  0
VERTEX
  8
0
  6
CONTINUOUS
 10
4.903800
 20
1.575200
  0
VERTEX
  8
0
  6
CONTINUOUS
 10
5.540920
 20
1.946560
  0
VERTEX
  8
0
  6
CONTINUOUS
 10
5.566000
 20
1.935120
  0
VERTEX
  8
0
  6
CONTINUOUS
 10
4.928440
 20
1.563320
  0
VERTEX
  8
0
  6
CONTINUOUS
 10
4.903800
 20
1.575200
  0
SEQEND
  8
0
  0
SOLID
  8
0
 62
    15
 10
4.928440
 20
1.563320
 11
5.566000
 21
1.935120
 12
4.961000
 22
1.549240
 13
5.598120
 23
1.921040
  0
POLYLINE
  8
0
  6
CONTINUOUS
 66
     1
 40
0.000000
 41
0.000000
  0
VERTEX
  8
0
  6
CONTINUOUS
 10
4.928440
 20
1.563320
  0
VERTEX
  8
0
  6
CONTINUOUS
 10
5.566000
 20
1.935120
  0
VERTEX
  8
0
  6
CONTINUOUS
 10
5.598120
 20
1.921040
  0
VERTEX
  8
0
  6
CONTINUOUS
 10
4.961000
 20
1.549240
  0
VERTEX
  8
0
  6
CONTINUOUS
 10
4.928440
 20
1.563320
  0
SEQEND
  8
0
  0
SOLID
  8
0
 62
    15
 10
4.961000
 20
1.549240
 11
5.598120
 21
1.921040
 12
5.038880
 22
1.515800
 13
5.676000
 23
1.887600
  0
POLYLINE
  8
0
  6
CONTINUOUS
 66
     1
 40
0.000000
 41
0.000000
  0
VERTEX
  8
0
  6
CONTINUOUS
 10
4.961000
 20
1.549240
  0
VERTEX
  8
0
  6
CONTINUOUS
 10
5.598120
 20
1.921040
  0
VERTEX
  8
0
  6
CONTINUOUS
 10
5.676000
 20
1.887600
  0
VERTEX
  8
0
  6
CONTINUOUS
 10
5.038880
 20
1.515800
  0
VERTEX
  8
0
  6
CONTINUOUS
 10
4.961000
 20
1.549240
  0
SEQEND
  8
0
  0
SOLID
  8
0
 62
    15
 10
5.038880
 20
1.515800
 11
5.676000
 21
1.887600
 12
5.120720
 22
1.479720
 13
5.758280
 23
1.851520
  0
POLYLINE
  8
0
  6
CONTINUOUS
 66
     1
 40
0.000000
 41
0.000000
  0
VERTEX
  8
0
  6
CONTINUOUS
 10
5.038880
 20
1.515800
  0
VERTEX
  8
0
  6
CONTINUOUS
 10
5.676000
 20
1.887600
  0
VERTEX
  8
0
  6
CONTINUOUS
 10
5.758280
 20
1.851520
  0
VERTEX
  8
0
  6
CONTINUOUS
 10
5.120720
 20
1.479720
  0
VERTEX
  8
0
  6
CONTINUOUS
 10
5.038880
 20
1.515800
  0
SEQEND
  8
0
  0
SOLID
  8
0
 62
    15
 10
5.120720
 20
1.479720
 11
5.758280
 21
1.851520
 12
5.158120
 22
1.462120
 13
5.795240
 23
1.833920
  0
POLYLINE
  8
0
  6
CONTINUOUS
 66
     1
 40
0.000000
 41
0.000000
  0
VERTEX
  8
0
  6
CONTINUOUS
 10
5.120720
 20
1.479720
  0
VERTEX
  8
0
  6
CONTINUOUS
 10
5.758280
 20
1.851520
  0
VERTEX
  8
0
  6
CONTINUOUS
 10
5.795240
 20
1.833920
  0
VERTEX
  8
0
  6
CONTINUOUS
 10
5.158120
 20
1.462120
  0
VERTEX
  8
0
  6
CONTINUOUS
 10
5.120720
 20
1.479720
  0
SEQEND
  8
0
  0
SOLID
  8
0
 62
    15
 10
5.158120
 20
1.462120
 11
5.795240
 21
1.833920
 12
5.189800
 22
1.445400
 13
5.826920
 23
1.816760
  0
POLYLINE
  8
0
  6
CONTINUOUS
 66
     1
 40
0.000000
 41
0.000000
  0
VERTEX
  8
0
  6
CONTINUOUS
 10
5.158120
 20
1.462120
  0
VERTEX
  8
0
  6
CONTINUOUS
 10
5.795240
 20
1.833920
  0
VERTEX
  8
0
  6
CONTINUOUS
 10
5.826920
 20
1.816760
  0
VERTEX
  8
0
  6
CONTINUOUS
 10
5.189800
 20
1.445400
  0
VERTEX
  8
0
  6
CONTINUOUS
 10
5.158120
 20
1.462120
  0
SEQEND
  8
0
  0
SOLID
  8
0
 62
     7
 10
5.189800
 20
1.445400
 11
5.826920
 21
1.816760
 12
5.217520
 22
1.425160
 13
5.854640
 23
1.796960
  0
POLYLINE
  8
0
  6
CONTINUOUS
 66
     1
 40
0.000000
 41
0.000000
  0
VERTEX
  8
0
  6
CONTINUOUS
 10
5.189800
 20
1.445400
  0
VERTEX
  8
0
  6
CONTINUOUS
 10
5.826920
 20
1.816760
  0
VERTEX
  8
0
  6
CONTINUOUS
 10
5.854640
 20
1.796960
  0
VERTEX
  8
0
  6
CONTINUOUS
 10
5.217520
 20
1.425160
  0
VERTEX
  8
0
  6
CONTINUOUS
 10
5.189800
 20
1.445400
  0
SEQEND
  8
0
  0
SOLID
  8
0
 62
     7
 10
4.590520
 20
2.035000
 11
5.227640
 21
2.406360
 12
4.596240
 22
1.987040
 13
5.233360
 23
2.358840
  0
POLYLINE
  8
0
  6
CONTINUOUS
 66
     1
 40
0.000000
 41
0.000000
  0
VERTEX
  8
0
  6
CONTINUOUS
 10
4.590520
 20
2.035000
  0
VERTEX
  8
0
  6
CONTINUOUS
 10
5.227640
 20
2.406360
  0
VERTEX
  8
0
  6
CONTINUOUS
 10
5.233360
 20
2.358840
  0
VERTEX
  8
0
  6
CONTINUOUS
 10
4.596240
 20
1.987040
  0
VERTEX
  8
0
  6
CONTINUOUS
 10
4.590520
 20
2.035000
  0
SEQEND
  8
0
  0
SOLID
  8
0
 62
     7
 10
5.238200
 20
1.401400
 11
5.875320
 21
1.773200
 12
5.251840
 22
1.375000
 13
5.889400
 23
1.746360
  0
POLYLINE
  8
0
  6
CONTINUOUS
 66
     1
 40
0.000000
 41
0.000000
  0
VERTEX
  8
0
  6
CONTINUOUS
 10
5.238200
 20
1.401400
  0
VERTEX
  8
0
  6
CONTINUOUS
 10
5.875320
 20
1.773200
  0
VERTEX
  8
0
  6
CONTINUOUS
 10
5.889400
 20
1.746360
  0
VERTEX
  8
0
  6
CONTINUOUS
 10
5.251840
 20
1.375000
  0
VERTEX
  8
0
  6
CONTINUOUS
 10
5.238200
 20
1.401400
  0
SEQEND
  8
0
  0
SOLID
  8
0
 62
     7
 10
5.251840
 20
1.375000
 11
5.889400
 21
1.746360
 12
5.259320
 22
1.346400
 13
5.896440
 23
1.718200
  0
POLYLINE
  8
0
  6
CONTINUOUS
 66
     1
 40
0.000000
 41
0.000000
  0
VERTEX
  8
0
  6
CONTINUOUS
 10
5.251840
 20
1.375000
  0
VERTEX
  8
0
  6
CONTINUOUS
 10
5.889400
 20
1.746360
  0
VERTEX
  8
0
  6
CONTINUOUS
 10
5.896440
 20
1.718200
  0
VERTEX
  8
0
  6
CONTINUOUS
 10
5.259320
 20
1.346400
  0
VERTEX
  8
0
  6
CONTINUOUS
 10
5.251840
 20
1.375000
  0
SEQEND
  8
0
  0
SOLID
  8
0
 62
    15
 10
5.259320
 20
1.346400
 11
5.896440
 21
1.718200
 12
5.260200
 22
1.317360
 13
5.897320
 23
1.689160
  0
POLYLINE
  8
0
  6
CONTINUOUS
 66
     1
 40
0.000000
 41
0.000000
  0
VERTEX
  8
0
  6
CONTINUOUS
 10
5.259320
 20
1.346400
  0
VERTEX
  8
0
  6
CONTINUOUS
 10
5.896440
 20
1.718200
  0
VERTEX
  8
0
  6
CONTINUOUS
 10
5.897320
 20
1.689160
  0
VERTEX
  8
0
  6
CONTINUOUS
 10
5.260200
 20
1.317360
  0
VERTEX
  8
0
  6
CONTINUOUS
 10
5.259320
 20
1.346400
  0
SEQEND
  8
0
  0
SOLID
  8
0
 62
    15
 10
5.260200
 20
1.317360
 11
5.897320
 21
1.689160
 12
5.254920
 22
1.288320
 13
5.892040
 23
1.660120
  0
POLYLINE
  8
0
  6
CONTINUOUS
 66
     1
 40
0.000000
 41
0.000000
  0
VERTEX
  8
0
  6
CONTINUOUS
 10
5.260200
 20
1.317360
  0
VERTEX
  8
0
  6
CONTINUOUS
 10
5.897320
 20
1.689160
  0
VERTEX
  8
0
  6
CONTINUOUS
 10
5.892040
 20
1.660120
  0
VERTEX
  8
0
  6
CONTINUOUS
 10
5.254920
 20
1.288320
  0
VERTEX
  8
0
  6
CONTINUOUS
 10
5.260200
 20
1.317360
  0
SEQEND
  8
0
  0
SOLID
  8
0
 62
    15
 10
5.254920
 20
1.288320
 11
5.892040
 21
1.660120
 12
5.243040
 22
1.261040
 13
5.880160
 23
1.632840
  0
POLYLINE
  8
0
  6
CONTINUOUS
 66
     1
 40
0.000000
 41
0.000000
  0
VERTEX
  8
0
  6
CONTINUOUS
 10
5.254920
 20
1.288320
  0
VERTEX
  8
0
  6
CONTINUOUS
 10
5.892040
 20
1.660120
  0
VERTEX
  8
0
  6
CONTINUOUS
 10
5.880160
 20
1.632840
  0
VERTEX
  8
0
  6
CONTINUOUS
 10
5.243040
 20
1.261040
  0
VERTEX
  8
0
  6
CONTINUOUS
 10
5.254920
 20
1.288320
  0
SEQEND
  8
0
  0
SOLID
  8
0
 62
    15
 10
5.243040
 20
1.261040
 11
5.880160
 21
1.632840
 12
5.225440
 22
1.235520
 13
5.862560
 23
1.607320
  0
POLYLINE
  8
0
  6
CONTINUOUS
 66
     1
 40
0.000000
 41
0.000000
  0
VERTEX
  8
0
  6
CONTINUOUS
 10
5.243040
 20
1.261040
  0
VERTEX
  8
0
  6
CONTINUOUS
 10
5.880160
 20
1.632840
  0
VERTEX
  8
0
  6
CONTINUOUS
 10
5.862560
 20
1.607320
  0
VERTEX
  8
0
  6
CONTINUOUS
 10
5.225440
 20
1.235520
  0
VERTEX
  8
0
  6
CONTINUOUS
 10
5.243040
 20
1.261040
  0
SEQEND
  8
0
  0
SOLID
  8
0
 62
    15
 10
5.225440
 20
1.235520
 11
5.862560
 21
1.607320
 12
5.220600
 22
1.230680
 13
5.858160
 23
1.602480
  0
POLYLINE
  8
0
  6
CONTINUOUS
 66
     1
 40
0.000000
 41
0.000000
  0
VERTEX
  8
0
  6
CONTINUOUS
 10
5.225440
 20
1.235520
  0
VERTEX
  8
0
  6
CONTINUOUS
 10
5.862560
 20
1.607320
  0
VERTEX
  8
0
  6
CONTINUOUS
 10
5.858160
 20
1.602480
  0
VERTEX
  8
0
  6
CONTINUOUS
 10
5.220600
 20
1.230680
  0
VERTEX
  8
0
  6
CONTINUOUS
 10
5.225440
 20
1.235520
  0
SEQEND
  8
0
  0
SOLID
  8
0
 62
    15
 10
5.115440
 20
1.168200
 11
5.752560
 21
1.540000
 12
5.115440
 22
1.065240
 13
5.752560
 23
1.437040
  0
POLYLINE
  8
0
  6
CONTINUOUS
 66
     1
 40
0.000000
 41
0.000000
  0
VERTEX
  8
0
  6
CONTINUOUS
 10
5.115440
 20
1.168200
  0
VERTEX
  8
0
  6
CONTINUOUS
 10
5.752560
 20
1.540000
  0
VERTEX
  8
0
  6
CONTINUOUS
 10
5.752560
 20
1.437040
  0
VERTEX
  8
0
  6
CONTINUOUS
 10
5.115440
 20
1.065240
  0
VERTEX
  8
0
  6
CONTINUOUS
 10
5.115440
 20
1.168200
  0
SEQEND
  8
0
  0
SOLID
  8
0
 62
    15
 10
5.216200
 20
1.225400
 11
5.853320
 21
1.597200
 12
5.206960
 22
1.215720
 13
5.844520
 23
1.587520
  0
POLYLINE
  8
0
  6
CONTINUOUS
 66
     1
 40
0.000000
 41
0.000000
  0
VERTEX
  8
0
  6
CONTINUOUS
 10
5.216200
 20
1.225400
  0
VERTEX
  8
0
  6
CONTINUOUS
 10
5.853320
 20
1.597200
  0
VERTEX
  8
0
  6
CONTINUOUS
 10
5.844520
 20
1.587520
  0
VERTEX
  8
0
  6
CONTINUOUS
 10
5.206960
 20
1.215720
  0
VERTEX
  8
0
  6
CONTINUOUS
 10
5.216200
 20
1.225400
  0
SEQEND
  8
0
  0
SOLID
  8
0
 62
    15
 10
5.206960
 20
1.215720
 11
5.844520
 21
1.587520
 12
5.185840
 22
1.197680
 13
5.823400
 23
1.569480
  0
POLYLINE
  8
0
  6
CONTINUOUS
 66
     1
 40
0.000000
 41
0.000000
  0
VERTEX
  8
0
  6
CONTINUOUS
 10
5.206960
 20
1.215720
  0
VERTEX
  8
0
  6
CONTINUOUS
 10
5.844520
 20
1.587520
  0
VERTEX
  8
0
  6
CONTINUOUS
 10
5.823400
 20
1.569480
  0
VERTEX
  8
0
  6
CONTINUOUS
 10
5.185840
 20
1.197680
  0
VERTEX
  8
0
  6
CONTINUOUS
 10
5.206960
 20
1.215720
  0
SEQEND
  8
0
  0
SOLID
  8
0
 62
    15
 10
5.220600
 20
1.230680
 11
5.858160
 21
1.602480
 12
5.216200
 22
1.225400
 13
5.853320
 23
1.597200
  0
POLYLINE
  8
0
  6
CONTINUOUS
 66
     1
 40
0.000000
 41
0.000000
  0
VERTEX
  8
0
  6
CONTINUOUS
 10
5.220600
 20
1.230680
  0
VERTEX
  8
0
  6
CONTINUOUS
 10
5.858160
 20
1.602480
  0
VERTEX
  8
0
  6
CONTINUOUS
 10
5.853320
 20
1.597200
  0
VERTEX
  8
0
  6
CONTINUOUS
 10
5.216200
 20
1.225400
  0
VERTEX
  8
0
  6
CONTINUOUS
 10
5.220600
 20
1.230680
  0
SEQEND
  8
0
  0
SOLID
  8
0
 62
    15
 10
5.115440
 20
1.065240
 11
5.752560
 21
1.437040
 12
5.275600
 22
1.065240
 13
5.912720
 23
1.437040
  0
POLYLINE
  8
0
  6
CONTINUOUS
 66
     1
 40
0.000000
 41
0.000000
  0
VERTEX
  8
0
  6
CONTINUOUS
 10
5.115440
 20
1.065240
  0
VERTEX
  8
0
  6
CONTINUOUS
 10
5.752560
 20
1.437040
  0
VERTEX
  8
0
  6
CONTINUOUS
 10
5.912720
 20
1.437040
  0
VERTEX
  8
0
  6
CONTINUOUS
 10
5.275600
 20
1.065240
  0
VERTEX
  8
0
  6
CONTINUOUS
 10
5.115440
 20
1.065240
  0
SEQEND
  8
0
  0
SOLID
  8
0
 62
    15
 10
5.275600
 20
1.065240
 11
5.912720
 21
1.437040
 12
5.275600
 22
0.861520
 13
5.912720
 23
1.233320
  0
POLYLINE
  8
0
  6
CONTINUOUS
 66
     1
 40
0.000000
 41
0.000000
  0
VERTEX
  8
0
  6
CONTINUOUS
 10
5.275600
 20
1.065240
  0
VERTEX
  8
0
  6
CONTINUOUS
 10
5.912720
 20
1.437040
  0
VERTEX
  8
0
  6
CONTINUOUS
 10
5.912720
 20
1.233320
  0
VERTEX
  8
0
  6
CONTINUOUS
 10
5.275600
 20
0.861520
  0
VERTEX
  8
0
  6
CONTINUOUS
 10
5.275600
 20
1.065240
  0
SEQEND
  8
0
  0
SOLID
  8
0
 62
    15
 10
4.390320
 20
2.038080
 11
5.027440
 21
2.409880
 12
4.590520
 22
2.038080
 13
5.227640
 23
2.409880
  0
POLYLINE
  8
0
  6
CONTINUOUS
 66
     1
 40
0.000000
 41
0.000000
  0
VERTEX
  8
0
  6
CONTINUOUS
 10
4.390320
 20
2.038080
  0
VERTEX
  8
0
  6
CONTINUOUS
 10
5.027440
 20
2.409880
  0
VERTEX
  8
0
  6
CONTINUOUS
 10
5.227640
 20
2.409880
  0
VERTEX
  8
0
  6
CONTINUOUS
 10
4.590520
 20
2.038080
  0
VERTEX
  8
0
  6
CONTINUOUS
 10
4.390320
 20
2.038080
  0
SEQEND
  8
0
  0
SOLID
  8
0
 62
     7
 10
4.590520
 20
2.038080
 11
5.227640
 21
2.409880
 12
4.590520
 22
2.035000
 13
5.227640
 23
2.406360
  0
POLYLINE
  8
0
  6
CONTINUOUS
 66
     1
 40
0.000000
 41
0.000000
  0
VERTEX
  8
0
  6
CONTINUOUS
 10
4.590520
 20
2.038080
  0
VERTEX
  8
0
  6
CONTINUOUS
 10
5.227640
 20
2.409880
  0
VERTEX
  8
0
  6
CONTINUOUS
 10
5.227640
 20
2.406360
  0
VERTEX
  8
0
  6
CONTINUOUS
 10
4.590520
 20
2.035000
  0
VERTEX
  8
0
  6
CONTINUOUS
 10
4.590520
 20
2.038080
  0
SEQEND
  8
0
  0
POLYLINE
  8
0
  6
CONTINUOUS
 66
     1
 40
0.000000
 41
0.000000
  0
VERTEX
  8
0
  6
CONTINUOUS
 10
4.590520
 20
2.035000
  0
VERTEX
  8
0
  6
CONTINUOUS
 10
4.596240
 20
1.987040
  0
VERTEX
  8
0
  6
CONTINUOUS
 10
4.603720
 20
1.942600
  0
VERTEX
  8
0
  6
CONTINUOUS
 10
4.625280
 20
1.863400
  0
VERTEX
  8
0
  6
CONTINUOUS
 10
4.654320
 20
1.796080
  0
VERTEX
  8
0
  6
CONTINUOUS
 10
4.690840
 20
1.738880
  0
VERTEX
  8
0
  6
CONTINUOUS
 10
4.734400
 20
1.689600
  0
VERTEX
  8
0
  6
CONTINUOUS
 10
4.784560
 20
1.646920
  0
VERTEX
  8
0
  6
CONTINUOUS
 10
4.841320
 20
1.609080
  0
VERTEX
  8
0
  6
CONTINUOUS
 10
4.903800
 20
1.575200
  0
VERTEX
  8
0
  6
CONTINUOUS
 10
4.928440
 20
1.563320
  0
VERTEX
  8
0
  6
CONTINUOUS
 10
4.961000
 20
1.549240
  0
VERTEX
  8
0
  6
CONTINUOUS
 10
5.038880
 20
1.515800
  0
VERTEX
  8
0
  6
CONTINUOUS
 10
5.120720
 20
1.479720
  0
VERTEX
  8
0
  6
CONTINUOUS
 10
5.158120
 20
1.462120
  0
VERTEX
  8
0
  6
CONTINUOUS
 10
5.189800
 20
1.445400
  0
VERTEX
  8
0
  6
CONTINUOUS
 10
5.217520
 20
1.425160
  0
VERTEX
  8
0
  6
CONTINUOUS
 10
5.238200
 20
1.401400
  0
VERTEX
  8
0
  6
CONTINUOUS
 10
5.251840
 20
1.375000
  0
VERTEX
  8
0
  6
CONTINUOUS
 10
5.259320
 20
1.346400
  0
VERTEX
  8
0
  6
CONTINUOUS
 10
5.260200
 20
1.317360
  0
VERTEX
  8
0
  6
CONTINUOUS
 10
5.254920
 20
1.288320
  0
VERTEX
  8
0
  6
CONTINUOUS
 10
5.243040
 20
1.261040
  0
VERTEX
  8
0
  6
CONTINUOUS
 10
5.225440
 20
1.235520
  0
VERTEX
  8
0
  6
CONTINUOUS
 10
5.220600
 20
1.230680
  0
VERTEX
  8
0
  6
CONTINUOUS
 10
5.216200
 20
1.225400
  0
VERTEX
  8
0
  6
CONTINUOUS
 10
5.206960
 20
1.215720
  0
VERTEX
  8
0
  6
CONTINUOUS
 10
5.185840
 20
1.197680
  0
VERTEX
  8
0
  6
CONTINUOUS
 10
5.156800
 20
1.181840
  0
VERTEX
  8
0
  6
CONTINUOUS
 10
5.115440
 20
1.168200
  0
VERTEX
  8
0
  6
CONTINUOUS
 10
5.115440
 20
1.065240
  0
VERTEX
  8
0
  6
CONTINUOUS
 10
5.275600
 20
1.065240
  0
VERTEX
  8
0
  6
CONTINUOUS
 10
5.275600
 20
0.861520
  0
VERTEX
  8
0
  6
CONTINUOUS
 10
4.390320
 20
0.861520
  0
VERTEX
  8
0
  6
CONTINUOUS
 10
4.390320
 20
2.038080
  0
VERTEX
  8
0
  6
CONTINUOUS
 10
4.590520
 20
2.038080
  0
VERTEX
  8
0
  6
CONTINUOUS
 10
4.590520
 20
2.035000
  0
SEQEND
  8
0
  0
TEXT
  8
0
 10
4.855400
 20
0.629640
 40
0.138150
  1
BA  373
 41
1.000000
  7
SN0
 71
     0
 72
     5
 11
5.445057
 21
0.629640
  0
TEXT
  8
0
 10
4.653440
 20
0.437800
 40
0.138150
  1
7/8" x 1-3/16"
 41
1.000000
  7
SN0
 71
     0
 72
     5
 11
5.645094
 21
0.437800
  0
ENDSEC
  0
EOF
