  0
SECTION
  2
HEADER
  9
$ACADVER
  1
AC1006
  9
$EXTMIN
 10
2.538360
 20
0.590480
  9
$EXTMAX
 10
7.565800
 20
3.758480
  9
$LTSCALE
 40
0.044000
  9
$PDMODE
 70
    35
  9
$PDSIZE
 40
0.035200
  0
ENDSEC
  0
SECTION
  2
TABLES
  0
TABLE
  2
LTYPE
 70
     9
  0
LTYPE
  2
CONTINUOUS
 70
    64
  3
Solid line
 72
    65
 73
     0
 40
0.000000
  0
LTYPE
  2
DASHED
 70
    64
  3
__ __ __ __ __ __ __ __ __ __ __ __ __ __ __
 72
    65
 73
     2
 40
0.000330
 49
0.000220
 49
-0.000110
  0
LTYPE
  2
HIDDEN
 70
    64
  3
 _ _ _ _ _ _ _ _ _ _ _ _ _ _ _ _ _ _ _ _ _ _
 72
    65
 73
     2
 40
0.000165
 49
0.000110
 49
-0.000055
  0
LTYPE
  2
CENTER
 70
    64
  3
____ _ ____ _ ____ _ ____ _ ____ _ ____ _ ____
 72
    65
 73
     4
 40
0.000880
 49
0.000550
 49
-0.000110
 49
0.000110
 49
-0.000110
  0
LTYPE
  2
PHANTOM
 70
    64
  3
_____ _ _ _____ _ _ _____ _ _ _____ _ _ ____
 72
    65
 73
     6
 40
0.001100
 49
0.000550
 49
-0.000110
 49
0.000110
 49
-0.000110
 49
0.000110
 49
-0.000110
  0
LTYPE
  2
DOT
 70
    64
  3
...............................................
 72
    65
 73
     2
 40
0.000110
 49
0.000000
 49
-0.000110
  0
LTYPE
  2
DASHDOT
 70
    64
  3
__ . __ . __ . __ . __ . __ . __ . __ . __ . __
 72
    65
 73
     4
 40
0.000440
 49
0.000220
 49
-0.000110
 49
0.000000
 49
-0.000110
  0
LTYPE
  2
BORDER
 70
    64
  3
__ __ . __ __ . __ __ . __ __ . __ __ . __ __
 72
    65
 73
     6
 40
0.000770
 49
0.000220
 49
-0.000110
 49
0.000220
 49
-0.000110
 49
0.000000
 49
-0.000110
  0
LTYPE
  2
DIVIDE
 70
    64
  3
__ . . __ . . __ . . __ . . __ . . __ . . __
 72
    65
 73
     6
 40
0.000550
 49
0.000220
 49
-0.000110
 49
0.000000
 49
-0.000110
 49
0.000000
 49
-0.000110
  0
LTYPE
  2
DOTDOT
 70
    64
  3
 . .  . .  . .  . .  . .  . . 
 72
    65
 73
     5
 40
0.000242
 49
-0.000110
 49
0.000000
 49
-0.000110
 49
0.000000
 49
-0.000110
  0
ENDTAB
  0
TABLE
  2
STYLE
 70
     2
  0
STYLE
 70
     0
  2
SN0
 40
0.000000
 41
0.000440
 50
0.000000
 71
     0
 42
0.000000
  3
ROMAND
  0
STYLE
 70
    68
  2
SV0
 40
0.000000
 41
0.000440
 50
0.000000
 71
     0
 42
0.000000
  3
ROMAND
  0
ENDTAB
  0
TABLE
  2
LAYER
 70
     3
  0
LAYER
  2
FOREGROUND
 70
    64
 62
     7
  6
CONTINUOUS
  0
LAYER
  2
BACKGROUND
 70
    65
 62
    -7
  6
CONTINUOUS
  0
LAYER
  2
0
 70
    64
 62
     7
  6
CONTINUOUS
  0
ENDTAB
  0
ENDSEC
  0
SECTION
  2
ENTITIES
  0
POLYLINE
  8
FOREGROUND
  6
CONTINUOUS
 66
     1
 40
0.000000
 41
0.000000
  0
VERTEX
  8
FOREGROUND
  6
CONTINUOUS
 10
0.000000
 20
4.348960
  0
VERTEX
  8
FOREGROUND
  6
CONTINUOUS
 10
8.499920
 20
4.348960
  0
VERTEX
  8
FOREGROUND
  6
CONTINUOUS
 10
8.499920
 20
-6.651040
  0
VERTEX
  8
FOREGROUND
  6
CONTINUOUS
 10
0.000000
 20
-6.651040
  0
VERTEX
  8
FOREGROUND
  6
CONTINUOUS
 10
0.000000
 20
4.348960
  0
SEQEND
  8
0
  0
POLYLINE
  8
FOREGROUND
  6
CONTINUOUS
 66
     1
 40
0.000000
 41
0.000000
  0
VERTEX
  8
FOREGROUND
  6
CONTINUOUS
 10
0.000000
 20
4.348960
  0
VERTEX
  8
FOREGROUND
  6
CONTINUOUS
 10
8.499920
 20
4.348960
  0
VERTEX
  8
FOREGROUND
  6
CONTINUOUS
 10
8.499920
 20
-6.651040
  0
VERTEX
  8
FOREGROUND
  6
CONTINUOUS
 10
0.000000
 20
-6.651040
  0
VERTEX
  8
FOREGROUND
  6
CONTINUOUS
 10
0.000000
 20
4.348960
  0
SEQEND
  8
0
  0
POLYLINE
  8
0
  6
CONTINUOUS
 66
     1
 40
0.014080
 41
0.014080
  0
VERTEX
  8
0
  6
CONTINUOUS
 10
3.328600
 20
3.585560
  0
VERTEX
  8
0
  6
CONTINUOUS
 10
3.369080
 20
3.639240
  0
VERTEX
  8
0
  6
CONTINUOUS
 10
3.399880
 20
3.671360
  0
VERTEX
  8
0
  6
CONTINUOUS
 10
3.430680
 20
3.697320
  0
VERTEX
  8
0
  6
CONTINUOUS
 10
3.451360
 20
3.711840
  0
VERTEX
  8
0
  6
CONTINUOUS
 10
3.493600
 20
3.732960
  0
VERTEX
  8
0
  6
CONTINUOUS
 10
3.535840
 20
3.745720
  0
VERTEX
  8
0
  6
CONTINUOUS
 10
3.578080
 20
3.750560
  0
VERTEX
  8
0
  6
CONTINUOUS
 10
3.599640
 20
3.751000
  0
VERTEX
  8
0
  6
CONTINUOUS
 10
3.642320
 20
3.746600
  0
VERTEX
  8
0
  6
CONTINUOUS
 10
3.663880
 20
3.743080
  0
VERTEX
  8
0
  6
CONTINUOUS
 10
3.706560
 20
3.732080
  0
VERTEX
  8
0
  6
CONTINUOUS
 10
3.749680
 20
3.718440
  0
VERTEX
  8
0
  6
CONTINUOUS
 10
3.919960
 20
3.653760
  0
VERTEX
  8
0
  6
CONTINUOUS
 10
3.982880
 20
3.635720
  0
VERTEX
  8
0
  6
CONTINUOUS
 10
4.078360
 20
3.618560
  0
VERTEX
  8
0
  6
CONTINUOUS
 10
4.142160
 20
3.610200
  0
VERTEX
  8
0
  6
CONTINUOUS
 10
4.229720
 20
3.603160
  0
VERTEX
  8
0
  6
CONTINUOUS
 10
4.292640
 20
3.601400
  0
VERTEX
  8
0
  6
CONTINUOUS
 10
4.635840
 20
3.604920
  0
VERTEX
  8
0
  6
CONTINUOUS
 10
4.635840
 20
3.526160
  0
VERTEX
  8
0
  6
CONTINUOUS
 10
5.390880
 20
3.526160
  0
VERTEX
  8
0
  6
CONTINUOUS
 10
5.407160
 20
3.338280
  0
VERTEX
  8
0
  6
CONTINUOUS
 10
5.514960
 20
3.338280
  0
VERTEX
  8
0
  6
CONTINUOUS
 10
5.551480
 20
3.384480
  0
VERTEX
  8
0
  6
CONTINUOUS
 10
5.586680
 20
3.422760
  0
VERTEX
  8
0
  6
CONTINUOUS
 10
5.620560
 20
3.454440
  0
VERTEX
  8
0
  6
CONTINUOUS
 10
5.653560
 20
3.479520
  0
VERTEX
  8
0
  6
CONTINUOUS
 10
5.686120
 20
3.498440
  0
VERTEX
  8
0
  6
CONTINUOUS
 10
5.717800
 20
3.512080
  0
VERTEX
  8
0
  6
CONTINUOUS
 10
5.749040
 20
3.520440
  0
VERTEX
  8
0
  6
CONTINUOUS
 10
5.779840
 20
3.524400
  0
VERTEX
  8
0
  6
CONTINUOUS
 10
5.810640
 20
3.524400
  0
VERTEX
  8
0
  6
CONTINUOUS
 10
5.856840
 20
3.517800
  0
VERTEX
  8
0
  6
CONTINUOUS
 10
5.903920
 20
3.505040
  0
VERTEX
  8
0
  6
CONTINUOUS
 10
5.967720
 20
3.481280
  0
VERTEX
  8
0
  6
CONTINUOUS
 10
6.106760
 20
3.425400
  0
VERTEX
  8
0
  6
CONTINUOUS
 10
6.183760
 20
3.398560
  0
VERTEX
  8
0
  6
CONTINUOUS
 10
6.267360
 20
3.373920
  0
VERTEX
  8
0
  6
CONTINUOUS
 10
6.358000
 20
3.352360
  0
VERTEX
  8
0
  6
CONTINUOUS
 10
6.456560
 20
3.334760
  0
VERTEX
  8
0
  6
CONTINUOUS
 10
6.536200
 20
3.325080
  0
VERTEX
  8
0
  6
CONTINUOUS
 10
6.621120
 20
3.318040
  0
VERTEX
  8
0
  6
CONTINUOUS
 10
6.711760
 20
3.314960
  0
VERTEX
  8
0
  6
CONTINUOUS
 10
6.775560
 20
3.314520
  0
VERTEX
  8
0
  6
CONTINUOUS
 10
6.808560
 20
3.315400
  0
VERTEX
  8
0
  6
CONTINUOUS
 10
6.811200
 20
3.351920
  0
VERTEX
  8
0
  6
CONTINUOUS
 10
6.818240
 20
3.383160
  0
VERTEX
  8
0
  6
CONTINUOUS
 10
6.829680
 20
3.410000
  0
VERTEX
  8
0
  6
CONTINUOUS
 10
6.843760
 20
3.431560
  0
VERTEX
  8
0
  6
CONTINUOUS
 10
6.860920
 20
3.448280
  0
VERTEX
  8
0
  6
CONTINUOUS
 10
6.879400
 20
3.460600
  0
VERTEX
  8
0
  6
CONTINUOUS
 10
6.899200
 20
3.467640
  0
VERTEX
  8
0
  6
CONTINUOUS
 10
6.919880
 20
3.470280
  0
VERTEX
  8
0
  6
CONTINUOUS
 10
6.940120
 20
3.467640
  0
VERTEX
  8
0
  6
CONTINUOUS
 10
6.959920
 20
3.460600
  0
VERTEX
  8
0
  6
CONTINUOUS
 10
6.977960
 20
3.448720
  0
VERTEX
  8
0
  6
CONTINUOUS
 10
6.993800
 20
3.432000
  0
VERTEX
  8
0
  6
CONTINUOUS
 10
7.007000
 20
3.410880
  0
VERTEX
  8
0
  6
CONTINUOUS
 10
7.016680
 20
3.384920
  0
VERTEX
  8
0
  6
CONTINUOUS
 10
7.022400
 20
3.354120
  0
VERTEX
  8
0
  6
CONTINUOUS
 10
7.023720
 20
3.336960
  0
VERTEX
  8
0
  6
CONTINUOUS
 10
7.023280
 20
3.006080
  0
VERTEX
  8
0
  6
CONTINUOUS
 10
2.545840
 20
3.006080
  0
VERTEX
  8
0
  6
CONTINUOUS
 10
2.545840
 20
3.737800
  0
VERTEX
  8
0
  6
CONTINUOUS
 10
3.261280
 20
3.737800
  0
VERTEX
  8
0
  6
CONTINUOUS
 10
3.261280
 20
3.582480
  0
VERTEX
  8
0
  6
CONTINUOUS
 10
3.328600
 20
3.582480
  0
VERTEX
  8
0
  6
CONTINUOUS
 10
3.328600
 20
3.585560
  0
SEQEND
  8
0
  0
SOLID
  8
0
 62
    15
 10
6.321920
 20
1.604240
 11
6.318400
 21
2.339920
 12
6.383520
 22
1.600720
 13
6.380000
 23
2.335960
  0
POLYLINE
  8
0
  6
CONTINUOUS
 66
     1
 40
0.000000
 41
0.000000
  0
VERTEX
  8
0
  6
CONTINUOUS
 10
6.321920
 20
1.604240
  0
VERTEX
  8
0
  6
CONTINUOUS
 10
6.318400
 20
2.339920
  0
VERTEX
  8
0
  6
CONTINUOUS
 10
6.380000
 20
2.335960
  0
VERTEX
  8
0
  6
CONTINUOUS
 10
6.383520
 20
1.600720
  0
VERTEX
  8
0
  6
CONTINUOUS
 10
6.321920
 20
1.604240
  0
SEQEND
  8
0
  0
SOLID
  8
0
 62
    15
 10
3.911160
 20
1.719080
 11
3.908080
 21
2.454320
 12
3.952080
 22
1.760440
 13
3.949000
 23
2.496120
  0
POLYLINE
  8
0
  6
CONTINUOUS
 66
     1
 40
0.000000
 41
0.000000
  0
VERTEX
  8
0
  6
CONTINUOUS
 10
3.911160
 20
1.719080
  0
VERTEX
  8
0
  6
CONTINUOUS
 10
3.908080
 20
2.454320
  0
VERTEX
  8
0
  6
CONTINUOUS
 10
3.949000
 20
2.496120
  0
VERTEX
  8
0
  6
CONTINUOUS
 10
3.952080
 20
1.760440
  0
VERTEX
  8
0
  6
CONTINUOUS
 10
3.911160
 20
1.719080
  0
SEQEND
  8
0
  0
SOLID
  8
0
 62
    15
 10
3.952080
 20
1.760440
 11
3.949000
 21
2.496120
 12
3.993880
 22
1.791680
 13
3.990360
 23
2.526920
  0
POLYLINE
  8
0
  6
CONTINUOUS
 66
     1
 40
0.000000
 41
0.000000
  0
VERTEX
  8
0
  6
CONTINUOUS
 10
3.952080
 20
1.760440
  0
VERTEX
  8
0
  6
CONTINUOUS
 10
3.949000
 20
2.496120
  0
VERTEX
  8
0
  6
CONTINUOUS
 10
3.990360
 20
2.526920
  0
VERTEX
  8
0
  6
CONTINUOUS
 10
3.993880
 20
1.791680
  0
VERTEX
  8
0
  6
CONTINUOUS
 10
3.952080
 20
1.760440
  0
SEQEND
  8
0
  0
SOLID
  8
0
 62
    15
 10
3.993880
 20
1.791680
 11
3.990360
 21
2.526920
 12
4.035680
 22
1.812800
 13
4.032160
 23
2.548040
  0
POLYLINE
  8
0
  6
CONTINUOUS
 66
     1
 40
0.000000
 41
0.000000
  0
VERTEX
  8
0
  6
CONTINUOUS
 10
3.993880
 20
1.791680
  0
VERTEX
  8
0
  6
CONTINUOUS
 10
3.990360
 20
2.526920
  0
VERTEX
  8
0
  6
CONTINUOUS
 10
4.032160
 20
2.548040
  0
VERTEX
  8
0
  6
CONTINUOUS
 10
4.035680
 20
1.812800
  0
VERTEX
  8
0
  6
CONTINUOUS
 10
3.993880
 20
1.791680
  0
SEQEND
  8
0
  0
SOLID
  8
0
 62
    15
 10
4.035680
 20
1.812800
 11
4.032160
 21
2.548040
 12
4.077920
 22
1.825560
 13
4.074400
 23
2.560800
  0
POLYLINE
  8
0
  6
CONTINUOUS
 66
     1
 40
0.000000
 41
0.000000
  0
VERTEX
  8
0
  6
CONTINUOUS
 10
4.035680
 20
1.812800
  0
VERTEX
  8
0
  6
CONTINUOUS
 10
4.032160
 20
2.548040
  0
VERTEX
  8
0
  6
CONTINUOUS
 10
4.074400
 20
2.560800
  0
VERTEX
  8
0
  6
CONTINUOUS
 10
4.077920
 20
1.825560
  0
VERTEX
  8
0
  6
CONTINUOUS
 10
4.035680
 20
1.812800
  0
SEQEND
  8
0
  0
SOLID
  8
0
 62
    15
 10
4.077920
 20
1.825560
 11
4.074400
 21
2.560800
 12
4.120160
 22
1.830840
 13
4.117080
 23
2.566080
  0
POLYLINE
  8
0
  6
CONTINUOUS
 66
     1
 40
0.000000
 41
0.000000
  0
VERTEX
  8
0
  6
CONTINUOUS
 10
4.077920
 20
1.825560
  0
VERTEX
  8
0
  6
CONTINUOUS
 10
4.074400
 20
2.560800
  0
VERTEX
  8
0
  6
CONTINUOUS
 10
4.117080
 20
2.566080
  0
VERTEX
  8
0
  6
CONTINUOUS
 10
4.120160
 20
1.830840
  0
VERTEX
  8
0
  6
CONTINUOUS
 10
4.077920
 20
1.825560
  0
SEQEND
  8
0
  0
SOLID
  8
0
 62
    15
 10
4.120160
 20
1.830840
 11
4.117080
 21
2.566080
 12
4.162840
 22
1.829520
 13
4.159760
 23
2.564760
  0
POLYLINE
  8
0
  6
CONTINUOUS
 66
     1
 40
0.000000
 41
0.000000
  0
VERTEX
  8
0
  6
CONTINUOUS
 10
4.120160
 20
1.830840
  0
VERTEX
  8
0
  6
CONTINUOUS
 10
4.117080
 20
2.566080
  0
VERTEX
  8
0
  6
CONTINUOUS
 10
4.159760
 20
2.564760
  0
VERTEX
  8
0
  6
CONTINUOUS
 10
4.162840
 20
1.829520
  0
VERTEX
  8
0
  6
CONTINUOUS
 10
4.120160
 20
1.830840
  0
SEQEND
  8
0
  0
SOLID
  8
0
 62
    15
 10
4.162840
 20
1.829520
 11
4.159760
 21
2.564760
 12
4.205960
 22
1.822920
 13
4.202440
 23
2.558160
  0
POLYLINE
  8
0
  6
CONTINUOUS
 66
     1
 40
0.000000
 41
0.000000
  0
VERTEX
  8
0
  6
CONTINUOUS
 10
4.162840
 20
1.829520
  0
VERTEX
  8
0
  6
CONTINUOUS
 10
4.159760
 20
2.564760
  0
VERTEX
  8
0
  6
CONTINUOUS
 10
4.202440
 20
2.558160
  0
VERTEX
  8
0
  6
CONTINUOUS
 10
4.205960
 20
1.822920
  0
VERTEX
  8
0
  6
CONTINUOUS
 10
4.162840
 20
1.829520
  0
SEQEND
  8
0
  0
SOLID
  8
0
 62
    15
 10
4.205960
 20
1.822920
 11
4.202440
 21
2.558160
 12
4.291760
 22
1.798280
 13
4.288240
 23
2.533960
  0
POLYLINE
  8
0
  6
CONTINUOUS
 66
     1
 40
0.000000
 41
0.000000
  0
VERTEX
  8
0
  6
CONTINUOUS
 10
4.205960
 20
1.822920
  0
VERTEX
  8
0
  6
CONTINUOUS
 10
4.202440
 20
2.558160
  0
VERTEX
  8
0
  6
CONTINUOUS
 10
4.288240
 20
2.533960
  0
VERTEX
  8
0
  6
CONTINUOUS
 10
4.291760
 20
1.798280
  0
VERTEX
  8
0
  6
CONTINUOUS
 10
4.205960
 20
1.822920
  0
SEQEND
  8
0
  0
SOLID
  8
0
 62
    15
 10
4.291760
 20
1.798280
 11
4.288240
 21
2.533960
 12
4.377560
 22
1.765720
 13
4.374040
 23
2.501400
  0
POLYLINE
  8
0
  6
CONTINUOUS
 66
     1
 40
0.000000
 41
0.000000
  0
VERTEX
  8
0
  6
CONTINUOUS
 10
4.291760
 20
1.798280
  0
VERTEX
  8
0
  6
CONTINUOUS
 10
4.288240
 20
2.533960
  0
VERTEX
  8
0
  6
CONTINUOUS
 10
4.374040
 20
2.501400
  0
VERTEX
  8
0
  6
CONTINUOUS
 10
4.377560
 20
1.765720
  0
VERTEX
  8
0
  6
CONTINUOUS
 10
4.291760
 20
1.798280
  0
SEQEND
  8
0
  0
SOLID
  8
0
 62
    15
 10
4.377560
 20
1.765720
 11
4.374040
 21
2.501400
 12
4.462040
 22
1.734040
 13
4.458960
 23
2.469280
  0
POLYLINE
  8
0
  6
CONTINUOUS
 66
     1
 40
0.000000
 41
0.000000
  0
VERTEX
  8
0
  6
CONTINUOUS
 10
4.377560
 20
1.765720
  0
VERTEX
  8
0
  6
CONTINUOUS
 10
4.374040
 20
2.501400
  0
VERTEX
  8
0
  6
CONTINUOUS
 10
4.458960
 20
2.469280
  0
VERTEX
  8
0
  6
CONTINUOUS
 10
4.462040
 20
1.734040
  0
VERTEX
  8
0
  6
CONTINUOUS
 10
4.377560
 20
1.765720
  0
SEQEND
  8
0
  0
SOLID
  8
0
 62
    15
 10
4.462040
 20
1.734040
 11
4.458960
 21
2.469280
 12
4.545640
 22
1.711600
 13
4.542560
 23
2.446840
  0
POLYLINE
  8
0
  6
CONTINUOUS
 66
     1
 40
0.000000
 41
0.000000
  0
VERTEX
  8
0
  6
CONTINUOUS
 10
4.462040
 20
1.734040
  0
VERTEX
  8
0
  6
CONTINUOUS
 10
4.458960
 20
2.469280
  0
VERTEX
  8
0
  6
CONTINUOUS
 10
4.542560
 20
2.446840
  0
VERTEX
  8
0
  6
CONTINUOUS
 10
4.545640
 20
1.711600
  0
VERTEX
  8
0
  6
CONTINUOUS
 10
4.462040
 20
1.734040
  0
SEQEND
  8
0
  0
SOLID
  8
0
 62
    15
 10
4.545640
 20
1.711600
 11
4.542560
 21
2.446840
 12
4.585240
 22
1.704560
 13
4.581720
 23
2.439800
  0
POLYLINE
  8
0
  6
CONTINUOUS
 66
     1
 40
0.000000
 41
0.000000
  0
VERTEX
  8
0
  6
CONTINUOUS
 10
4.545640
 20
1.711600
  0
VERTEX
  8
0
  6
CONTINUOUS
 10
4.542560
 20
2.446840
  0
VERTEX
  8
0
  6
CONTINUOUS
 10
4.581720
 20
2.439800
  0
VERTEX
  8
0
  6
CONTINUOUS
 10
4.585240
 20
1.704560
  0
VERTEX
  8
0
  6
CONTINUOUS
 10
4.545640
 20
1.711600
  0
SEQEND
  8
0
  0
SOLID
  8
0
 62
    15
 10
4.585240
 20
1.704560
 11
4.581720
 21
2.439800
 12
4.620880
 22
1.698840
 13
4.617360
 23
2.434080
  0
POLYLINE
  8
0
  6
CONTINUOUS
 66
     1
 40
0.000000
 41
0.000000
  0
VERTEX
  8
0
  6
CONTINUOUS
 10
4.585240
 20
1.704560
  0
VERTEX
  8
0
  6
CONTINUOUS
 10
4.581720
 20
2.439800
  0
VERTEX
  8
0
  6
CONTINUOUS
 10
4.617360
 20
2.434080
  0
VERTEX
  8
0
  6
CONTINUOUS
 10
4.620880
 20
1.698840
  0
VERTEX
  8
0
  6
CONTINUOUS
 10
4.585240
 20
1.704560
  0
SEQEND
  8
0
  0
SOLID
  8
0
 62
    15
 10
4.620880
 20
1.698840
 11
4.617360
 21
2.434080
 12
4.684240
 22
1.690040
 13
4.681160
 23
2.425720
  0
POLYLINE
  8
0
  6
CONTINUOUS
 66
     1
 40
0.000000
 41
0.000000
  0
VERTEX
  8
0
  6
CONTINUOUS
 10
4.620880
 20
1.698840
  0
VERTEX
  8
0
  6
CONTINUOUS
 10
4.617360
 20
2.434080
  0
VERTEX
  8
0
  6
CONTINUOUS
 10
4.681160
 20
2.425720
  0
VERTEX
  8
0
  6
CONTINUOUS
 10
4.684240
 20
1.690040
  0
VERTEX
  8
0
  6
CONTINUOUS
 10
4.620880
 20
1.698840
  0
SEQEND
  8
0
  0
SOLID
  8
0
 62
    15
 10
4.684240
 20
1.690040
 11
4.681160
 21
2.425720
 12
4.802600
 22
1.682120
 13
4.799080
 23
2.417800
  0
POLYLINE
  8
0
  6
CONTINUOUS
 66
     1
 40
0.000000
 41
0.000000
  0
VERTEX
  8
0
  6
CONTINUOUS
 10
4.684240
 20
1.690040
  0
VERTEX
  8
0
  6
CONTINUOUS
 10
4.681160
 20
2.425720
  0
VERTEX
  8
0
  6
CONTINUOUS
 10
4.799080
 20
2.417800
  0
VERTEX
  8
0
  6
CONTINUOUS
 10
4.802600
 20
1.682120
  0
VERTEX
  8
0
  6
CONTINUOUS
 10
4.684240
 20
1.690040
  0
SEQEND
  8
0
  0
SOLID
  8
0
 62
    15
 10
4.802600
 20
1.682120
 11
4.799080
 21
2.417800
 12
4.869480
 22
1.681680
 13
4.866400
 23
2.416920
  0
POLYLINE
  8
0
  6
CONTINUOUS
 66
     1
 40
0.000000
 41
0.000000
  0
VERTEX
  8
0
  6
CONTINUOUS
 10
4.802600
 20
1.682120
  0
VERTEX
  8
0
  6
CONTINUOUS
 10
4.799080
 20
2.417800
  0
VERTEX
  8
0
  6
CONTINUOUS
 10
4.866400
 20
2.416920
  0
VERTEX
  8
0
  6
CONTINUOUS
 10
4.869480
 20
1.681680
  0
VERTEX
  8
0
  6
CONTINUOUS
 10
4.802600
 20
1.682120
  0
SEQEND
  8
0
  0
SOLID
  8
0
 62
    15
 10
4.869480
 20
1.681680
 11
4.866400
 21
2.416920
 12
4.907760
 22
1.681680
 13
4.904680
 23
2.417360
  0
POLYLINE
  8
0
  6
CONTINUOUS
 66
     1
 40
0.000000
 41
0.000000
  0
VERTEX
  8
0
  6
CONTINUOUS
 10
4.869480
 20
1.681680
  0
VERTEX
  8
0
  6
CONTINUOUS
 10
4.866400
 20
2.416920
  0
VERTEX
  8
0
  6
CONTINUOUS
 10
4.904680
 20
2.417360
  0
VERTEX
  8
0
  6
CONTINUOUS
 10
4.907760
 20
1.681680
  0
VERTEX
  8
0
  6
CONTINUOUS
 10
4.869480
 20
1.681680
  0
SEQEND
  8
0
  0
SOLID
  8
0
 62
    15
 10
4.907760
 20
1.681680
 11
4.904680
 21
2.417360
 12
4.973320
 22
1.682560
 13
4.970240
 23
2.417800
  0
POLYLINE
  8
0
  6
CONTINUOUS
 66
     1
 40
0.000000
 41
0.000000
  0
VERTEX
  8
0
  6
CONTINUOUS
 10
4.907760
 20
1.681680
  0
VERTEX
  8
0
  6
CONTINUOUS
 10
4.904680
 20
2.417360
  0
VERTEX
  8
0
  6
CONTINUOUS
 10
4.970240
 20
2.417800
  0
VERTEX
  8
0
  6
CONTINUOUS
 10
4.973320
 20
1.682560
  0
VERTEX
  8
0
  6
CONTINUOUS
 10
4.907760
 20
1.681680
  0
SEQEND
  8
0
  0
SOLID
  8
0
 62
    15
 10
4.973320
 20
1.682560
 11
4.970240
 21
2.417800
 12
5.051200
 22
1.683440
 13
5.047680
 23
2.419120
  0
POLYLINE
  8
0
  6
CONTINUOUS
 66
     1
 40
0.000000
 41
0.000000
  0
VERTEX
  8
0
  6
CONTINUOUS
 10
4.973320
 20
1.682560
  0
VERTEX
  8
0
  6
CONTINUOUS
 10
4.970240
 20
2.417800
  0
VERTEX
  8
0
  6
CONTINUOUS
 10
5.047680
 20
2.419120
  0
VERTEX
  8
0
  6
CONTINUOUS
 10
5.051200
 20
1.683440
  0
VERTEX
  8
0
  6
CONTINUOUS
 10
4.973320
 20
1.682560
  0
SEQEND
  8
0
  0
SOLID
  8
0
 62
    15
 10
5.051200
 20
1.683440
 11
5.047680
 21
2.419120
 12
5.110600
 22
1.684320
 13
5.107520
 23
2.420000
  0
POLYLINE
  8
0
  6
CONTINUOUS
 66
     1
 40
0.000000
 41
0.000000
  0
VERTEX
  8
0
  6
CONTINUOUS
 10
5.051200
 20
1.683440
  0
VERTEX
  8
0
  6
CONTINUOUS
 10
5.047680
 20
2.419120
  0
VERTEX
  8
0
  6
CONTINUOUS
 10
5.107520
 20
2.420000
  0
VERTEX
  8
0
  6
CONTINUOUS
 10
5.110600
 20
1.684320
  0
VERTEX
  8
0
  6
CONTINUOUS
 10
5.051200
 20
1.683440
  0
SEQEND
  8
0
  0
SOLID
  8
0
 62
    15
 10
5.949240
 20
1.418560
 11
5.945720
 21
2.153800
 12
6.057040
 22
1.418560
 13
6.053520
 23
2.153800
  0
POLYLINE
  8
0
  6
CONTINUOUS
 66
     1
 40
0.000000
 41
0.000000
  0
VERTEX
  8
0
  6
CONTINUOUS
 10
5.949240
 20
1.418560
  0
VERTEX
  8
0
  6
CONTINUOUS
 10
5.945720
 20
2.153800
  0
VERTEX
  8
0
  6
CONTINUOUS
 10
6.053520
 20
2.153800
  0
VERTEX
  8
0
  6
CONTINUOUS
 10
6.057040
 20
1.418560
  0
VERTEX
  8
0
  6
CONTINUOUS
 10
5.949240
 20
1.418560
  0
SEQEND
  8
0
  0
SOLID
  8
0
 62
    15
 10
5.932960
 20
1.606000
 11
5.929440
 21
2.341680
 12
5.949240
 22
1.418560
 13
5.945720
 23
2.153800
  0
POLYLINE
  8
0
  6
CONTINUOUS
 66
     1
 40
0.000000
 41
0.000000
  0
VERTEX
  8
0
  6
CONTINUOUS
 10
5.932960
 20
1.606000
  0
VERTEX
  8
0
  6
CONTINUOUS
 10
5.929440
 20
2.341680
  0
VERTEX
  8
0
  6
CONTINUOUS
 10
5.945720
 20
2.153800
  0
VERTEX
  8
0
  6
CONTINUOUS
 10
5.949240
 20
1.418560
  0
VERTEX
  8
0
  6
CONTINUOUS
 10
5.932960
 20
1.606000
  0
SEQEND
  8
0
  0
SOLID
  8
0
 62
    15
 10
5.177920
 20
1.606000
 11
5.174400
 21
2.341680
 12
5.932960
 22
1.606000
 13
5.929440
 23
2.341680
  0
POLYLINE
  8
0
  6
CONTINUOUS
 66
     1
 40
0.000000
 41
0.000000
  0
VERTEX
  8
0
  6
CONTINUOUS
 10
5.177920
 20
1.606000
  0
VERTEX
  8
0
  6
CONTINUOUS
 10
5.174400
 20
2.341680
  0
VERTEX
  8
0
  6
CONTINUOUS
 10
5.929440
 20
2.341680
  0
VERTEX
  8
0
  6
CONTINUOUS
 10
5.932960
 20
1.606000
  0
VERTEX
  8
0
  6
CONTINUOUS
 10
5.177920
 20
1.606000
  0
SEQEND
  8
0
  0
SOLID
  8
0
 62
    15
 10
5.110600
 20
1.684320
 11
5.107520
 21
2.420000
 12
5.177920
 22
1.685200
 13
5.174400
 23
2.420440
  0
POLYLINE
  8
0
  6
CONTINUOUS
 66
     1
 40
0.000000
 41
0.000000
  0
VERTEX
  8
0
  6
CONTINUOUS
 10
5.110600
 20
1.684320
  0
VERTEX
  8
0
  6
CONTINUOUS
 10
5.107520
 20
2.420000
  0
VERTEX
  8
0
  6
CONTINUOUS
 10
5.174400
 20
2.420440
  0
VERTEX
  8
0
  6
CONTINUOUS
 10
5.177920
 20
1.685200
  0
VERTEX
  8
0
  6
CONTINUOUS
 10
5.110600
 20
1.684320
  0
SEQEND
  8
0
  0
SOLID
  8
0
 62
    15
 10
6.057040
 20
1.418560
 11
6.053520
 21
2.153800
 12
6.093560
 22
1.464320
 13
6.090040
 23
2.200000
  0
POLYLINE
  8
0
  6
CONTINUOUS
 66
     1
 40
0.000000
 41
0.000000
  0
VERTEX
  8
0
  6
CONTINUOUS
 10
6.057040
 20
1.418560
  0
VERTEX
  8
0
  6
CONTINUOUS
 10
6.053520
 20
2.153800
  0
VERTEX
  8
0
  6
CONTINUOUS
 10
6.090040
 20
2.200000
  0
VERTEX
  8
0
  6
CONTINUOUS
 10
6.093560
 20
1.464320
  0
VERTEX
  8
0
  6
CONTINUOUS
 10
6.057040
 20
1.418560
  0
SEQEND
  8
0
  0
SOLID
  8
0
 62
    15
 10
6.093560
 20
1.464320
 11
6.090040
 21
2.200000
 12
6.128320
 22
1.503040
 13
6.125240
 23
2.238280
  0
POLYLINE
  8
0
  6
CONTINUOUS
 66
     1
 40
0.000000
 41
0.000000
  0
VERTEX
  8
0
  6
CONTINUOUS
 10
6.093560
 20
1.464320
  0
VERTEX
  8
0
  6
CONTINUOUS
 10
6.090040
 20
2.200000
  0
VERTEX
  8
0
  6
CONTINUOUS
 10
6.125240
 20
2.238280
  0
VERTEX
  8
0
  6
CONTINUOUS
 10
6.128320
 20
1.503040
  0
VERTEX
  8
0
  6
CONTINUOUS
 10
6.093560
 20
1.464320
  0
SEQEND
  8
0
  0
SOLID
  8
0
 62
    15
 10
6.128320
 20
1.503040
 11
6.125240
 21
2.238280
 12
6.162640
 22
1.534720
 13
6.159120
 23
2.269960
  0
POLYLINE
  8
0
  6
CONTINUOUS
 66
     1
 40
0.000000
 41
0.000000
  0
VERTEX
  8
0
  6
CONTINUOUS
 10
6.128320
 20
1.503040
  0
VERTEX
  8
0
  6
CONTINUOUS
 10
6.125240
 20
2.238280
  0
VERTEX
  8
0
  6
CONTINUOUS
 10
6.159120
 20
2.269960
  0
VERTEX
  8
0
  6
CONTINUOUS
 10
6.162640
 20
1.534720
  0
VERTEX
  8
0
  6
CONTINUOUS
 10
6.128320
 20
1.503040
  0
SEQEND
  8
0
  0
SOLID
  8
0
 62
    15
 10
6.162640
 20
1.534720
 11
6.159120
 21
2.269960
 12
6.195640
 22
1.559800
 13
6.192120
 23
2.295040
  0
POLYLINE
  8
0
  6
CONTINUOUS
 66
     1
 40
0.000000
 41
0.000000
  0
VERTEX
  8
0
  6
CONTINUOUS
 10
6.162640
 20
1.534720
  0
VERTEX
  8
0
  6
CONTINUOUS
 10
6.159120
 20
2.269960
  0
VERTEX
  8
0
  6
CONTINUOUS
 10
6.192120
 20
2.295040
  0
VERTEX
  8
0
  6
CONTINUOUS
 10
6.195640
 20
1.559800
  0
VERTEX
  8
0
  6
CONTINUOUS
 10
6.162640
 20
1.534720
  0
SEQEND
  8
0
  0
SOLID
  8
0
 62
    15
 10
6.195640
 20
1.559800
 11
6.192120
 21
2.295040
 12
6.228200
 22
1.578720
 13
6.224680
 23
2.313960
  0
POLYLINE
  8
0
  6
CONTINUOUS
 66
     1
 40
0.000000
 41
0.000000
  0
VERTEX
  8
0
  6
CONTINUOUS
 10
6.195640
 20
1.559800
  0
VERTEX
  8
0
  6
CONTINUOUS
 10
6.192120
 20
2.295040
  0
VERTEX
  8
0
  6
CONTINUOUS
 10
6.224680
 20
2.313960
  0
VERTEX
  8
0
  6
CONTINUOUS
 10
6.228200
 20
1.578720
  0
VERTEX
  8
0
  6
CONTINUOUS
 10
6.195640
 20
1.559800
  0
SEQEND
  8
0
  0
SOLID
  8
0
 62
    15
 10
6.228200
 20
1.578720
 11
6.224680
 21
2.313960
 12
6.259880
 22
1.591920
 13
6.256360
 23
2.327600
  0
POLYLINE
  8
0
  6
CONTINUOUS
 66
     1
 40
0.000000
 41
0.000000
  0
VERTEX
  8
0
  6
CONTINUOUS
 10
6.228200
 20
1.578720
  0
VERTEX
  8
0
  6
CONTINUOUS
 10
6.224680
 20
2.313960
  0
VERTEX
  8
0
  6
CONTINUOUS
 10
6.256360
 20
2.327600
  0
VERTEX
  8
0
  6
CONTINUOUS
 10
6.259880
 20
1.591920
  0
VERTEX
  8
0
  6
CONTINUOUS
 10
6.228200
 20
1.578720
  0
SEQEND
  8
0
  0
SOLID
  8
0
 62
    15
 10
6.259880
 20
1.591920
 11
6.256360
 21
2.327600
 12
6.291120
 22
1.600280
 13
6.287600
 23
2.335960
  0
POLYLINE
  8
0
  6
CONTINUOUS
 66
     1
 40
0.000000
 41
0.000000
  0
VERTEX
  8
0
  6
CONTINUOUS
 10
6.259880
 20
1.591920
  0
VERTEX
  8
0
  6
CONTINUOUS
 10
6.256360
 20
2.327600
  0
VERTEX
  8
0
  6
CONTINUOUS
 10
6.287600
 20
2.335960
  0
VERTEX
  8
0
  6
CONTINUOUS
 10
6.291120
 20
1.600280
  0
VERTEX
  8
0
  6
CONTINUOUS
 10
6.259880
 20
1.591920
  0
SEQEND
  8
0
  0
SOLID
  8
0
 62
    15
 10
6.291120
 20
1.600280
 11
6.287600
 21
2.335960
 12
6.321920
 22
1.604240
 13
6.318400
 23
2.339920
  0
POLYLINE
  8
0
  6
CONTINUOUS
 66
     1
 40
0.000000
 41
0.000000
  0
VERTEX
  8
0
  6
CONTINUOUS
 10
6.291120
 20
1.600280
  0
VERTEX
  8
0
  6
CONTINUOUS
 10
6.287600
 20
2.335960
  0
VERTEX
  8
0
  6
CONTINUOUS
 10
6.318400
 20
2.339920
  0
VERTEX
  8
0
  6
CONTINUOUS
 10
6.321920
 20
1.604240
  0
VERTEX
  8
0
  6
CONTINUOUS
 10
6.291120
 20
1.600280
  0
SEQEND
  8
0
  0
SOLID
  8
0
 62
    15
 10
3.803800
 20
1.662320
 11
3.800280
 21
2.397560
 12
3.871120
 22
1.662320
 13
3.867600
 23
2.397560
  0
POLYLINE
  8
0
  6
CONTINUOUS
 66
     1
 40
0.000000
 41
0.000000
  0
VERTEX
  8
0
  6
CONTINUOUS
 10
3.803800
 20
1.662320
  0
VERTEX
  8
0
  6
CONTINUOUS
 10
3.800280
 20
2.397560
  0
VERTEX
  8
0
  6
CONTINUOUS
 10
3.867600
 20
2.397560
  0
VERTEX
  8
0
  6
CONTINUOUS
 10
3.871120
 20
1.662320
  0
VERTEX
  8
0
  6
CONTINUOUS
 10
3.803800
 20
1.662320
  0
SEQEND
  8
0
  0
SOLID
  8
0
 62
    15
 10
6.383520
 20
1.600720
 11
6.380000
 21
2.335960
 12
6.446000
 22
1.585320
 13
6.442480
 23
2.320560
  0
POLYLINE
  8
0
  6
CONTINUOUS
 66
     1
 40
0.000000
 41
0.000000
  0
VERTEX
  8
0
  6
CONTINUOUS
 10
6.383520
 20
1.600720
  0
VERTEX
  8
0
  6
CONTINUOUS
 10
6.380000
 20
2.335960
  0
VERTEX
  8
0
  6
CONTINUOUS
 10
6.442480
 20
2.320560
  0
VERTEX
  8
0
  6
CONTINUOUS
 10
6.446000
 20
1.585320
  0
VERTEX
  8
0
  6
CONTINUOUS
 10
6.383520
 20
1.600720
  0
SEQEND
  8
0
  0
SOLID
  8
0
 62
    15
 10
6.446000
 20
1.585320
 11
6.442480
 21
2.320560
 12
6.509800
 22
1.561560
 13
6.506720
 23
2.296800
  0
POLYLINE
  8
0
  6
CONTINUOUS
 66
     1
 40
0.000000
 41
0.000000
  0
VERTEX
  8
0
  6
CONTINUOUS
 10
6.446000
 20
1.585320
  0
VERTEX
  8
0
  6
CONTINUOUS
 10
6.442480
 20
2.320560
  0
VERTEX
  8
0
  6
CONTINUOUS
 10
6.506720
 20
2.296800
  0
VERTEX
  8
0
  6
CONTINUOUS
 10
6.509800
 20
1.561560
  0
VERTEX
  8
0
  6
CONTINUOUS
 10
6.446000
 20
1.585320
  0
SEQEND
  8
0
  0
SOLID
  8
0
 62
    15
 10
6.509800
 20
1.561560
 11
6.506720
 21
2.296800
 12
6.551600
 22
1.544400
 13
6.548080
 23
2.279640
  0
POLYLINE
  8
0
  6
CONTINUOUS
 66
     1
 40
0.000000
 41
0.000000
  0
VERTEX
  8
0
  6
CONTINUOUS
 10
6.509800
 20
1.561560
  0
VERTEX
  8
0
  6
CONTINUOUS
 10
6.506720
 20
2.296800
  0
VERTEX
  8
0
  6
CONTINUOUS
 10
6.548080
 20
2.279640
  0
VERTEX
  8
0
  6
CONTINUOUS
 10
6.551600
 20
1.544400
  0
VERTEX
  8
0
  6
CONTINUOUS
 10
6.509800
 20
1.561560
  0
SEQEND
  8
0
  0
SOLID
  8
0
 62
    15
 10
6.551600
 20
1.544400
 11
6.548080
 21
2.279640
 12
6.577120
 22
1.533840
 13
6.573600
 23
2.269080
  0
POLYLINE
  8
0
  6
CONTINUOUS
 66
     1
 40
0.000000
 41
0.000000
  0
VERTEX
  8
0
  6
CONTINUOUS
 10
6.551600
 20
1.544400
  0
VERTEX
  8
0
  6
CONTINUOUS
 10
6.548080
 20
2.279640
  0
VERTEX
  8
0
  6
CONTINUOUS
 10
6.573600
 20
2.269080
  0
VERTEX
  8
0
  6
CONTINUOUS
 10
6.577120
 20
1.533840
  0
VERTEX
  8
0
  6
CONTINUOUS
 10
6.551600
 20
1.544400
  0
SEQEND
  8
0
  0
SOLID
  8
0
 62
    15
 10
6.577120
 20
1.533840
 11
6.573600
 21
2.269080
 12
6.648840
 22
1.505680
 13
6.645320
 23
2.240920
  0
POLYLINE
  8
0
  6
CONTINUOUS
 66
     1
 40
0.000000
 41
0.000000
  0
VERTEX
  8
0
  6
CONTINUOUS
 10
6.577120
 20
1.533840
  0
VERTEX
  8
0
  6
CONTINUOUS
 10
6.573600
 20
2.269080
  0
VERTEX
  8
0
  6
CONTINUOUS
 10
6.645320
 20
2.240920
  0
VERTEX
  8
0
  6
CONTINUOUS
 10
6.648840
 20
1.505680
  0
VERTEX
  8
0
  6
CONTINUOUS
 10
6.577120
 20
1.533840
  0
SEQEND
  8
0
  0
SOLID
  8
0
 62
    15
 10
6.648840
 20
1.505680
 11
6.645320
 21
2.240920
 12
6.725840
 22
1.478840
 13
6.722320
 23
2.214080
  0
POLYLINE
  8
0
  6
CONTINUOUS
 66
     1
 40
0.000000
 41
0.000000
  0
VERTEX
  8
0
  6
CONTINUOUS
 10
6.648840
 20
1.505680
  0
VERTEX
  8
0
  6
CONTINUOUS
 10
6.645320
 20
2.240920
  0
VERTEX
  8
0
  6
CONTINUOUS
 10
6.722320
 20
2.214080
  0
VERTEX
  8
0
  6
CONTINUOUS
 10
6.725840
 20
1.478840
  0
VERTEX
  8
0
  6
CONTINUOUS
 10
6.648840
 20
1.505680
  0
SEQEND
  8
0
  0
SOLID
  8
0
 62
    15
 10
6.725840
 20
1.478840
 11
6.722320
 21
2.214080
 12
6.809440
 22
1.454200
 13
6.805920
 23
2.189440
  0
POLYLINE
  8
0
  6
CONTINUOUS
 66
     1
 40
0.000000
 41
0.000000
  0
VERTEX
  8
0
  6
CONTINUOUS
 10
6.725840
 20
1.478840
  0
VERTEX
  8
0
  6
CONTINUOUS
 10
6.722320
 20
2.214080
  0
VERTEX
  8
0
  6
CONTINUOUS
 10
6.805920
 20
2.189440
  0
VERTEX
  8
0
  6
CONTINUOUS
 10
6.809440
 20
1.454200
  0
VERTEX
  8
0
  6
CONTINUOUS
 10
6.725840
 20
1.478840
  0
SEQEND
  8
0
  0
SOLID
  8
0
 62
    15
 10
6.809440
 20
1.454200
 11
6.805920
 21
2.189440
 12
6.900080
 22
1.432640
 13
6.896560
 23
2.167880
  0
POLYLINE
  8
0
  6
CONTINUOUS
 66
     1
 40
0.000000
 41
0.000000
  0
VERTEX
  8
0
  6
CONTINUOUS
 10
6.809440
 20
1.454200
  0
VERTEX
  8
0
  6
CONTINUOUS
 10
6.805920
 20
2.189440
  0
VERTEX
  8
0
  6
CONTINUOUS
 10
6.896560
 20
2.167880
  0
VERTEX
  8
0
  6
CONTINUOUS
 10
6.900080
 20
1.432640
  0
VERTEX
  8
0
  6
CONTINUOUS
 10
6.809440
 20
1.454200
  0
SEQEND
  8
0
  0
SOLID
  8
0
 62
    15
 10
6.900080
 20
1.432640
 11
6.896560
 21
2.167880
 12
6.998640
 22
1.415040
 13
6.995120
 23
2.150280
  0
POLYLINE
  8
0
  6
CONTINUOUS
 66
     1
 40
0.000000
 41
0.000000
  0
VERTEX
  8
0
  6
CONTINUOUS
 10
6.900080
 20
1.432640
  0
VERTEX
  8
0
  6
CONTINUOUS
 10
6.896560
 20
2.167880
  0
VERTEX
  8
0
  6
CONTINUOUS
 10
6.995120
 20
2.150280
  0
VERTEX
  8
0
  6
CONTINUOUS
 10
6.998640
 20
1.415040
  0
VERTEX
  8
0
  6
CONTINUOUS
 10
6.900080
 20
1.432640
  0
SEQEND
  8
0
  0
SOLID
  8
0
 62
    15
 10
6.998640
 20
1.415040
 11
6.995120
 21
2.150280
 12
7.106000
 22
1.402280
 13
7.102480
 23
2.137520
  0
POLYLINE
  8
0
  6
CONTINUOUS
 66
     1
 40
0.000000
 41
0.000000
  0
VERTEX
  8
0
  6
CONTINUOUS
 10
6.998640
 20
1.415040
  0
VERTEX
  8
0
  6
CONTINUOUS
 10
6.995120
 20
2.150280
  0
VERTEX
  8
0
  6
CONTINUOUS
 10
7.102480
 20
2.137520
  0
VERTEX
  8
0
  6
CONTINUOUS
 10
7.106000
 20
1.402280
  0
VERTEX
  8
0
  6
CONTINUOUS
 10
6.998640
 20
1.415040
  0
SEQEND
  8
0
  0
SOLID
  8
0
 62
    15
 10
7.106000
 20
1.402280
 11
7.102480
 21
2.137520
 12
7.223040
 22
1.395240
 13
7.219520
 23
2.130920
  0
POLYLINE
  8
0
  6
CONTINUOUS
 66
     1
 40
0.000000
 41
0.000000
  0
VERTEX
  8
0
  6
CONTINUOUS
 10
7.106000
 20
1.402280
  0
VERTEX
  8
0
  6
CONTINUOUS
 10
7.102480
 20
2.137520
  0
VERTEX
  8
0
  6
CONTINUOUS
 10
7.219520
 20
2.130920
  0
VERTEX
  8
0
  6
CONTINUOUS
 10
7.223040
 20
1.395240
  0
VERTEX
  8
0
  6
CONTINUOUS
 10
7.106000
 20
1.402280
  0
SEQEND
  8
0
  0
SOLID
  8
0
 62
    15
 10
7.223040
 20
1.395240
 11
7.219520
 21
2.130920
 12
7.350640
 22
1.395240
 13
7.347120
 23
2.130920
  0
POLYLINE
  8
0
  6
CONTINUOUS
 66
     1
 40
0.000000
 41
0.000000
  0
VERTEX
  8
0
  6
CONTINUOUS
 10
7.223040
 20
1.395240
  0
VERTEX
  8
0
  6
CONTINUOUS
 10
7.219520
 20
2.130920
  0
VERTEX
  8
0
  6
CONTINUOUS
 10
7.347120
 20
2.130920
  0
VERTEX
  8
0
  6
CONTINUOUS
 10
7.350640
 20
1.395240
  0
VERTEX
  8
0
  6
CONTINUOUS
 10
7.223040
 20
1.395240
  0
SEQEND
  8
0
  0
SOLID
  8
0
 62
    15
 10
7.350640
 20
1.395240
 11
7.347120
 21
2.130920
 12
7.353280
 22
1.431760
 13
7.349760
 23
2.167440
  0
POLYLINE
  8
0
  6
CONTINUOUS
 66
     1
 40
0.000000
 41
0.000000
  0
VERTEX
  8
0
  6
CONTINUOUS
 10
7.350640
 20
1.395240
  0
VERTEX
  8
0
  6
CONTINUOUS
 10
7.347120
 20
2.130920
  0
VERTEX
  8
0
  6
CONTINUOUS
 10
7.349760
 20
2.167440
  0
VERTEX
  8
0
  6
CONTINUOUS
 10
7.353280
 20
1.431760
  0
VERTEX
  8
0
  6
CONTINUOUS
 10
7.350640
 20
1.395240
  0
SEQEND
  8
0
  0
SOLID
  8
0
 62
    15
 10
7.353280
 20
1.431760
 11
7.349760
 21
2.167440
 12
7.360320
 22
1.463440
 13
7.357240
 23
2.198680
  0
POLYLINE
  8
0
  6
CONTINUOUS
 66
     1
 40
0.000000
 41
0.000000
  0
VERTEX
  8
0
  6
CONTINUOUS
 10
7.353280
 20
1.431760
  0
VERTEX
  8
0
  6
CONTINUOUS
 10
7.349760
 20
2.167440
  0
VERTEX
  8
0
  6
CONTINUOUS
 10
7.357240
 20
2.198680
  0
VERTEX
  8
0
  6
CONTINUOUS
 10
7.360320
 20
1.463440
  0
VERTEX
  8
0
  6
CONTINUOUS
 10
7.353280
 20
1.431760
  0
SEQEND
  8
0
  0
SOLID
  8
0
 62
    15
 10
7.360320
 20
1.463440
 11
7.357240
 21
2.198680
 12
7.371320
 22
1.489840
 13
7.368240
 23
2.225520
  0
POLYLINE
  8
0
  6
CONTINUOUS
 66
     1
 40
0.000000
 41
0.000000
  0
VERTEX
  8
0
  6
CONTINUOUS
 10
7.360320
 20
1.463440
  0
VERTEX
  8
0
  6
CONTINUOUS
 10
7.357240
 20
2.198680
  0
VERTEX
  8
0
  6
CONTINUOUS
 10
7.368240
 20
2.225520
  0
VERTEX
  8
0
  6
CONTINUOUS
 10
7.371320
 20
1.489840
  0
VERTEX
  8
0
  6
CONTINUOUS
 10
7.360320
 20
1.463440
  0
SEQEND
  8
0
  0
SOLID
  8
0
 62
    15
 10
7.371320
 20
1.489840
 11
7.368240
 21
2.225520
 12
7.385840
 22
1.511840
 13
7.382320
 23
2.247080
  0
POLYLINE
  8
0
  6
CONTINUOUS
 66
     1
 40
0.000000
 41
0.000000
  0
VERTEX
  8
0
  6
CONTINUOUS
 10
7.371320
 20
1.489840
  0
VERTEX
  8
0
  6
CONTINUOUS
 10
7.368240
 20
2.225520
  0
VERTEX
  8
0
  6
CONTINUOUS
 10
7.382320
 20
2.247080
  0
VERTEX
  8
0
  6
CONTINUOUS
 10
7.385840
 20
1.511840
  0
VERTEX
  8
0
  6
CONTINUOUS
 10
7.371320
 20
1.489840
  0
SEQEND
  8
0
  0
SOLID
  8
0
 62
    15
 10
7.385840
 20
1.511840
 11
7.382320
 21
2.247080
 12
7.402560
 22
1.528560
 13
7.399480
 23
2.263800
  0
POLYLINE
  8
0
  6
CONTINUOUS
 66
     1
 40
0.000000
 41
0.000000
  0
VERTEX
  8
0
  6
CONTINUOUS
 10
7.385840
 20
1.511840
  0
VERTEX
  8
0
  6
CONTINUOUS
 10
7.382320
 20
2.247080
  0
VERTEX
  8
0
  6
CONTINUOUS
 10
7.399480
 20
2.263800
  0
VERTEX
  8
0
  6
CONTINUOUS
 10
7.402560
 20
1.528560
  0
VERTEX
  8
0
  6
CONTINUOUS
 10
7.385840
 20
1.511840
  0
SEQEND
  8
0
  0
SOLID
  8
0
 62
    15
 10
7.402560
 20
1.528560
 11
7.399480
 21
2.263800
 12
7.421480
 22
1.540440
 13
7.417960
 23
2.276120
  0
POLYLINE
  8
0
  6
CONTINUOUS
 66
     1
 40
0.000000
 41
0.000000
  0
VERTEX
  8
0
  6
CONTINUOUS
 10
7.402560
 20
1.528560
  0
VERTEX
  8
0
  6
CONTINUOUS
 10
7.399480
 20
2.263800
  0
VERTEX
  8
0
  6
CONTINUOUS
 10
7.417960
 20
2.276120
  0
VERTEX
  8
0
  6
CONTINUOUS
 10
7.421480
 20
1.540440
  0
VERTEX
  8
0
  6
CONTINUOUS
 10
7.402560
 20
1.528560
  0
SEQEND
  8
0
  0
SOLID
  8
0
 62
    15
 10
7.421480
 20
1.540440
 11
7.417960
 21
2.276120
 12
7.441280
 22
1.547920
 13
7.438200
 23
2.283160
  0
POLYLINE
  8
0
  6
CONTINUOUS
 66
     1
 40
0.000000
 41
0.000000
  0
VERTEX
  8
0
  6
CONTINUOUS
 10
7.421480
 20
1.540440
  0
VERTEX
  8
0
  6
CONTINUOUS
 10
7.417960
 20
2.276120
  0
VERTEX
  8
0
  6
CONTINUOUS
 10
7.438200
 20
2.283160
  0
VERTEX
  8
0
  6
CONTINUOUS
 10
7.441280
 20
1.547920
  0
VERTEX
  8
0
  6
CONTINUOUS
 10
7.421480
 20
1.540440
  0
SEQEND
  8
0
  0
SOLID
  8
0
 62
    15
 10
7.441280
 20
1.547920
 11
7.438200
 21
2.283160
 12
7.461960
 22
1.550120
 13
7.458440
 23
2.285360
  0
POLYLINE
  8
0
  6
CONTINUOUS
 66
     1
 40
0.000000
 41
0.000000
  0
VERTEX
  8
0
  6
CONTINUOUS
 10
7.441280
 20
1.547920
  0
VERTEX
  8
0
  6
CONTINUOUS
 10
7.438200
 20
2.283160
  0
VERTEX
  8
0
  6
CONTINUOUS
 10
7.458440
 20
2.285360
  0
VERTEX
  8
0
  6
CONTINUOUS
 10
7.461960
 20
1.550120
  0
VERTEX
  8
0
  6
CONTINUOUS
 10
7.441280
 20
1.547920
  0
SEQEND
  8
0
  0
SOLID
  8
0
 62
    15
 10
7.461960
 20
1.550120
 11
7.458440
 21
2.285360
 12
7.482200
 22
1.547920
 13
7.479120
 23
2.283160
  0
POLYLINE
  8
0
  6
CONTINUOUS
 66
     1
 40
0.000000
 41
0.000000
  0
VERTEX
  8
0
  6
CONTINUOUS
 10
7.461960
 20
1.550120
  0
VERTEX
  8
0
  6
CONTINUOUS
 10
7.458440
 20
2.285360
  0
VERTEX
  8
0
  6
CONTINUOUS
 10
7.479120
 20
2.283160
  0
VERTEX
  8
0
  6
CONTINUOUS
 10
7.482200
 20
1.547920
  0
VERTEX
  8
0
  6
CONTINUOUS
 10
7.461960
 20
1.550120
  0
SEQEND
  8
0
  0
SOLID
  8
0
 62
    15
 10
7.482200
 20
1.547920
 11
7.479120
 21
2.283160
 12
7.502000
 22
1.540440
 13
7.498480
 23
2.276120
  0
POLYLINE
  8
0
  6
CONTINUOUS
 66
     1
 40
0.000000
 41
0.000000
  0
VERTEX
  8
0
  6
CONTINUOUS
 10
7.482200
 20
1.547920
  0
VERTEX
  8
0
  6
CONTINUOUS
 10
7.479120
 20
2.283160
  0
VERTEX
  8
0
  6
CONTINUOUS
 10
7.498480
 20
2.276120
  0
VERTEX
  8
0
  6
CONTINUOUS
 10
7.502000
 20
1.540440
  0
VERTEX
  8
0
  6
CONTINUOUS
 10
7.482200
 20
1.547920
  0
SEQEND
  8
0
  0
SOLID
  8
0
 62
    15
 10
7.502000
 20
1.540440
 11
7.498480
 21
2.276120
 12
7.520040
 22
1.528560
 13
7.516520
 23
2.264240
  0
POLYLINE
  8
0
  6
CONTINUOUS
 66
     1
 40
0.000000
 41
0.000000
  0
VERTEX
  8
0
  6
CONTINUOUS
 10
7.502000
 20
1.540440
  0
VERTEX
  8
0
  6
CONTINUOUS
 10
7.498480
 20
2.276120
  0
VERTEX
  8
0
  6
CONTINUOUS
 10
7.516520
 20
2.264240
  0
VERTEX
  8
0
  6
CONTINUOUS
 10
7.520040
 20
1.528560
  0
VERTEX
  8
0
  6
CONTINUOUS
 10
7.502000
 20
1.540440
  0
SEQEND
  8
0
  0
SOLID
  8
0
 62
    15
 10
7.520040
 20
1.528560
 11
7.516520
 21
2.264240
 12
7.536320
 22
1.512280
 13
7.532800
 23
2.247520
  0
POLYLINE
  8
0
  6
CONTINUOUS
 66
     1
 40
0.000000
 41
0.000000
  0
VERTEX
  8
0
  6
CONTINUOUS
 10
7.520040
 20
1.528560
  0
VERTEX
  8
0
  6
CONTINUOUS
 10
7.516520
 20
2.264240
  0
VERTEX
  8
0
  6
CONTINUOUS
 10
7.532800
 20
2.247520
  0
VERTEX
  8
0
  6
CONTINUOUS
 10
7.536320
 20
1.512280
  0
VERTEX
  8
0
  6
CONTINUOUS
 10
7.520040
 20
1.528560
  0
SEQEND
  8
0
  0
SOLID
  8
0
 62
    15
 10
7.549080
 20
1.490720
 11
7.546000
 21
2.226400
 12
7.559200
 22
1.464760
 13
7.555680
 23
2.200000
  0
POLYLINE
  8
0
  6
CONTINUOUS
 66
     1
 40
0.000000
 41
0.000000
  0
VERTEX
  8
0
  6
CONTINUOUS
 10
7.549080
 20
1.490720
  0
VERTEX
  8
0
  6
CONTINUOUS
 10
7.546000
 20
2.226400
  0
VERTEX
  8
0
  6
CONTINUOUS
 10
7.555680
 20
2.200000
  0
VERTEX
  8
0
  6
CONTINUOUS
 10
7.559200
 20
1.464760
  0
VERTEX
  8
0
  6
CONTINUOUS
 10
7.549080
 20
1.490720
  0
SEQEND
  8
0
  0
SOLID
  8
0
 62
    15
 10
7.536320
 20
1.512280
 11
7.532800
 21
2.247520
 12
7.549080
 22
1.490720
 13
7.546000
 23
2.226400
  0
POLYLINE
  8
0
  6
CONTINUOUS
 66
     1
 40
0.000000
 41
0.000000
  0
VERTEX
  8
0
  6
CONTINUOUS
 10
7.536320
 20
1.512280
  0
VERTEX
  8
0
  6
CONTINUOUS
 10
7.532800
 20
2.247520
  0
VERTEX
  8
0
  6
CONTINUOUS
 10
7.546000
 20
2.226400
  0
VERTEX
  8
0
  6
CONTINUOUS
 10
7.549080
 20
1.490720
  0
VERTEX
  8
0
  6
CONTINUOUS
 10
7.536320
 20
1.512280
  0
SEQEND
  8
0
  0
SOLID
  8
0
 62
    15
 10
7.559200
 20
1.464760
 11
7.555680
 21
2.200000
 12
7.564480
 22
1.433960
 13
7.561400
 23
2.169640
  0
POLYLINE
  8
0
  6
CONTINUOUS
 66
     1
 40
0.000000
 41
0.000000
  0
VERTEX
  8
0
  6
CONTINUOUS
 10
7.559200
 20
1.464760
  0
VERTEX
  8
0
  6
CONTINUOUS
 10
7.555680
 20
2.200000
  0
VERTEX
  8
0
  6
CONTINUOUS
 10
7.561400
 20
2.169640
  0
VERTEX
  8
0
  6
CONTINUOUS
 10
7.564480
 20
1.433960
  0
VERTEX
  8
0
  6
CONTINUOUS
 10
7.559200
 20
1.464760
  0
SEQEND
  8
0
  0
SOLID
  8
0
 62
    15
 10
7.564480
 20
1.433960
 11
7.561400
 21
2.169640
 12
7.565360
 22
1.398760
 13
7.561840
 23
2.134000
  0
POLYLINE
  8
0
  6
CONTINUOUS
 66
     1
 40
0.000000
 41
0.000000
  0
VERTEX
  8
0
  6
CONTINUOUS
 10
7.564480
 20
1.433960
  0
VERTEX
  8
0
  6
CONTINUOUS
 10
7.561400
 20
2.169640
  0
VERTEX
  8
0
  6
CONTINUOUS
 10
7.561840
 20
2.134000
  0
VERTEX
  8
0
  6
CONTINUOUS
 10
7.565360
 20
1.398760
  0
VERTEX
  8
0
  6
CONTINUOUS
 10
7.564480
 20
1.433960
  0
SEQEND
  8
0
  0
SOLID
  8
0
 62
    15
 10
3.088360
 20
1.085920
 11
3.084840
 21
1.821160
 12
3.088360
 22
1.817640
 13
3.084840
 23
2.553320
  0
POLYLINE
  8
0
  6
CONTINUOUS
 66
     1
 40
0.000000
 41
0.000000
  0
VERTEX
  8
0
  6
CONTINUOUS
 10
3.088360
 20
1.085920
  0
VERTEX
  8
0
  6
CONTINUOUS
 10
3.084840
 20
1.821160
  0
VERTEX
  8
0
  6
CONTINUOUS
 10
3.084840
 20
2.553320
  0
VERTEX
  8
0
  6
CONTINUOUS
 10
3.088360
 20
1.817640
  0
VERTEX
  8
0
  6
CONTINUOUS
 10
3.088360
 20
1.085920
  0
SEQEND
  8
0
  0
SOLID
  8
0
 62
    15
 10
3.088360
 20
1.817640
 11
3.084840
 21
2.553320
 12
3.803800
 22
1.817640
 13
3.800280
 23
2.553320
  0
POLYLINE
  8
0
  6
CONTINUOUS
 66
     1
 40
0.000000
 41
0.000000
  0
VERTEX
  8
0
  6
CONTINUOUS
 10
3.088360
 20
1.817640
  0
VERTEX
  8
0
  6
CONTINUOUS
 10
3.084840
 20
2.553320
  0
VERTEX
  8
0
  6
CONTINUOUS
 10
3.800280
 20
2.553320
  0
VERTEX
  8
0
  6
CONTINUOUS
 10
3.803800
 20
1.817640
  0
VERTEX
  8
0
  6
CONTINUOUS
 10
3.088360
 20
1.817640
  0
SEQEND
  8
0
  0
SOLID
  8
0
 62
    15
 10
3.871120
 20
1.662320
 11
3.867600
 21
2.397560
 12
3.871120
 22
1.665400
 13
3.867600
 23
2.400640
  0
POLYLINE
  8
0
  6
CONTINUOUS
 66
     1
 40
0.000000
 41
0.000000
  0
VERTEX
  8
0
  6
CONTINUOUS
 10
3.871120
 20
1.662320
  0
VERTEX
  8
0
  6
CONTINUOUS
 10
3.867600
 20
2.397560
  0
VERTEX
  8
0
  6
CONTINUOUS
 10
3.867600
 20
2.400640
  0
VERTEX
  8
0
  6
CONTINUOUS
 10
3.871120
 20
1.665400
  0
VERTEX
  8
0
  6
CONTINUOUS
 10
3.871120
 20
1.662320
  0
SEQEND
  8
0
  0
SOLID
  8
0
 62
    15
 10
3.871120
 20
1.665400
 11
3.867600
 21
2.400640
 12
3.911160
 22
1.719080
 13
3.908080
 23
2.454320
  0
POLYLINE
  8
0
  6
CONTINUOUS
 66
     1
 40
0.000000
 41
0.000000
  0
VERTEX
  8
0
  6
CONTINUOUS
 10
3.871120
 20
1.665400
  0
VERTEX
  8
0
  6
CONTINUOUS
 10
3.867600
 20
2.400640
  0
VERTEX
  8
0
  6
CONTINUOUS
 10
3.908080
 20
2.454320
  0
VERTEX
  8
0
  6
CONTINUOUS
 10
3.911160
 20
1.719080
  0
VERTEX
  8
0
  6
CONTINUOUS
 10
3.871120
 20
1.665400
  0
SEQEND
  8
0
  0
POLYLINE
  8
0
  6
CONTINUOUS
 66
     1
 40
0.000000
 41
0.000000
  0
VERTEX
  8
0
  6
CONTINUOUS
 10
3.871120
 20
1.665400
  0
VERTEX
  8
0
  6
CONTINUOUS
 10
3.911160
 20
1.719080
  0
VERTEX
  8
0
  6
CONTINUOUS
 10
3.952080
 20
1.760440
  0
VERTEX
  8
0
  6
CONTINUOUS
 10
3.993880
 20
1.791680
  0
VERTEX
  8
0
  6
CONTINUOUS
 10
4.035680
 20
1.812800
  0
VERTEX
  8
0
  6
CONTINUOUS
 10
4.077920
 20
1.825560
  0
VERTEX
  8
0
  6
CONTINUOUS
 10
4.120160
 20
1.830840
  0
VERTEX
  8
0
  6
CONTINUOUS
 10
4.162840
 20
1.829520
  0
VERTEX
  8
0
  6
CONTINUOUS
 10
4.205960
 20
1.822920
  0
VERTEX
  8
0
  6
CONTINUOUS
 10
4.291760
 20
1.798280
  0
VERTEX
  8
0
  6
CONTINUOUS
 10
4.462040
 20
1.734040
  0
VERTEX
  8
0
  6
CONTINUOUS
 10
4.545640
 20
1.711600
  0
VERTEX
  8
0
  6
CONTINUOUS
 10
4.620880
 20
1.698840
  0
VERTEX
  8
0
  6
CONTINUOUS
 10
4.684240
 20
1.690040
  0
VERTEX
  8
0
  6
CONTINUOUS
 10
4.802600
 20
1.682120
  0
VERTEX
  8
0
  6
CONTINUOUS
 10
4.907760
 20
1.681680
  0
VERTEX
  8
0
  6
CONTINUOUS
 10
5.177920
 20
1.685200
  0
VERTEX
  8
0
  6
CONTINUOUS
 10
5.177920
 20
1.606000
  0
VERTEX
  8
0
  6
CONTINUOUS
 10
5.932960
 20
1.606000
  0
VERTEX
  8
0
  6
CONTINUOUS
 10
5.949240
 20
1.418560
  0
VERTEX
  8
0
  6
CONTINUOUS
 10
6.057040
 20
1.418560
  0
VERTEX
  8
0
  6
CONTINUOUS
 10
6.093560
 20
1.464320
  0
VERTEX
  8
0
  6
CONTINUOUS
 10
6.128320
 20
1.503040
  0
VERTEX
  8
0
  6
CONTINUOUS
 10
6.162640
 20
1.534720
  0
VERTEX
  8
0
  6
CONTINUOUS
 10
6.195640
 20
1.559800
  0
VERTEX
  8
0
  6
CONTINUOUS
 10
6.228200
 20
1.578720
  0
VERTEX
  8
0
  6
CONTINUOUS
 10
6.259880
 20
1.591920
  0
VERTEX
  8
0
  6
CONTINUOUS
 10
6.291120
 20
1.600280
  0
VERTEX
  8
0
  6
CONTINUOUS
 10
6.321920
 20
1.604240
  0
VERTEX
  8
0
  6
CONTINUOUS
 10
6.383520
 20
1.600720
  0
VERTEX
  8
0
  6
CONTINUOUS
 10
6.446000
 20
1.585320
  0
VERTEX
  8
0
  6
CONTINUOUS
 10
6.509800
 20
1.561560
  0
VERTEX
  8
0
  6
CONTINUOUS
 10
6.648840
 20
1.505680
  0
VERTEX
  8
0
  6
CONTINUOUS
 10
6.725840
 20
1.478840
  0
VERTEX
  8
0
  6
CONTINUOUS
 10
6.809440
 20
1.454200
  0
VERTEX
  8
0
  6
CONTINUOUS
 10
6.900080
 20
1.432640
  0
VERTEX
  8
0
  6
CONTINUOUS
 10
6.998640
 20
1.415040
  0
VERTEX
  8
0
  6
CONTINUOUS
 10
7.106000
 20
1.402280
  0
VERTEX
  8
0
  6
CONTINUOUS
 10
7.223040
 20
1.395240
  0
VERTEX
  8
0
  6
CONTINUOUS
 10
7.350640
 20
1.395240
  0
VERTEX
  8
0
  6
CONTINUOUS
 10
7.353280
 20
1.431760
  0
VERTEX
  8
0
  6
CONTINUOUS
 10
7.360320
 20
1.463440
  0
VERTEX
  8
0
  6
CONTINUOUS
 10
7.371320
 20
1.489840
  0
VERTEX
  8
0
  6
CONTINUOUS
 10
7.385840
 20
1.511840
  0
VERTEX
  8
0
  6
CONTINUOUS
 10
7.402560
 20
1.528560
  0
VERTEX
  8
0
  6
CONTINUOUS
 10
7.421480
 20
1.540440
  0
VERTEX
  8
0
  6
CONTINUOUS
 10
7.441280
 20
1.547920
  0
VERTEX
  8
0
  6
CONTINUOUS
 10
7.461960
 20
1.550120
  0
VERTEX
  8
0
  6
CONTINUOUS
 10
7.482200
 20
1.547920
  0
VERTEX
  8
0
  6
CONTINUOUS
 10
7.502000
 20
1.540440
  0
VERTEX
  8
0
  6
CONTINUOUS
 10
7.520040
 20
1.528560
  0
VERTEX
  8
0
  6
CONTINUOUS
 10
7.536320
 20
1.512280
  0
VERTEX
  8
0
  6
CONTINUOUS
 10
7.549080
 20
1.490720
  0
VERTEX
  8
0
  6
CONTINUOUS
 10
7.559200
 20
1.464760
  0
VERTEX
  8
0
  6
CONTINUOUS
 10
7.564480
 20
1.433960
  0
VERTEX
  8
0
  6
CONTINUOUS
 10
7.565360
 20
1.398760
  0
VERTEX
  8
0
  6
CONTINUOUS
 10
7.565360
 20
1.085920
  0
VERTEX
  8
0
  6
CONTINUOUS
 10
3.088360
 20
1.085920
  0
VERTEX
  8
0
  6
CONTINUOUS
 10
3.088360
 20
1.817640
  0
VERTEX
  8
0
  6
CONTINUOUS
 10
3.803800
 20
1.817640
  0
VERTEX
  8
0
  6
CONTINUOUS
 10
3.803800
 20
1.662320
  0
VERTEX
  8
0
  6
CONTINUOUS
 10
3.871120
 20
1.662320
  0
VERTEX
  8
0
  6
CONTINUOUS
 10
3.871120
 20
1.665400
  0
SEQEND
  8
0
  0
TEXT
  8
0
 10
4.790280
 20
0.825880
 40
0.138029
  1
BA  372 & 390
 41
1.000000
  7
SN0
 71
     0
 72
     5
 11
5.860622
 21
0.825880
  0
TEXT
  8
0
 10
4.874320
 20
0.634040
 40
0.138029
  1
3/4" x 4-1/2"
 41
1.000000
  7
SN0
 71
     0
 72
     5
 11
5.775489
 21
0.634040
  0
ENDSEC
  0
EOF
