  0
SECTION
  2
HEADER
  9
$ACADVER
  1
AC1006
  9
$EXTMIN
 10
1.798280
 20
0.472120
  9
$EXTMAX
 10
7.450080
 20
3.468080
  9
$LTSCALE
 40
0.044000
  9
$PDMODE
 70
    35
  9
$PDSIZE
 40
0.035200
  0
ENDSEC
  0
SECTION
  2
TABLES
  0
TABLE
  2
LTYPE
 70
     9
  0
LTYPE
  2
CONTINUOUS
 70
    64
  3
Solid line
 72
    65
 73
     0
 40
0.000000
  0
LTYPE
  2
DASHED
 70
    64
  3
__ __ __ __ __ __ __ __ __ __ __ __ __ __ __
 72
    65
 73
     2
 40
0.000330
 49
0.000220
 49
-0.000110
  0
LTYPE
  2
HIDDEN
 70
    64
  3
 _ _ _ _ _ _ _ _ _ _ _ _ _ _ _ _ _ _ _ _ _ _
 72
    65
 73
     2
 40
0.000165
 49
0.000110
 49
-0.000055
  0
LTYPE
  2
CENTER
 70
    64
  3
____ _ ____ _ ____ _ ____ _ ____ _ ____ _ ____
 72
    65
 73
     4
 40
0.000880
 49
0.000550
 49
-0.000110
 49
0.000110
 49
-0.000110
  0
LTYPE
  2
PHANTOM
 70
    64
  3
_____ _ _ _____ _ _ _____ _ _ _____ _ _ ____
 72
    65
 73
     6
 40
0.001100
 49
0.000550
 49
-0.000110
 49
0.000110
 49
-0.000110
 49
0.000110
 49
-0.000110
  0
LTYPE
  2
DOT
 70
    64
  3
...............................................
 72
    65
 73
     2
 40
0.000110
 49
0.000000
 49
-0.000110
  0
LTYPE
  2
DASHDOT
 70
    64
  3
__ . __ . __ . __ . __ . __ . __ . __ . __ . __
 72
    65
 73
     4
 40
0.000440
 49
0.000220
 49
-0.000110
 49
0.000000
 49
-0.000110
  0
LTYPE
  2
BORDER
 70
    64
  3
__ __ . __ __ . __ __ . __ __ . __ __ . __ __
 72
    65
 73
     6
 40
0.000770
 49
0.000220
 49
-0.000110
 49
0.000220
 49
-0.000110
 49
0.000000
 49
-0.000110
  0
LTYPE
  2
DIVIDE
 70
    64
  3
__ . . __ . . __ . . __ . . __ . . __ . . __
 72
    65
 73
     6
 40
0.000550
 49
0.000220
 49
-0.000110
 49
0.000000
 49
-0.000110
 49
0.000000
 49
-0.000110
  0
LTYPE
  2
DOTDOT
 70
    64
  3
 . .  . .  . .  . .  . .  . . 
 72
    65
 73
     5
 40
0.000242
 49
-0.000110
 49
0.000000
 49
-0.000110
 49
0.000000
 49
-0.000110
  0
ENDTAB
  0
TABLE
  2
STYLE
 70
     2
  0
STYLE
 70
     0
  2
SN0
 40
0.000000
 41
0.000440
 50
0.000000
 71
     0
 42
0.000000
  3
ROMAND
  0
STYLE
 70
    68
  2
SV0
 40
0.000000
 41
0.000440
 50
0.000000
 71
     0
 42
0.000000
  3
ROMAND
  0
ENDTAB
  0
TABLE
  2
LAYER
 70
     3
  0
LAYER
  2
FOREGROUND
 70
    64
 62
     7
  6
CONTINUOUS
  0
LAYER
  2
BACKGROUND
 70
    65
 62
    -7
  6
CONTINUOUS
  0
LAYER
  2
0
 70
    64
 62
     7
  6
CONTINUOUS
  0
ENDTAB
  0
ENDSEC
  0
SECTION
  2
ENTITIES
  0
POLYLINE
  8
FOREGROUND
  6
CONTINUOUS
 66
     1
 40
0.000000
 41
0.000000
  0
VERTEX
  8
FOREGROUND
  6
CONTINUOUS
 10
0.000000
 20
3.940200
  0
VERTEX
  8
FOREGROUND
  6
CONTINUOUS
 10
8.499920
 20
3.940200
  0
VERTEX
  8
FOREGROUND
  6
CONTINUOUS
 10
8.499920
 20
-7.059800
  0
VERTEX
  8
FOREGROUND
  6
CONTINUOUS
 10
0.000000
 20
-7.059800
  0
VERTEX
  8
FOREGROUND
  6
CONTINUOUS
 10
0.000000
 20
3.940200
  0
SEQEND
  8
0
  0
POLYLINE
  8
FOREGROUND
  6
CONTINUOUS
 66
     1
 40
0.000000
 41
0.000000
  0
VERTEX
  8
FOREGROUND
  6
CONTINUOUS
 10
0.000000
 20
3.940200
  0
VERTEX
  8
FOREGROUND
  6
CONTINUOUS
 10
8.499920
 20
3.940200
  0
VERTEX
  8
FOREGROUND
  6
CONTINUOUS
 10
8.499920
 20
-7.059800
  0
VERTEX
  8
FOREGROUND
  6
CONTINUOUS
 10
0.000000
 20
-7.059800
  0
VERTEX
  8
FOREGROUND
  6
CONTINUOUS
 10
0.000000
 20
3.940200
  0
SEQEND
  8
0
  0
POLYLINE
  8
0
  6
CONTINUOUS
 66
     1
 40
0.014080
 41
0.014080
  0
VERTEX
  8
0
  6
CONTINUOUS
 10
1.805760
 20
2.675640
  0
VERTEX
  8
0
  6
CONTINUOUS
 10
1.805760
 20
3.460600
  0
VERTEX
  8
0
  6
CONTINUOUS
 10
2.528240
 20
3.460600
  0
VERTEX
  8
0
  6
CONTINUOUS
 10
2.528240
 20
3.352360
  0
VERTEX
  8
0
  6
CONTINUOUS
 10
2.678280
 20
3.352360
  0
VERTEX
  8
0
  6
CONTINUOUS
 10
2.720960
 20
3.310560
  0
VERTEX
  8
0
  6
CONTINUOUS
 10
2.765400
 20
3.275800
  0
VERTEX
  8
0
  6
CONTINUOUS
 10
2.796640
 20
3.256440
  0
VERTEX
  8
0
  6
CONTINUOUS
 10
2.845480
 20
3.233560
  0
VERTEX
  8
0
  6
CONTINUOUS
 10
2.880240
 20
3.222120
  0
VERTEX
  8
0
  6
CONTINUOUS
 10
2.915880
 20
3.213760
  0
VERTEX
  8
0
  6
CONTINUOUS
 10
2.953720
 20
3.208480
  0
VERTEX
  8
0
  6
CONTINUOUS
 10
2.993320
 20
3.206280
  0
VERTEX
  8
0
  6
CONTINUOUS
 10
3.034680
 20
3.206720
  0
VERTEX
  8
0
  6
CONTINUOUS
 10
3.101120
 20
3.213320
  0
VERTEX
  8
0
  6
CONTINUOUS
 10
3.172840
 20
3.226520
  0
VERTEX
  8
0
  6
CONTINUOUS
 10
3.249840
 20
3.246760
  0
VERTEX
  8
0
  6
CONTINUOUS
 10
3.359840
 20
3.279760
  0
VERTEX
  8
0
  6
CONTINUOUS
 10
3.412640
 20
3.292520
  0
VERTEX
  8
0
  6
CONTINUOUS
 10
3.463240
 20
3.301760
  0
VERTEX
  8
0
  6
CONTINUOUS
 10
3.511200
 20
3.307040
  0
VERTEX
  8
0
  6
CONTINUOUS
 10
3.556520
 20
3.308800
  0
VERTEX
  8
0
  6
CONTINUOUS
 10
3.599200
 20
3.306600
  0
VERTEX
  8
0
  6
CONTINUOUS
 10
3.639680
 20
3.301320
  0
VERTEX
  8
0
  6
CONTINUOUS
 10
3.677080
 20
3.292960
  0
VERTEX
  8
0
  6
CONTINUOUS
 10
3.711400
 20
3.280640
  0
VERTEX
  8
0
  6
CONTINUOUS
 10
3.743520
 20
3.265680
  0
VERTEX
  8
0
  6
CONTINUOUS
 10
3.785760
 20
3.236640
  0
VERTEX
  8
0
  6
CONTINUOUS
 10
3.809960
 20
3.213320
  0
VERTEX
  8
0
  6
CONTINUOUS
 10
3.831520
 20
3.186920
  0
VERTEX
  8
0
  6
CONTINUOUS
 10
3.849560
 20
3.157880
  0
VERTEX
  8
0
  6
CONTINUOUS
 10
3.864960
 20
3.125760
  0
VERTEX
  8
0
  6
CONTINUOUS
 10
3.871120
 20
3.108600
  0
VERTEX
  8
0
  6
CONTINUOUS
 10
3.872440
 20
3.109920
  0
VERTEX
  8
0
  6
CONTINUOUS
 10
3.886520
 20
3.109920
  0
VERTEX
  8
0
  6
CONTINUOUS
 10
3.885200
 20
3.109920
  0
VERTEX
  8
0
  6
CONTINUOUS
 10
3.886080
 20
3.128840
  0
VERTEX
  8
0
  6
CONTINUOUS
 10
3.893560
 20
3.164920
  0
VERTEX
  8
0
  6
CONTINUOUS
 10
3.899720
 20
3.181640
  0
VERTEX
  8
0
  6
CONTINUOUS
 10
3.916880
 20
3.213320
  0
VERTEX
  8
0
  6
CONTINUOUS
 10
3.927440
 20
3.227400
  0
VERTEX
  8
0
  6
CONTINUOUS
 10
3.952520
 20
3.252480
  0
VERTEX
  8
0
  6
CONTINUOUS
 10
3.981560
 20
3.272280
  0
VERTEX
  8
0
  6
CONTINUOUS
 10
4.015000
 20
3.285920
  0
VERTEX
  8
0
  6
CONTINUOUS
 10
4.032600
 20
3.290760
  0
VERTEX
  8
0
  6
CONTINUOUS
 10
4.050640
 20
3.293400
  0
VERTEX
  8
0
  6
CONTINUOUS
 10
4.069560
 20
3.294280
  0
VERTEX
  8
0
  6
CONTINUOUS
 10
4.088480
 20
3.293400
  0
VERTEX
  8
0
  6
CONTINUOUS
 10
4.106960
 20
3.290760
  0
VERTEX
  8
0
  6
CONTINUOUS
 10
4.141720
 20
3.279760
  0
VERTEX
  8
0
  6
CONTINUOUS
 10
4.172960
 20
3.263040
  0
VERTEX
  8
0
  6
CONTINUOUS
 10
4.187040
 20
3.252480
  0
VERTEX
  8
0
  6
CONTINUOUS
 10
4.212120
 20
3.227400
  0
VERTEX
  8
0
  6
CONTINUOUS
 10
4.222680
 20
3.213320
  0
VERTEX
  8
0
  6
CONTINUOUS
 10
4.239840
 20
3.181640
  0
VERTEX
  8
0
  6
CONTINUOUS
 10
4.246000
 20
3.164920
  0
VERTEX
  8
0
  6
CONTINUOUS
 10
4.253480
 20
3.128840
  0
VERTEX
  8
0
  6
CONTINUOUS
 10
4.254360
 20
3.107720
  0
VERTEX
  8
0
  6
CONTINUOUS
 10
4.270640
 20
3.107720
  0
VERTEX
  8
0
  6
CONTINUOUS
 10
4.284280
 20
3.141160
  0
VERTEX
  8
0
  6
CONTINUOUS
 10
4.301000
 20
3.171960
  0
VERTEX
  8
0
  6
CONTINUOUS
 10
4.320800
 20
3.199680
  0
VERTEX
  8
0
  6
CONTINUOUS
 10
4.343680
 20
3.223880
  0
VERTEX
  8
0
  6
CONTINUOUS
 10
4.369640
 20
3.245440
  0
VERTEX
  8
0
  6
CONTINUOUS
 10
4.398680
 20
3.263920
  0
VERTEX
  8
0
  6
CONTINUOUS
 10
4.430360
 20
3.278880
  0
VERTEX
  8
0
  6
CONTINUOUS
 10
4.465120
 20
3.290760
  0
VERTEX
  8
0
  6
CONTINUOUS
 10
4.502520
 20
3.299120
  0
VERTEX
  8
0
  6
CONTINUOUS
 10
4.542560
 20
3.304400
  0
VERTEX
  8
0
  6
CONTINUOUS
 10
4.585680
 20
3.306160
  0
VERTEX
  8
0
  6
CONTINUOUS
 10
4.631000
 20
3.303960
  0
VERTEX
  8
0
  6
CONTINUOUS
 10
4.678960
 20
3.298680
  0
VERTEX
  8
0
  6
CONTINUOUS
 10
4.729120
 20
3.289880
  0
VERTEX
  8
0
  6
CONTINUOUS
 10
4.782360
 20
3.277120
  0
VERTEX
  8
0
  6
CONTINUOUS
 10
4.892360
 20
3.243240
  0
VERTEX
  8
0
  6
CONTINUOUS
 10
4.994000
 20
3.218160
  0
VERTEX
  8
0
  6
CONTINUOUS
 10
5.063960
 20
3.207160
  0
VERTEX
  8
0
  6
CONTINUOUS
 10
5.128640
 20
3.202760
  0
VERTEX
  8
0
  6
CONTINUOUS
 10
5.169120
 20
3.203640
  0
VERTEX
  8
0
  6
CONTINUOUS
 10
5.207840
 20
3.207600
  0
VERTEX
  8
0
  6
CONTINUOUS
 10
5.244360
 20
3.214200
  0
VERTEX
  8
0
  6
CONTINUOUS
 10
5.296720
 20
3.230480
  0
VERTEX
  8
0
  6
CONTINUOUS
 10
5.329720
 20
3.245000
  0
VERTEX
  8
0
  6
CONTINUOUS
 10
5.376800
 20
3.272280
  0
VERTEX
  8
0
  6
CONTINUOUS
 10
5.421240
 20
3.307040
  0
VERTEX
  8
0
  6
CONTINUOUS
 10
5.463920
 20
3.348840
  0
VERTEX
  8
0
  6
CONTINUOUS
 10
5.613960
 20
3.348840
  0
VERTEX
  8
0
  6
CONTINUOUS
 10
5.613960
 20
3.457520
  0
VERTEX
  8
0
  6
CONTINUOUS
 10
6.336440
 20
3.457520
  0
VERTEX
  8
0
  6
CONTINUOUS
 10
6.336440
 20
2.672120
  0
VERTEX
  8
0
  6
CONTINUOUS
 10
1.804880
 20
2.672120
  0
VERTEX
  8
0
  6
CONTINUOUS
 10
1.805760
 20
2.675640
  0
SEQEND
  8
0
  0
SOLID
  8
0
 62
    15
 10
5.181440
 20
1.605120
 11
5.183200
 21
2.333760
 12
5.218840
 22
1.601600
 13
5.220160
 23
2.329800
  0
POLYLINE
  8
0
  6
CONTINUOUS
 66
     1
 40
0.000000
 41
0.000000
  0
VERTEX
  8
0
  6
CONTINUOUS
 10
5.181440
 20
1.605120
  0
VERTEX
  8
0
  6
CONTINUOUS
 10
5.183200
 20
2.333760
  0
VERTEX
  8
0
  6
CONTINUOUS
 10
5.220160
 20
2.329800
  0
VERTEX
  8
0
  6
CONTINUOUS
 10
5.218840
 20
1.601600
  0
VERTEX
  8
0
  6
CONTINUOUS
 10
5.181440
 20
1.605120
  0
SEQEND
  8
0
  0
SOLID
  8
0
 62
    15
 10
3.640120
 20
1.771440
 11
3.641440
 21
2.499640
 12
3.640120
 22
1.662760
 13
3.641440
 23
2.391400
  0
POLYLINE
  8
0
  6
CONTINUOUS
 66
     1
 40
0.000000
 41
0.000000
  0
VERTEX
  8
0
  6
CONTINUOUS
 10
3.640120
 20
1.771440
  0
VERTEX
  8
0
  6
CONTINUOUS
 10
3.641440
 20
2.499640
  0
VERTEX
  8
0
  6
CONTINUOUS
 10
3.641440
 20
2.391400
  0
VERTEX
  8
0
  6
CONTINUOUS
 10
3.640120
 20
1.662760
  0
VERTEX
  8
0
  6
CONTINUOUS
 10
3.640120
 20
1.771440
  0
SEQEND
  8
0
  0
SOLID
  8
0
 62
    15
 10
3.640120
 20
1.662760
 11
3.641440
 21
2.391400
 12
3.790160
 22
1.662760
 13
3.791480
 23
2.391400
  0
POLYLINE
  8
0
  6
CONTINUOUS
 66
     1
 40
0.000000
 41
0.000000
  0
VERTEX
  8
0
  6
CONTINUOUS
 10
3.640120
 20
1.662760
  0
VERTEX
  8
0
  6
CONTINUOUS
 10
3.641440
 20
2.391400
  0
VERTEX
  8
0
  6
CONTINUOUS
 10
3.791480
 20
2.391400
  0
VERTEX
  8
0
  6
CONTINUOUS
 10
3.790160
 20
1.662760
  0
VERTEX
  8
0
  6
CONTINUOUS
 10
3.640120
 20
1.662760
  0
SEQEND
  8
0
  0
SOLID
  8
0
 62
    15
 10
3.790160
 20
1.662760
 11
3.791480
 21
2.391400
 12
3.847360
 22
1.609080
 13
3.849120
 23
2.337280
  0
POLYLINE
  8
0
  6
CONTINUOUS
 66
     1
 40
0.000000
 41
0.000000
  0
VERTEX
  8
0
  6
CONTINUOUS
 10
3.790160
 20
1.662760
  0
VERTEX
  8
0
  6
CONTINUOUS
 10
3.791480
 20
2.391400
  0
VERTEX
  8
0
  6
CONTINUOUS
 10
3.849120
 20
2.337280
  0
VERTEX
  8
0
  6
CONTINUOUS
 10
3.847360
 20
1.609080
  0
VERTEX
  8
0
  6
CONTINUOUS
 10
3.790160
 20
1.662760
  0
SEQEND
  8
0
  0
SOLID
  8
0
 62
    15
 10
3.847360
 20
1.609080
 11
3.849120
 21
2.337280
 12
3.908520
 22
1.567280
 13
3.909840
 23
2.295920
  0
POLYLINE
  8
0
  6
CONTINUOUS
 66
     1
 40
0.000000
 41
0.000000
  0
VERTEX
  8
0
  6
CONTINUOUS
 10
3.847360
 20
1.609080
  0
VERTEX
  8
0
  6
CONTINUOUS
 10
3.849120
 20
2.337280
  0
VERTEX
  8
0
  6
CONTINUOUS
 10
3.909840
 20
2.295920
  0
VERTEX
  8
0
  6
CONTINUOUS
 10
3.908520
 20
1.567280
  0
VERTEX
  8
0
  6
CONTINUOUS
 10
3.847360
 20
1.609080
  0
SEQEND
  8
0
  0
SOLID
  8
0
 62
    15
 10
3.908520
 20
1.567280
 11
3.909840
 21
2.295920
 12
3.974520
 22
1.538240
 13
3.975840
 23
2.266880
  0
POLYLINE
  8
0
  6
CONTINUOUS
 66
     1
 40
0.000000
 41
0.000000
  0
VERTEX
  8
0
  6
CONTINUOUS
 10
3.908520
 20
1.567280
  0
VERTEX
  8
0
  6
CONTINUOUS
 10
3.909840
 20
2.295920
  0
VERTEX
  8
0
  6
CONTINUOUS
 10
3.975840
 20
2.266880
  0
VERTEX
  8
0
  6
CONTINUOUS
 10
3.974520
 20
1.538240
  0
VERTEX
  8
0
  6
CONTINUOUS
 10
3.908520
 20
1.567280
  0
SEQEND
  8
0
  0
SOLID
  8
0
 62
    15
 10
3.974520
 20
1.538240
 11
3.975840
 21
2.266880
 12
4.046240
 22
1.521520
 13
4.048000
 23
2.249720
  0
POLYLINE
  8
0
  6
CONTINUOUS
 66
     1
 40
0.000000
 41
0.000000
  0
VERTEX
  8
0
  6
CONTINUOUS
 10
3.974520
 20
1.538240
  0
VERTEX
  8
0
  6
CONTINUOUS
 10
3.975840
 20
2.266880
  0
VERTEX
  8
0
  6
CONTINUOUS
 10
4.048000
 20
2.249720
  0
VERTEX
  8
0
  6
CONTINUOUS
 10
4.046240
 20
1.521520
  0
VERTEX
  8
0
  6
CONTINUOUS
 10
3.974520
 20
1.538240
  0
SEQEND
  8
0
  0
SOLID
  8
0
 62
    15
 10
4.046240
 20
1.521520
 11
4.048000
 21
2.249720
 12
4.125440
 22
1.516680
 13
4.126760
 23
2.245320
  0
POLYLINE
  8
0
  6
CONTINUOUS
 66
     1
 40
0.000000
 41
0.000000
  0
VERTEX
  8
0
  6
CONTINUOUS
 10
4.046240
 20
1.521520
  0
VERTEX
  8
0
  6
CONTINUOUS
 10
4.048000
 20
2.249720
  0
VERTEX
  8
0
  6
CONTINUOUS
 10
4.126760
 20
2.245320
  0
VERTEX
  8
0
  6
CONTINUOUS
 10
4.125440
 20
1.516680
  0
VERTEX
  8
0
  6
CONTINUOUS
 10
4.046240
 20
1.521520
  0
SEQEND
  8
0
  0
SOLID
  8
0
 62
    15
 10
4.125440
 20
1.516680
 11
4.126760
 21
2.245320
 12
4.168120
 22
1.518880
 13
4.169440
 23
2.247520
  0
POLYLINE
  8
0
  6
CONTINUOUS
 66
     1
 40
0.000000
 41
0.000000
  0
VERTEX
  8
0
  6
CONTINUOUS
 10
4.125440
 20
1.516680
  0
VERTEX
  8
0
  6
CONTINUOUS
 10
4.126760
 20
2.245320
  0
VERTEX
  8
0
  6
CONTINUOUS
 10
4.169440
 20
2.247520
  0
VERTEX
  8
0
  6
CONTINUOUS
 10
4.168120
 20
1.518880
  0
VERTEX
  8
0
  6
CONTINUOUS
 10
4.125440
 20
1.516680
  0
SEQEND
  8
0
  0
SOLID
  8
0
 62
    15
 10
4.168120
 20
1.518880
 11
4.169440
 21
2.247520
 12
4.212560
 22
1.524160
 13
4.214320
 23
2.252800
  0
POLYLINE
  8
0
  6
CONTINUOUS
 66
     1
 40
0.000000
 41
0.000000
  0
VERTEX
  8
0
  6
CONTINUOUS
 10
4.168120
 20
1.518880
  0
VERTEX
  8
0
  6
CONTINUOUS
 10
4.169440
 20
2.247520
  0
VERTEX
  8
0
  6
CONTINUOUS
 10
4.214320
 20
2.252800
  0
VERTEX
  8
0
  6
CONTINUOUS
 10
4.212560
 20
1.524160
  0
VERTEX
  8
0
  6
CONTINUOUS
 10
4.168120
 20
1.518880
  0
SEQEND
  8
0
  0
SOLID
  8
0
 62
    15
 10
4.212560
 20
1.524160
 11
4.214320
 21
2.252800
 12
4.259640
 22
1.532520
 13
4.261400
 23
2.260720
  0
POLYLINE
  8
0
  6
CONTINUOUS
 66
     1
 40
0.000000
 41
0.000000
  0
VERTEX
  8
0
  6
CONTINUOUS
 10
4.212560
 20
1.524160
  0
VERTEX
  8
0
  6
CONTINUOUS
 10
4.214320
 20
2.252800
  0
VERTEX
  8
0
  6
CONTINUOUS
 10
4.261400
 20
2.260720
  0
VERTEX
  8
0
  6
CONTINUOUS
 10
4.259640
 20
1.532520
  0
VERTEX
  8
0
  6
CONTINUOUS
 10
4.212560
 20
1.524160
  0
SEQEND
  8
0
  0
SOLID
  8
0
 62
    15
 10
4.259640
 20
1.532520
 11
4.261400
 21
2.260720
 12
4.309360
 22
1.543520
 13
4.311120
 23
2.271720
  0
POLYLINE
  8
0
  6
CONTINUOUS
 66
     1
 40
0.000000
 41
0.000000
  0
VERTEX
  8
0
  6
CONTINUOUS
 10
4.259640
 20
1.532520
  0
VERTEX
  8
0
  6
CONTINUOUS
 10
4.261400
 20
2.260720
  0
VERTEX
  8
0
  6
CONTINUOUS
 10
4.311120
 20
2.271720
  0
VERTEX
  8
0
  6
CONTINUOUS
 10
4.309360
 20
1.543520
  0
VERTEX
  8
0
  6
CONTINUOUS
 10
4.259640
 20
1.532520
  0
SEQEND
  8
0
  0
SOLID
  8
0
 62
    15
 10
4.309360
 20
1.543520
 11
4.311120
 21
2.271720
 12
4.361720
 22
1.557600
 13
4.363040
 23
2.285800
  0
POLYLINE
  8
0
  6
CONTINUOUS
 66
     1
 40
0.000000
 41
0.000000
  0
VERTEX
  8
0
  6
CONTINUOUS
 10
4.309360
 20
1.543520
  0
VERTEX
  8
0
  6
CONTINUOUS
 10
4.311120
 20
2.271720
  0
VERTEX
  8
0
  6
CONTINUOUS
 10
4.363040
 20
2.285800
  0
VERTEX
  8
0
  6
CONTINUOUS
 10
4.361720
 20
1.557600
  0
VERTEX
  8
0
  6
CONTINUOUS
 10
4.309360
 20
1.543520
  0
SEQEND
  8
0
  0
SOLID
  8
0
 62
    15
 10
4.361720
 20
1.557600
 11
4.363040
 21
2.285800
 12
4.416720
 22
1.574320
 13
4.418040
 23
2.302960
  0
POLYLINE
  8
0
  6
CONTINUOUS
 66
     1
 40
0.000000
 41
0.000000
  0
VERTEX
  8
0
  6
CONTINUOUS
 10
4.361720
 20
1.557600
  0
VERTEX
  8
0
  6
CONTINUOUS
 10
4.363040
 20
2.285800
  0
VERTEX
  8
0
  6
CONTINUOUS
 10
4.418040
 20
2.302960
  0
VERTEX
  8
0
  6
CONTINUOUS
 10
4.416720
 20
1.574320
  0
VERTEX
  8
0
  6
CONTINUOUS
 10
4.361720
 20
1.557600
  0
SEQEND
  8
0
  0
SOLID
  8
0
 62
    15
 10
4.416720
 20
1.574320
 11
4.418040
 21
2.302960
 12
4.471720
 22
1.591040
 13
4.473480
 23
2.319240
  0
POLYLINE
  8
0
  6
CONTINUOUS
 66
     1
 40
0.000000
 41
0.000000
  0
VERTEX
  8
0
  6
CONTINUOUS
 10
4.416720
 20
1.574320
  0
VERTEX
  8
0
  6
CONTINUOUS
 10
4.418040
 20
2.302960
  0
VERTEX
  8
0
  6
CONTINUOUS
 10
4.473480
 20
2.319240
  0
VERTEX
  8
0
  6
CONTINUOUS
 10
4.471720
 20
1.591040
  0
VERTEX
  8
0
  6
CONTINUOUS
 10
4.416720
 20
1.574320
  0
SEQEND
  8
0
  0
SOLID
  8
0
 62
    15
 10
4.471720
 20
1.591040
 11
4.473480
 21
2.319240
 12
4.524520
 22
1.603360
 13
4.526280
 23
2.332000
  0
POLYLINE
  8
0
  6
CONTINUOUS
 66
     1
 40
0.000000
 41
0.000000
  0
VERTEX
  8
0
  6
CONTINUOUS
 10
4.471720
 20
1.591040
  0
VERTEX
  8
0
  6
CONTINUOUS
 10
4.473480
 20
2.319240
  0
VERTEX
  8
0
  6
CONTINUOUS
 10
4.526280
 20
2.332000
  0
VERTEX
  8
0
  6
CONTINUOUS
 10
4.524520
 20
1.603360
  0
VERTEX
  8
0
  6
CONTINUOUS
 10
4.471720
 20
1.591040
  0
SEQEND
  8
0
  0
SOLID
  8
0
 62
    15
 10
4.524520
 20
1.603360
 11
4.526280
 21
2.332000
 12
4.575120
 22
1.612600
 13
4.576440
 23
2.340800
  0
POLYLINE
  8
0
  6
CONTINUOUS
 66
     1
 40
0.000000
 41
0.000000
  0
VERTEX
  8
0
  6
CONTINUOUS
 10
4.524520
 20
1.603360
  0
VERTEX
  8
0
  6
CONTINUOUS
 10
4.526280
 20
2.332000
  0
VERTEX
  8
0
  6
CONTINUOUS
 10
4.576440
 20
2.340800
  0
VERTEX
  8
0
  6
CONTINUOUS
 10
4.575120
 20
1.612600
  0
VERTEX
  8
0
  6
CONTINUOUS
 10
4.524520
 20
1.603360
  0
SEQEND
  8
0
  0
SOLID
  8
0
 62
    15
 10
4.575120
 20
1.612600
 11
4.576440
 21
2.340800
 12
4.623080
 22
1.617880
 13
4.624400
 23
2.346080
  0
POLYLINE
  8
0
  6
CONTINUOUS
 66
     1
 40
0.000000
 41
0.000000
  0
VERTEX
  8
0
  6
CONTINUOUS
 10
4.575120
 20
1.612600
  0
VERTEX
  8
0
  6
CONTINUOUS
 10
4.576440
 20
2.340800
  0
VERTEX
  8
0
  6
CONTINUOUS
 10
4.624400
 20
2.346080
  0
VERTEX
  8
0
  6
CONTINUOUS
 10
4.623080
 20
1.617880
  0
VERTEX
  8
0
  6
CONTINUOUS
 10
4.575120
 20
1.612600
  0
SEQEND
  8
0
  0
SOLID
  8
0
 62
    15
 10
4.623080
 20
1.617880
 11
4.624400
 21
2.346080
 12
4.668400
 22
1.619640
 13
4.669720
 23
2.347840
  0
POLYLINE
  8
0
  6
CONTINUOUS
 66
     1
 40
0.000000
 41
0.000000
  0
VERTEX
  8
0
  6
CONTINUOUS
 10
4.623080
 20
1.617880
  0
VERTEX
  8
0
  6
CONTINUOUS
 10
4.624400
 20
2.346080
  0
VERTEX
  8
0
  6
CONTINUOUS
 10
4.669720
 20
2.347840
  0
VERTEX
  8
0
  6
CONTINUOUS
 10
4.668400
 20
1.619640
  0
VERTEX
  8
0
  6
CONTINUOUS
 10
4.623080
 20
1.617880
  0
SEQEND
  8
0
  0
SOLID
  8
0
 62
    15
 10
4.668400
 20
1.619640
 11
4.669720
 21
2.347840
 12
4.711080
 22
1.617440
 13
4.712840
 23
2.346080
  0
POLYLINE
  8
0
  6
CONTINUOUS
 66
     1
 40
0.000000
 41
0.000000
  0
VERTEX
  8
0
  6
CONTINUOUS
 10
4.668400
 20
1.619640
  0
VERTEX
  8
0
  6
CONTINUOUS
 10
4.669720
 20
2.347840
  0
VERTEX
  8
0
  6
CONTINUOUS
 10
4.712840
 20
2.346080
  0
VERTEX
  8
0
  6
CONTINUOUS
 10
4.711080
 20
1.617440
  0
VERTEX
  8
0
  6
CONTINUOUS
 10
4.668400
 20
1.619640
  0
SEQEND
  8
0
  0
SOLID
  8
0
 62
    15
 10
4.711080
 20
1.617440
 11
4.712840
 21
2.346080
 12
4.751120
 22
1.612160
 13
4.752880
 23
2.340800
  0
POLYLINE
  8
0
  6
CONTINUOUS
 66
     1
 40
0.000000
 41
0.000000
  0
VERTEX
  8
0
  6
CONTINUOUS
 10
4.711080
 20
1.617440
  0
VERTEX
  8
0
  6
CONTINUOUS
 10
4.712840
 20
2.346080
  0
VERTEX
  8
0
  6
CONTINUOUS
 10
4.752880
 20
2.340800
  0
VERTEX
  8
0
  6
CONTINUOUS
 10
4.751120
 20
1.612160
  0
VERTEX
  8
0
  6
CONTINUOUS
 10
4.711080
 20
1.617440
  0
SEQEND
  8
0
  0
SOLID
  8
0
 62
    15
 10
4.751120
 20
1.612160
 11
4.752880
 21
2.340800
 12
4.788520
 22
1.603800
 13
4.790280
 23
2.332000
  0
POLYLINE
  8
0
  6
CONTINUOUS
 66
     1
 40
0.000000
 41
0.000000
  0
VERTEX
  8
0
  6
CONTINUOUS
 10
4.751120
 20
1.612160
  0
VERTEX
  8
0
  6
CONTINUOUS
 10
4.752880
 20
2.340800
  0
VERTEX
  8
0
  6
CONTINUOUS
 10
4.790280
 20
2.332000
  0
VERTEX
  8
0
  6
CONTINUOUS
 10
4.788520
 20
1.603800
  0
VERTEX
  8
0
  6
CONTINUOUS
 10
4.751120
 20
1.612160
  0
SEQEND
  8
0
  0
SOLID
  8
0
 62
    15
 10
4.788520
 20
1.603800
 11
4.790280
 21
2.332000
 12
4.823280
 22
1.591480
 13
4.825040
 23
2.320120
  0
POLYLINE
  8
0
  6
CONTINUOUS
 66
     1
 40
0.000000
 41
0.000000
  0
VERTEX
  8
0
  6
CONTINUOUS
 10
4.788520
 20
1.603800
  0
VERTEX
  8
0
  6
CONTINUOUS
 10
4.790280
 20
2.332000
  0
VERTEX
  8
0
  6
CONTINUOUS
 10
4.825040
 20
2.320120
  0
VERTEX
  8
0
  6
CONTINUOUS
 10
4.823280
 20
1.591480
  0
VERTEX
  8
0
  6
CONTINUOUS
 10
4.788520
 20
1.603800
  0
SEQEND
  8
0
  0
SOLID
  8
0
 62
    15
 10
4.823280
 20
1.591480
 11
4.825040
 21
2.320120
 12
4.854960
 22
1.576520
 13
4.856720
 23
2.304720
  0
POLYLINE
  8
0
  6
CONTINUOUS
 66
     1
 40
0.000000
 41
0.000000
  0
VERTEX
  8
0
  6
CONTINUOUS
 10
4.823280
 20
1.591480
  0
VERTEX
  8
0
  6
CONTINUOUS
 10
4.825040
 20
2.320120
  0
VERTEX
  8
0
  6
CONTINUOUS
 10
4.856720
 20
2.304720
  0
VERTEX
  8
0
  6
CONTINUOUS
 10
4.854960
 20
1.576520
  0
VERTEX
  8
0
  6
CONTINUOUS
 10
4.823280
 20
1.591480
  0
SEQEND
  8
0
  0
SOLID
  8
0
 62
    15
 10
4.854960
 20
1.576520
 11
4.856720
 21
2.304720
 12
4.884000
 22
1.557600
 13
4.885760
 23
2.286240
  0
POLYLINE
  8
0
  6
CONTINUOUS
 66
     1
 40
0.000000
 41
0.000000
  0
VERTEX
  8
0
  6
CONTINUOUS
 10
4.854960
 20
1.576520
  0
VERTEX
  8
0
  6
CONTINUOUS
 10
4.856720
 20
2.304720
  0
VERTEX
  8
0
  6
CONTINUOUS
 10
4.885760
 20
2.286240
  0
VERTEX
  8
0
  6
CONTINUOUS
 10
4.884000
 20
1.557600
  0
VERTEX
  8
0
  6
CONTINUOUS
 10
4.854960
 20
1.576520
  0
SEQEND
  8
0
  0
SOLID
  8
0
 62
    15
 10
4.884000
 20
1.557600
 11
4.885760
 21
2.286240
 12
4.909960
 22
1.536040
 13
4.911280
 23
2.264680
  0
POLYLINE
  8
0
  6
CONTINUOUS
 66
     1
 40
0.000000
 41
0.000000
  0
VERTEX
  8
0
  6
CONTINUOUS
 10
4.884000
 20
1.557600
  0
VERTEX
  8
0
  6
CONTINUOUS
 10
4.885760
 20
2.286240
  0
VERTEX
  8
0
  6
CONTINUOUS
 10
4.911280
 20
2.264680
  0
VERTEX
  8
0
  6
CONTINUOUS
 10
4.909960
 20
1.536040
  0
VERTEX
  8
0
  6
CONTINUOUS
 10
4.884000
 20
1.557600
  0
SEQEND
  8
0
  0
SOLID
  8
0
 62
    15
 10
4.909960
 20
1.536040
 11
4.911280
 21
2.264680
 12
4.932840
 22
1.511400
 13
4.934600
 23
2.240040
  0
POLYLINE
  8
0
  6
CONTINUOUS
 66
     1
 40
0.000000
 41
0.000000
  0
VERTEX
  8
0
  6
CONTINUOUS
 10
4.909960
 20
1.536040
  0
VERTEX
  8
0
  6
CONTINUOUS
 10
4.911280
 20
2.264680
  0
VERTEX
  8
0
  6
CONTINUOUS
 10
4.934600
 20
2.240040
  0
VERTEX
  8
0
  6
CONTINUOUS
 10
4.932840
 20
1.511400
  0
VERTEX
  8
0
  6
CONTINUOUS
 10
4.909960
 20
1.536040
  0
SEQEND
  8
0
  0
SOLID
  8
0
 62
    15
 10
4.932840
 20
1.511400
 11
4.934600
 21
2.240040
 12
4.952640
 22
1.483680
 13
4.954400
 23
2.212320
  0
POLYLINE
  8
0
  6
CONTINUOUS
 66
     1
 40
0.000000
 41
0.000000
  0
VERTEX
  8
0
  6
CONTINUOUS
 10
4.932840
 20
1.511400
  0
VERTEX
  8
0
  6
CONTINUOUS
 10
4.934600
 20
2.240040
  0
VERTEX
  8
0
  6
CONTINUOUS
 10
4.954400
 20
2.212320
  0
VERTEX
  8
0
  6
CONTINUOUS
 10
4.952640
 20
1.483680
  0
VERTEX
  8
0
  6
CONTINUOUS
 10
4.932840
 20
1.511400
  0
SEQEND
  8
0
  0
SOLID
  8
0
 62
    15
 10
4.952640
 20
1.483680
 11
4.954400
 21
2.212320
 12
4.969360
 22
1.452880
 13
4.971120
 23
2.181520
  0
POLYLINE
  8
0
  6
CONTINUOUS
 66
     1
 40
0.000000
 41
0.000000
  0
VERTEX
  8
0
  6
CONTINUOUS
 10
4.952640
 20
1.483680
  0
VERTEX
  8
0
  6
CONTINUOUS
 10
4.954400
 20
2.212320
  0
VERTEX
  8
0
  6
CONTINUOUS
 10
4.971120
 20
2.181520
  0
VERTEX
  8
0
  6
CONTINUOUS
 10
4.969360
 20
1.452880
  0
VERTEX
  8
0
  6
CONTINUOUS
 10
4.952640
 20
1.483680
  0
SEQEND
  8
0
  0
SOLID
  8
0
 62
    15
 10
4.969360
 20
1.452880
 11
4.971120
 21
2.181520
 12
4.983000
 22
1.419440
 13
4.984320
 23
2.147640
  0
POLYLINE
  8
0
  6
CONTINUOUS
 66
     1
 40
0.000000
 41
0.000000
  0
VERTEX
  8
0
  6
CONTINUOUS
 10
4.969360
 20
1.452880
  0
VERTEX
  8
0
  6
CONTINUOUS
 10
4.971120
 20
2.181520
  0
VERTEX
  8
0
  6
CONTINUOUS
 10
4.984320
 20
2.147640
  0
VERTEX
  8
0
  6
CONTINUOUS
 10
4.983000
 20
1.419440
  0
VERTEX
  8
0
  6
CONTINUOUS
 10
4.969360
 20
1.452880
  0
SEQEND
  8
0
  0
SOLID
  8
0
 62
    15
 10
4.983000
 20
1.419440
 11
4.984320
 21
2.147640
 12
4.984320
 22
1.420760
 13
4.985640
 23
2.149400
  0
POLYLINE
  8
0
  6
CONTINUOUS
 66
     1
 40
0.000000
 41
0.000000
  0
VERTEX
  8
0
  6
CONTINUOUS
 10
4.983000
 20
1.419440
  0
VERTEX
  8
0
  6
CONTINUOUS
 10
4.984320
 20
2.147640
  0
VERTEX
  8
0
  6
CONTINUOUS
 10
4.985640
 20
2.149400
  0
VERTEX
  8
0
  6
CONTINUOUS
 10
4.984320
 20
1.420760
  0
VERTEX
  8
0
  6
CONTINUOUS
 10
4.983000
 20
1.419440
  0
SEQEND
  8
0
  0
SOLID
  8
0
 62
    15
 10
4.984320
 20
1.420760
 11
4.985640
 21
2.149400
 12
4.998400
 22
1.420760
 13
4.999720
 23
2.149400
  0
POLYLINE
  8
0
  6
CONTINUOUS
 66
     1
 40
0.000000
 41
0.000000
  0
VERTEX
  8
0
  6
CONTINUOUS
 10
4.984320
 20
1.420760
  0
VERTEX
  8
0
  6
CONTINUOUS
 10
4.985640
 20
2.149400
  0
VERTEX
  8
0
  6
CONTINUOUS
 10
4.999720
 20
2.149400
  0
VERTEX
  8
0
  6
CONTINUOUS
 10
4.998400
 20
1.420760
  0
VERTEX
  8
0
  6
CONTINUOUS
 10
4.984320
 20
1.420760
  0
SEQEND
  8
0
  0
SOLID
  8
0
 62
    15
 10
4.997080
 20
1.420760
 11
4.998400
 21
2.148960
 12
5.000600
 22
1.457720
 13
5.002360
 23
2.186360
  0
POLYLINE
  8
0
  6
CONTINUOUS
 66
     1
 40
0.000000
 41
0.000000
  0
VERTEX
  8
0
  6
CONTINUOUS
 10
4.997080
 20
1.420760
  0
VERTEX
  8
0
  6
CONTINUOUS
 10
4.998400
 20
2.148960
  0
VERTEX
  8
0
  6
CONTINUOUS
 10
5.002360
 20
2.186360
  0
VERTEX
  8
0
  6
CONTINUOUS
 10
5.000600
 20
1.457720
  0
VERTEX
  8
0
  6
CONTINUOUS
 10
4.997080
 20
1.420760
  0
SEQEND
  8
0
  0
SOLID
  8
0
 62
    15
 10
5.000600
 20
1.457720
 11
5.002360
 21
2.186360
 12
5.011600
 22
1.492480
 13
5.012920
 23
2.221120
  0
POLYLINE
  8
0
  6
CONTINUOUS
 66
     1
 40
0.000000
 41
0.000000
  0
VERTEX
  8
0
  6
CONTINUOUS
 10
5.000600
 20
1.457720
  0
VERTEX
  8
0
  6
CONTINUOUS
 10
5.002360
 20
2.186360
  0
VERTEX
  8
0
  6
CONTINUOUS
 10
5.012920
 20
2.221120
  0
VERTEX
  8
0
  6
CONTINUOUS
 10
5.011600
 20
1.492480
  0
VERTEX
  8
0
  6
CONTINUOUS
 10
5.000600
 20
1.457720
  0
SEQEND
  8
0
  0
SOLID
  8
0
 62
    15
 10
5.011600
 20
1.492480
 11
5.012920
 21
2.221120
 12
5.028320
 22
1.523720
 13
5.030080
 23
2.252360
  0
POLYLINE
  8
0
  6
CONTINUOUS
 66
     1
 40
0.000000
 41
0.000000
  0
VERTEX
  8
0
  6
CONTINUOUS
 10
5.011600
 20
1.492480
  0
VERTEX
  8
0
  6
CONTINUOUS
 10
5.012920
 20
2.221120
  0
VERTEX
  8
0
  6
CONTINUOUS
 10
5.030080
 20
2.252360
  0
VERTEX
  8
0
  6
CONTINUOUS
 10
5.028320
 20
1.523720
  0
VERTEX
  8
0
  6
CONTINUOUS
 10
5.011600
 20
1.492480
  0
SEQEND
  8
0
  0
SOLID
  8
0
 62
    15
 10
5.028320
 20
1.523720
 11
5.030080
 21
2.252360
 12
5.051200
 22
1.551000
 13
5.052520
 23
2.279640
  0
POLYLINE
  8
0
  6
CONTINUOUS
 66
     1
 40
0.000000
 41
0.000000
  0
VERTEX
  8
0
  6
CONTINUOUS
 10
5.028320
 20
1.523720
  0
VERTEX
  8
0
  6
CONTINUOUS
 10
5.030080
 20
2.252360
  0
VERTEX
  8
0
  6
CONTINUOUS
 10
5.052520
 20
2.279640
  0
VERTEX
  8
0
  6
CONTINUOUS
 10
5.051200
 20
1.551000
  0
VERTEX
  8
0
  6
CONTINUOUS
 10
5.028320
 20
1.523720
  0
SEQEND
  8
0
  0
SOLID
  8
0
 62
    15
 10
5.051200
 20
1.551000
 11
5.052520
 21
2.279640
 12
5.078480
 22
1.573880
 13
5.079800
 23
2.302080
  0
POLYLINE
  8
0
  6
CONTINUOUS
 66
     1
 40
0.000000
 41
0.000000
  0
VERTEX
  8
0
  6
CONTINUOUS
 10
5.051200
 20
1.551000
  0
VERTEX
  8
0
  6
CONTINUOUS
 10
5.052520
 20
2.279640
  0
VERTEX
  8
0
  6
CONTINUOUS
 10
5.079800
 20
2.302080
  0
VERTEX
  8
0
  6
CONTINUOUS
 10
5.078480
 20
1.573880
  0
VERTEX
  8
0
  6
CONTINUOUS
 10
5.051200
 20
1.551000
  0
SEQEND
  8
0
  0
SOLID
  8
0
 62
    15
 10
5.078480
 20
1.573880
 11
5.079800
 21
2.302080
 12
5.109720
 22
1.590600
 13
5.111040
 23
2.319240
  0
POLYLINE
  8
0
  6
CONTINUOUS
 66
     1
 40
0.000000
 41
0.000000
  0
VERTEX
  8
0
  6
CONTINUOUS
 10
5.078480
 20
1.573880
  0
VERTEX
  8
0
  6
CONTINUOUS
 10
5.079800
 20
2.302080
  0
VERTEX
  8
0
  6
CONTINUOUS
 10
5.111040
 20
2.319240
  0
VERTEX
  8
0
  6
CONTINUOUS
 10
5.109720
 20
1.590600
  0
VERTEX
  8
0
  6
CONTINUOUS
 10
5.078480
 20
1.573880
  0
SEQEND
  8
0
  0
SOLID
  8
0
 62
    15
 10
5.109720
 20
1.590600
 11
5.111040
 21
2.319240
 12
5.144480
 22
1.601600
 13
5.145800
 23
2.329800
  0
POLYLINE
  8
0
  6
CONTINUOUS
 66
     1
 40
0.000000
 41
0.000000
  0
VERTEX
  8
0
  6
CONTINUOUS
 10
5.109720
 20
1.590600
  0
VERTEX
  8
0
  6
CONTINUOUS
 10
5.111040
 20
2.319240
  0
VERTEX
  8
0
  6
CONTINUOUS
 10
5.145800
 20
2.329800
  0
VERTEX
  8
0
  6
CONTINUOUS
 10
5.144480
 20
1.601600
  0
VERTEX
  8
0
  6
CONTINUOUS
 10
5.109720
 20
1.590600
  0
SEQEND
  8
0
  0
SOLID
  8
0
 62
    15
 10
5.144480
 20
1.601600
 11
5.145800
 21
2.329800
 12
5.181440
 22
1.605120
 13
5.183200
 23
2.333760
  0
POLYLINE
  8
0
  6
CONTINUOUS
 66
     1
 40
0.000000
 41
0.000000
  0
VERTEX
  8
0
  6
CONTINUOUS
 10
5.144480
 20
1.601600
  0
VERTEX
  8
0
  6
CONTINUOUS
 10
5.145800
 20
2.329800
  0
VERTEX
  8
0
  6
CONTINUOUS
 10
5.183200
 20
2.333760
  0
VERTEX
  8
0
  6
CONTINUOUS
 10
5.181440
 20
1.605120
  0
VERTEX
  8
0
  6
CONTINUOUS
 10
5.144480
 20
1.601600
  0
SEQEND
  8
0
  0
SOLID
  8
0
 62
    15
 10
2.917640
 20
1.771440
 11
2.919400
 21
2.499640
 12
3.640120
 22
1.771440
 13
3.641440
 23
2.499640
  0
POLYLINE
  8
0
  6
CONTINUOUS
 66
     1
 40
0.000000
 41
0.000000
  0
VERTEX
  8
0
  6
CONTINUOUS
 10
2.917640
 20
1.771440
  0
VERTEX
  8
0
  6
CONTINUOUS
 10
2.919400
 20
2.499640
  0
VERTEX
  8
0
  6
CONTINUOUS
 10
3.641440
 20
2.499640
  0
VERTEX
  8
0
  6
CONTINUOUS
 10
3.640120
 20
1.771440
  0
VERTEX
  8
0
  6
CONTINUOUS
 10
2.917640
 20
1.771440
  0
SEQEND
  8
0
  0
SOLID
  8
0
 62
    15
 10
5.218840
 20
1.601600
 11
5.220160
 21
2.329800
 12
5.253160
 22
1.590600
 13
5.254920
 23
2.319240
  0
POLYLINE
  8
0
  6
CONTINUOUS
 66
     1
 40
0.000000
 41
0.000000
  0
VERTEX
  8
0
  6
CONTINUOUS
 10
5.218840
 20
1.601600
  0
VERTEX
  8
0
  6
CONTINUOUS
 10
5.220160
 20
2.329800
  0
VERTEX
  8
0
  6
CONTINUOUS
 10
5.254920
 20
2.319240
  0
VERTEX
  8
0
  6
CONTINUOUS
 10
5.253160
 20
1.590600
  0
VERTEX
  8
0
  6
CONTINUOUS
 10
5.218840
 20
1.601600
  0
SEQEND
  8
0
  0
SOLID
  8
0
 62
    15
 10
5.253160
 20
1.590600
 11
5.254920
 21
2.319240
 12
5.284400
 22
1.573880
 13
5.286160
 23
2.302080
  0
POLYLINE
  8
0
  6
CONTINUOUS
 66
     1
 40
0.000000
 41
0.000000
  0
VERTEX
  8
0
  6
CONTINUOUS
 10
5.253160
 20
1.590600
  0
VERTEX
  8
0
  6
CONTINUOUS
 10
5.254920
 20
2.319240
  0
VERTEX
  8
0
  6
CONTINUOUS
 10
5.286160
 20
2.302080
  0
VERTEX
  8
0
  6
CONTINUOUS
 10
5.284400
 20
1.573880
  0
VERTEX
  8
0
  6
CONTINUOUS
 10
5.253160
 20
1.590600
  0
SEQEND
  8
0
  0
SOLID
  8
0
 62
    15
 10
5.284400
 20
1.573880
 11
5.286160
 21
2.302080
 12
5.312120
 22
1.551000
 13
5.313440
 23
2.279640
  0
POLYLINE
  8
0
  6
CONTINUOUS
 66
     1
 40
0.000000
 41
0.000000
  0
VERTEX
  8
0
  6
CONTINUOUS
 10
5.284400
 20
1.573880
  0
VERTEX
  8
0
  6
CONTINUOUS
 10
5.286160
 20
2.302080
  0
VERTEX
  8
0
  6
CONTINUOUS
 10
5.313440
 20
2.279640
  0
VERTEX
  8
0
  6
CONTINUOUS
 10
5.312120
 20
1.551000
  0
VERTEX
  8
0
  6
CONTINUOUS
 10
5.284400
 20
1.573880
  0
SEQEND
  8
0
  0
SOLID
  8
0
 62
    15
 10
5.312120
 20
1.551000
 11
5.313440
 21
2.279640
 12
5.334560
 22
1.523720
 13
5.335880
 23
2.252360
  0
POLYLINE
  8
0
  6
CONTINUOUS
 66
     1
 40
0.000000
 41
0.000000
  0
VERTEX
  8
0
  6
CONTINUOUS
 10
5.312120
 20
1.551000
  0
VERTEX
  8
0
  6
CONTINUOUS
 10
5.313440
 20
2.279640
  0
VERTEX
  8
0
  6
CONTINUOUS
 10
5.335880
 20
2.252360
  0
VERTEX
  8
0
  6
CONTINUOUS
 10
5.334560
 20
1.523720
  0
VERTEX
  8
0
  6
CONTINUOUS
 10
5.312120
 20
1.551000
  0
SEQEND
  8
0
  0
SOLID
  8
0
 62
    15
 10
5.334560
 20
1.523720
 11
5.335880
 21
2.252360
 12
5.351280
 22
1.492480
 13
5.353040
 23
2.221120
  0
POLYLINE
  8
0
  6
CONTINUOUS
 66
     1
 40
0.000000
 41
0.000000
  0
VERTEX
  8
0
  6
CONTINUOUS
 10
5.334560
 20
1.523720
  0
VERTEX
  8
0
  6
CONTINUOUS
 10
5.335880
 20
2.252360
  0
VERTEX
  8
0
  6
CONTINUOUS
 10
5.353040
 20
2.221120
  0
VERTEX
  8
0
  6
CONTINUOUS
 10
5.351280
 20
1.492480
  0
VERTEX
  8
0
  6
CONTINUOUS
 10
5.334560
 20
1.523720
  0
SEQEND
  8
0
  0
SOLID
  8
0
 62
    15
 10
5.351280
 20
1.492480
 11
5.353040
 21
2.221120
 12
5.362280
 22
1.457720
 13
5.363600
 23
2.186360
  0
POLYLINE
  8
0
  6
CONTINUOUS
 66
     1
 40
0.000000
 41
0.000000
  0
VERTEX
  8
0
  6
CONTINUOUS
 10
5.351280
 20
1.492480
  0
VERTEX
  8
0
  6
CONTINUOUS
 10
5.353040
 20
2.221120
  0
VERTEX
  8
0
  6
CONTINUOUS
 10
5.363600
 20
2.186360
  0
VERTEX
  8
0
  6
CONTINUOUS
 10
5.362280
 20
1.457720
  0
VERTEX
  8
0
  6
CONTINUOUS
 10
5.351280
 20
1.492480
  0
SEQEND
  8
0
  0
SOLID
  8
0
 62
    15
 10
5.362280
 20
1.457720
 11
5.363600
 21
2.186360
 12
5.365800
 22
1.420760
 13
5.367560
 23
2.148960
  0
POLYLINE
  8
0
  6
CONTINUOUS
 66
     1
 40
0.000000
 41
0.000000
  0
VERTEX
  8
0
  6
CONTINUOUS
 10
5.362280
 20
1.457720
  0
VERTEX
  8
0
  6
CONTINUOUS
 10
5.363600
 20
2.186360
  0
VERTEX
  8
0
  6
CONTINUOUS
 10
5.367560
 20
2.148960
  0
VERTEX
  8
0
  6
CONTINUOUS
 10
5.365800
 20
1.420760
  0
VERTEX
  8
0
  6
CONTINUOUS
 10
5.362280
 20
1.457720
  0
SEQEND
  8
0
  0
SOLID
  8
0
 62
    15
 10
5.365800
 20
1.420760
 11
5.367560
 21
2.148960
 12
5.366240
 22
1.418560
 13
5.367560
 23
2.146760
  0
POLYLINE
  8
0
  6
CONTINUOUS
 66
     1
 40
0.000000
 41
0.000000
  0
VERTEX
  8
0
  6
CONTINUOUS
 10
5.365800
 20
1.420760
  0
VERTEX
  8
0
  6
CONTINUOUS
 10
5.367560
 20
2.148960
  0
VERTEX
  8
0
  6
CONTINUOUS
 10
5.367560
 20
2.146760
  0
VERTEX
  8
0
  6
CONTINUOUS
 10
5.366240
 20
1.418560
  0
VERTEX
  8
0
  6
CONTINUOUS
 10
5.365800
 20
1.420760
  0
SEQEND
  8
0
  0
SOLID
  8
0
 62
    15
 10
5.366240
 20
1.418560
 11
5.367560
 21
2.146760
 12
5.382520
 22
1.418560
 13
5.383840
 23
2.146760
  0
POLYLINE
  8
0
  6
CONTINUOUS
 66
     1
 40
0.000000
 41
0.000000
  0
VERTEX
  8
0
  6
CONTINUOUS
 10
5.366240
 20
1.418560
  0
VERTEX
  8
0
  6
CONTINUOUS
 10
5.367560
 20
2.146760
  0
VERTEX
  8
0
  6
CONTINUOUS
 10
5.383840
 20
2.146760
  0
VERTEX
  8
0
  6
CONTINUOUS
 10
5.382520
 20
1.418560
  0
VERTEX
  8
0
  6
CONTINUOUS
 10
5.366240
 20
1.418560
  0
SEQEND
  8
0
  0
SOLID
  8
0
 62
    15
 10
5.382520
 20
1.418560
 11
5.383840
 21
2.146760
 12
5.395720
 22
1.452000
 13
5.397480
 23
2.180640
  0
POLYLINE
  8
0
  6
CONTINUOUS
 66
     1
 40
0.000000
 41
0.000000
  0
VERTEX
  8
0
  6
CONTINUOUS
 10
5.382520
 20
1.418560
  0
VERTEX
  8
0
  6
CONTINUOUS
 10
5.383840
 20
2.146760
  0
VERTEX
  8
0
  6
CONTINUOUS
 10
5.397480
 20
2.180640
  0
VERTEX
  8
0
  6
CONTINUOUS
 10
5.395720
 20
1.452000
  0
VERTEX
  8
0
  6
CONTINUOUS
 10
5.382520
 20
1.418560
  0
SEQEND
  8
0
  0
SOLID
  8
0
 62
    15
 10
5.395720
 20
1.452000
 11
5.397480
 21
2.180640
 12
5.412440
 22
1.482800
 13
5.414200
 23
2.211000
  0
POLYLINE
  8
0
  6
CONTINUOUS
 66
     1
 40
0.000000
 41
0.000000
  0
VERTEX
  8
0
  6
CONTINUOUS
 10
5.395720
 20
1.452000
  0
VERTEX
  8
0
  6
CONTINUOUS
 10
5.397480
 20
2.180640
  0
VERTEX
  8
0
  6
CONTINUOUS
 10
5.414200
 20
2.211000
  0
VERTEX
  8
0
  6
CONTINUOUS
 10
5.412440
 20
1.482800
  0
VERTEX
  8
0
  6
CONTINUOUS
 10
5.395720
 20
1.452000
  0
SEQEND
  8
0
  0
SOLID
  8
0
 62
    15
 10
5.412440
 20
1.482800
 11
5.414200
 21
2.211000
 12
5.432240
 22
1.510080
 13
5.434000
 23
2.238720
  0
POLYLINE
  8
0
  6
CONTINUOUS
 66
     1
 40
0.000000
 41
0.000000
  0
VERTEX
  8
0
  6
CONTINUOUS
 10
5.412440
 20
1.482800
  0
VERTEX
  8
0
  6
CONTINUOUS
 10
5.414200
 20
2.211000
  0
VERTEX
  8
0
  6
CONTINUOUS
 10
5.434000
 20
2.238720
  0
VERTEX
  8
0
  6
CONTINUOUS
 10
5.432240
 20
1.510080
  0
VERTEX
  8
0
  6
CONTINUOUS
 10
5.412440
 20
1.482800
  0
SEQEND
  8
0
  0
SOLID
  8
0
 62
    15
 10
5.432240
 20
1.510080
 11
5.434000
 21
2.238720
 12
5.455560
 22
1.534720
 13
5.456880
 23
2.263360
  0
POLYLINE
  8
0
  6
CONTINUOUS
 66
     1
 40
0.000000
 41
0.000000
  0
VERTEX
  8
0
  6
CONTINUOUS
 10
5.432240
 20
1.510080
  0
VERTEX
  8
0
  6
CONTINUOUS
 10
5.434000
 20
2.238720
  0
VERTEX
  8
0
  6
CONTINUOUS
 10
5.456880
 20
2.263360
  0
VERTEX
  8
0
  6
CONTINUOUS
 10
5.455560
 20
1.534720
  0
VERTEX
  8
0
  6
CONTINUOUS
 10
5.432240
 20
1.510080
  0
SEQEND
  8
0
  0
SOLID
  8
0
 62
    15
 10
5.455560
 20
1.534720
 11
5.456880
 21
2.263360
 12
5.481520
 22
1.556280
 13
5.482840
 23
2.284920
  0
POLYLINE
  8
0
  6
CONTINUOUS
 66
     1
 40
0.000000
 41
0.000000
  0
VERTEX
  8
0
  6
CONTINUOUS
 10
5.455560
 20
1.534720
  0
VERTEX
  8
0
  6
CONTINUOUS
 10
5.456880
 20
2.263360
  0
VERTEX
  8
0
  6
CONTINUOUS
 10
5.482840
 20
2.284920
  0
VERTEX
  8
0
  6
CONTINUOUS
 10
5.481520
 20
1.556280
  0
VERTEX
  8
0
  6
CONTINUOUS
 10
5.455560
 20
1.534720
  0
SEQEND
  8
0
  0
SOLID
  8
0
 62
    15
 10
5.481520
 20
1.556280
 11
5.482840
 21
2.284920
 12
5.510560
 22
1.574760
 13
5.511880
 23
2.302960
  0
POLYLINE
  8
0
  6
CONTINUOUS
 66
     1
 40
0.000000
 41
0.000000
  0
VERTEX
  8
0
  6
CONTINUOUS
 10
5.481520
 20
1.556280
  0
VERTEX
  8
0
  6
CONTINUOUS
 10
5.482840
 20
2.284920
  0
VERTEX
  8
0
  6
CONTINUOUS
 10
5.511880
 20
2.302960
  0
VERTEX
  8
0
  6
CONTINUOUS
 10
5.510560
 20
1.574760
  0
VERTEX
  8
0
  6
CONTINUOUS
 10
5.481520
 20
1.556280
  0
SEQEND
  8
0
  0
SOLID
  8
0
 62
    15
 10
5.510560
 20
1.574760
 11
5.511880
 21
2.302960
 12
5.542240
 22
1.589720
 13
5.543560
 23
2.318360
  0
POLYLINE
  8
0
  6
CONTINUOUS
 66
     1
 40
0.000000
 41
0.000000
  0
VERTEX
  8
0
  6
CONTINUOUS
 10
5.510560
 20
1.574760
  0
VERTEX
  8
0
  6
CONTINUOUS
 10
5.511880
 20
2.302960
  0
VERTEX
  8
0
  6
CONTINUOUS
 10
5.543560
 20
2.318360
  0
VERTEX
  8
0
  6
CONTINUOUS
 10
5.542240
 20
1.589720
  0
VERTEX
  8
0
  6
CONTINUOUS
 10
5.510560
 20
1.574760
  0
SEQEND
  8
0
  0
SOLID
  8
0
 62
    15
 10
5.542240
 20
1.589720
 11
5.543560
 21
2.318360
 12
5.577000
 22
1.601600
 13
5.578320
 23
2.329800
  0
POLYLINE
  8
0
  6
CONTINUOUS
 66
     1
 40
0.000000
 41
0.000000
  0
VERTEX
  8
0
  6
CONTINUOUS
 10
5.542240
 20
1.589720
  0
VERTEX
  8
0
  6
CONTINUOUS
 10
5.543560
 20
2.318360
  0
VERTEX
  8
0
  6
CONTINUOUS
 10
5.578320
 20
2.329800
  0
VERTEX
  8
0
  6
CONTINUOUS
 10
5.577000
 20
1.601600
  0
VERTEX
  8
0
  6
CONTINUOUS
 10
5.542240
 20
1.589720
  0
SEQEND
  8
0
  0
SOLID
  8
0
 62
    15
 10
5.577000
 20
1.601600
 11
5.578320
 21
2.329800
 12
5.614400
 22
1.609960
 13
5.616160
 23
2.338600
  0
POLYLINE
  8
0
  6
CONTINUOUS
 66
     1
 40
0.000000
 41
0.000000
  0
VERTEX
  8
0
  6
CONTINUOUS
 10
5.577000
 20
1.601600
  0
VERTEX
  8
0
  6
CONTINUOUS
 10
5.578320
 20
2.329800
  0
VERTEX
  8
0
  6
CONTINUOUS
 10
5.616160
 20
2.338600
  0
VERTEX
  8
0
  6
CONTINUOUS
 10
5.614400
 20
1.609960
  0
VERTEX
  8
0
  6
CONTINUOUS
 10
5.577000
 20
1.601600
  0
SEQEND
  8
0
  0
SOLID
  8
0
 62
    15
 10
5.614400
 20
1.609960
 11
5.616160
 21
2.338600
 12
5.654440
 22
1.615240
 13
5.656200
 23
2.343440
  0
POLYLINE
  8
0
  6
CONTINUOUS
 66
     1
 40
0.000000
 41
0.000000
  0
VERTEX
  8
0
  6
CONTINUOUS
 10
5.614400
 20
1.609960
  0
VERTEX
  8
0
  6
CONTINUOUS
 10
5.616160
 20
2.338600
  0
VERTEX
  8
0
  6
CONTINUOUS
 10
5.656200
 20
2.343440
  0
VERTEX
  8
0
  6
CONTINUOUS
 10
5.654440
 20
1.615240
  0
VERTEX
  8
0
  6
CONTINUOUS
 10
5.614400
 20
1.609960
  0
SEQEND
  8
0
  0
SOLID
  8
0
 62
    15
 10
5.654440
 20
1.615240
 11
5.656200
 21
2.343440
 12
5.697560
 22
1.616560
 13
5.698880
 23
2.345200
  0
POLYLINE
  8
0
  6
CONTINUOUS
 66
     1
 40
0.000000
 41
0.000000
  0
VERTEX
  8
0
  6
CONTINUOUS
 10
5.654440
 20
1.615240
  0
VERTEX
  8
0
  6
CONTINUOUS
 10
5.656200
 20
2.343440
  0
VERTEX
  8
0
  6
CONTINUOUS
 10
5.698880
 20
2.345200
  0
VERTEX
  8
0
  6
CONTINUOUS
 10
5.697560
 20
1.616560
  0
VERTEX
  8
0
  6
CONTINUOUS
 10
5.654440
 20
1.615240
  0
SEQEND
  8
0
  0
SOLID
  8
0
 62
    15
 10
5.697560
 20
1.616560
 11
5.698880
 21
2.345200
 12
5.742880
 22
1.614800
 13
5.744200
 23
2.343440
  0
POLYLINE
  8
0
  6
CONTINUOUS
 66
     1
 40
0.000000
 41
0.000000
  0
VERTEX
  8
0
  6
CONTINUOUS
 10
5.697560
 20
1.616560
  0
VERTEX
  8
0
  6
CONTINUOUS
 10
5.698880
 20
2.345200
  0
VERTEX
  8
0
  6
CONTINUOUS
 10
5.744200
 20
2.343440
  0
VERTEX
  8
0
  6
CONTINUOUS
 10
5.742880
 20
1.614800
  0
VERTEX
  8
0
  6
CONTINUOUS
 10
5.697560
 20
1.616560
  0
SEQEND
  8
0
  0
SOLID
  8
0
 62
    15
 10
5.742880
 20
1.614800
 11
5.744200
 21
2.343440
 12
5.790840
 22
1.609520
 13
5.792600
 23
2.337720
  0
POLYLINE
  8
0
  6
CONTINUOUS
 66
     1
 40
0.000000
 41
0.000000
  0
VERTEX
  8
0
  6
CONTINUOUS
 10
5.742880
 20
1.614800
  0
VERTEX
  8
0
  6
CONTINUOUS
 10
5.744200
 20
2.343440
  0
VERTEX
  8
0
  6
CONTINUOUS
 10
5.792600
 20
2.337720
  0
VERTEX
  8
0
  6
CONTINUOUS
 10
5.790840
 20
1.609520
  0
VERTEX
  8
0
  6
CONTINUOUS
 10
5.742880
 20
1.614800
  0
SEQEND
  8
0
  0
SOLID
  8
0
 62
    15
 10
5.790840
 20
1.609520
 11
5.792600
 21
2.337720
 12
5.841440
 22
1.600280
 13
5.842760
 23
2.328920
  0
POLYLINE
  8
0
  6
CONTINUOUS
 66
     1
 40
0.000000
 41
0.000000
  0
VERTEX
  8
0
  6
CONTINUOUS
 10
5.790840
 20
1.609520
  0
VERTEX
  8
0
  6
CONTINUOUS
 10
5.792600
 20
2.337720
  0
VERTEX
  8
0
  6
CONTINUOUS
 10
5.842760
 20
2.328920
  0
VERTEX
  8
0
  6
CONTINUOUS
 10
5.841440
 20
1.600280
  0
VERTEX
  8
0
  6
CONTINUOUS
 10
5.790840
 20
1.609520
  0
SEQEND
  8
0
  0
SOLID
  8
0
 62
    15
 10
5.841440
 20
1.600280
 11
5.842760
 21
2.328920
 12
5.894240
 22
1.587520
 13
5.895560
 23
2.316160
  0
POLYLINE
  8
0
  6
CONTINUOUS
 66
     1
 40
0.000000
 41
0.000000
  0
VERTEX
  8
0
  6
CONTINUOUS
 10
5.841440
 20
1.600280
  0
VERTEX
  8
0
  6
CONTINUOUS
 10
5.842760
 20
2.328920
  0
VERTEX
  8
0
  6
CONTINUOUS
 10
5.895560
 20
2.316160
  0
VERTEX
  8
0
  6
CONTINUOUS
 10
5.894240
 20
1.587520
  0
VERTEX
  8
0
  6
CONTINUOUS
 10
5.841440
 20
1.600280
  0
SEQEND
  8
0
  0
SOLID
  8
0
 62
    15
 10
5.894240
 20
1.587520
 11
5.895560
 21
2.316160
 12
5.949240
 22
1.571240
 13
5.951000
 23
2.299440
  0
POLYLINE
  8
0
  6
CONTINUOUS
 66
     1
 40
0.000000
 41
0.000000
  0
VERTEX
  8
0
  6
CONTINUOUS
 10
5.894240
 20
1.587520
  0
VERTEX
  8
0
  6
CONTINUOUS
 10
5.895560
 20
2.316160
  0
VERTEX
  8
0
  6
CONTINUOUS
 10
5.951000
 20
2.299440
  0
VERTEX
  8
0
  6
CONTINUOUS
 10
5.949240
 20
1.571240
  0
VERTEX
  8
0
  6
CONTINUOUS
 10
5.894240
 20
1.587520
  0
SEQEND
  8
0
  0
SOLID
  8
0
 62
    15
 10
5.949240
 20
1.571240
 11
5.951000
 21
2.299440
 12
6.004240
 22
1.554080
 13
6.006000
 23
2.282720
  0
POLYLINE
  8
0
  6
CONTINUOUS
 66
     1
 40
0.000000
 41
0.000000
  0
VERTEX
  8
0
  6
CONTINUOUS
 10
5.949240
 20
1.571240
  0
VERTEX
  8
0
  6
CONTINUOUS
 10
5.951000
 20
2.299440
  0
VERTEX
  8
0
  6
CONTINUOUS
 10
6.006000
 20
2.282720
  0
VERTEX
  8
0
  6
CONTINUOUS
 10
6.004240
 20
1.554080
  0
VERTEX
  8
0
  6
CONTINUOUS
 10
5.949240
 20
1.571240
  0
SEQEND
  8
0
  0
SOLID
  8
0
 62
    15
 10
6.004240
 20
1.554080
 11
6.006000
 21
2.282720
 12
6.056160
 22
1.540000
 13
6.057920
 23
2.268640
  0
POLYLINE
  8
0
  6
CONTINUOUS
 66
     1
 40
0.000000
 41
0.000000
  0
VERTEX
  8
0
  6
CONTINUOUS
 10
6.004240
 20
1.554080
  0
VERTEX
  8
0
  6
CONTINUOUS
 10
6.006000
 20
2.282720
  0
VERTEX
  8
0
  6
CONTINUOUS
 10
6.057920
 20
2.268640
  0
VERTEX
  8
0
  6
CONTINUOUS
 10
6.056160
 20
1.540000
  0
VERTEX
  8
0
  6
CONTINUOUS
 10
6.004240
 20
1.554080
  0
SEQEND
  8
0
  0
SOLID
  8
0
 62
    15
 10
6.056160
 20
1.540000
 11
6.057920
 21
2.268640
 12
6.105880
 22
1.529000
 13
6.107640
 23
2.257640
  0
POLYLINE
  8
0
  6
CONTINUOUS
 66
     1
 40
0.000000
 41
0.000000
  0
VERTEX
  8
0
  6
CONTINUOUS
 10
6.056160
 20
1.540000
  0
VERTEX
  8
0
  6
CONTINUOUS
 10
6.057920
 20
2.268640
  0
VERTEX
  8
0
  6
CONTINUOUS
 10
6.107640
 20
2.257640
  0
VERTEX
  8
0
  6
CONTINUOUS
 10
6.105880
 20
1.529000
  0
VERTEX
  8
0
  6
CONTINUOUS
 10
6.056160
 20
1.540000
  0
SEQEND
  8
0
  0
SOLID
  8
0
 62
    15
 10
6.105880
 20
1.529000
 11
6.107640
 21
2.257640
 12
6.152960
 22
1.521080
 13
6.154720
 23
2.249280
  0
POLYLINE
  8
0
  6
CONTINUOUS
 66
     1
 40
0.000000
 41
0.000000
  0
VERTEX
  8
0
  6
CONTINUOUS
 10
6.105880
 20
1.529000
  0
VERTEX
  8
0
  6
CONTINUOUS
 10
6.107640
 20
2.257640
  0
VERTEX
  8
0
  6
CONTINUOUS
 10
6.154720
 20
2.249280
  0
VERTEX
  8
0
  6
CONTINUOUS
 10
6.152960
 20
1.521080
  0
VERTEX
  8
0
  6
CONTINUOUS
 10
6.105880
 20
1.529000
  0
SEQEND
  8
0
  0
SOLID
  8
0
 62
    15
 10
6.152960
 20
1.521080
 11
6.154720
 21
2.249280
 12
6.197840
 22
1.515800
 13
6.199160
 23
2.244000
  0
POLYLINE
  8
0
  6
CONTINUOUS
 66
     1
 40
0.000000
 41
0.000000
  0
VERTEX
  8
0
  6
CONTINUOUS
 10
6.152960
 20
1.521080
  0
VERTEX
  8
0
  6
CONTINUOUS
 10
6.154720
 20
2.249280
  0
VERTEX
  8
0
  6
CONTINUOUS
 10
6.199160
 20
2.244000
  0
VERTEX
  8
0
  6
CONTINUOUS
 10
6.197840
 20
1.515800
  0
VERTEX
  8
0
  6
CONTINUOUS
 10
6.152960
 20
1.521080
  0
SEQEND
  8
0
  0
SOLID
  8
0
 62
    15
 10
6.197840
 20
1.515800
 11
6.199160
 21
2.244000
 12
6.240520
 22
1.513600
 13
6.241840
 23
2.241800
  0
POLYLINE
  8
0
  6
CONTINUOUS
 66
     1
 40
0.000000
 41
0.000000
  0
VERTEX
  8
0
  6
CONTINUOUS
 10
6.197840
 20
1.515800
  0
VERTEX
  8
0
  6
CONTINUOUS
 10
6.199160
 20
2.244000
  0
VERTEX
  8
0
  6
CONTINUOUS
 10
6.241840
 20
2.241800
  0
VERTEX
  8
0
  6
CONTINUOUS
 10
6.240520
 20
1.513600
  0
VERTEX
  8
0
  6
CONTINUOUS
 10
6.197840
 20
1.515800
  0
SEQEND
  8
0
  0
SOLID
  8
0
 62
    15
 10
6.240520
 20
1.513600
 11
6.241840
 21
2.241800
 12
6.319280
 22
1.518000
 13
6.321040
 23
2.246640
  0
POLYLINE
  8
0
  6
CONTINUOUS
 66
     1
 40
0.000000
 41
0.000000
  0
VERTEX
  8
0
  6
CONTINUOUS
 10
6.240520
 20
1.513600
  0
VERTEX
  8
0
  6
CONTINUOUS
 10
6.241840
 20
2.241800
  0
VERTEX
  8
0
  6
CONTINUOUS
 10
6.321040
 20
2.246640
  0
VERTEX
  8
0
  6
CONTINUOUS
 10
6.319280
 20
1.518000
  0
VERTEX
  8
0
  6
CONTINUOUS
 10
6.240520
 20
1.513600
  0
SEQEND
  8
0
  0
SOLID
  8
0
 62
    15
 10
6.319280
 20
1.518000
 11
6.321040
 21
2.246640
 12
6.391440
 22
1.535160
 13
6.392760
 23
2.263360
  0
POLYLINE
  8
0
  6
CONTINUOUS
 66
     1
 40
0.000000
 41
0.000000
  0
VERTEX
  8
0
  6
CONTINUOUS
 10
6.319280
 20
1.518000
  0
VERTEX
  8
0
  6
CONTINUOUS
 10
6.321040
 20
2.246640
  0
VERTEX
  8
0
  6
CONTINUOUS
 10
6.392760
 20
2.263360
  0
VERTEX
  8
0
  6
CONTINUOUS
 10
6.391440
 20
1.535160
  0
VERTEX
  8
0
  6
CONTINUOUS
 10
6.319280
 20
1.518000
  0
SEQEND
  8
0
  0
SOLID
  8
0
 62
    15
 10
6.391440
 20
1.535160
 11
6.392760
 21
2.263360
 12
6.457440
 22
1.564200
 13
6.458760
 23
2.292400
  0
POLYLINE
  8
0
  6
CONTINUOUS
 66
     1
 40
0.000000
 41
0.000000
  0
VERTEX
  8
0
  6
CONTINUOUS
 10
6.391440
 20
1.535160
  0
VERTEX
  8
0
  6
CONTINUOUS
 10
6.392760
 20
2.263360
  0
VERTEX
  8
0
  6
CONTINUOUS
 10
6.458760
 20
2.292400
  0
VERTEX
  8
0
  6
CONTINUOUS
 10
6.457440
 20
1.564200
  0
VERTEX
  8
0
  6
CONTINUOUS
 10
6.391440
 20
1.535160
  0
SEQEND
  8
0
  0
SOLID
  8
0
 62
    15
 10
6.457440
 20
1.564200
 11
6.458760
 21
2.292400
 12
6.518600
 22
1.605560
 13
6.519920
 23
2.334200
  0
POLYLINE
  8
0
  6
CONTINUOUS
 66
     1
 40
0.000000
 41
0.000000
  0
VERTEX
  8
0
  6
CONTINUOUS
 10
6.457440
 20
1.564200
  0
VERTEX
  8
0
  6
CONTINUOUS
 10
6.458760
 20
2.292400
  0
VERTEX
  8
0
  6
CONTINUOUS
 10
6.519920
 20
2.334200
  0
VERTEX
  8
0
  6
CONTINUOUS
 10
6.518600
 20
1.605560
  0
VERTEX
  8
0
  6
CONTINUOUS
 10
6.457440
 20
1.564200
  0
SEQEND
  8
0
  0
SOLID
  8
0
 62
    15
 10
6.518600
 20
1.605560
 11
6.519920
 21
2.334200
 12
6.575800
 22
1.659680
 13
6.577120
 23
2.388320
  0
POLYLINE
  8
0
  6
CONTINUOUS
 66
     1
 40
0.000000
 41
0.000000
  0
VERTEX
  8
0
  6
CONTINUOUS
 10
6.518600
 20
1.605560
  0
VERTEX
  8
0
  6
CONTINUOUS
 10
6.519920
 20
2.334200
  0
VERTEX
  8
0
  6
CONTINUOUS
 10
6.577120
 20
2.388320
  0
VERTEX
  8
0
  6
CONTINUOUS
 10
6.575800
 20
1.659680
  0
VERTEX
  8
0
  6
CONTINUOUS
 10
6.518600
 20
1.605560
  0
SEQEND
  8
0
  0
SOLID
  8
0
 62
    15
 10
6.575800
 20
1.659680
 11
6.577120
 21
2.388320
 12
6.725840
 22
1.659680
 13
6.727600
 23
2.388320
  0
POLYLINE
  8
0
  6
CONTINUOUS
 66
     1
 40
0.000000
 41
0.000000
  0
VERTEX
  8
0
  6
CONTINUOUS
 10
6.575800
 20
1.659680
  0
VERTEX
  8
0
  6
CONTINUOUS
 10
6.577120
 20
2.388320
  0
VERTEX
  8
0
  6
CONTINUOUS
 10
6.727600
 20
2.388320
  0
VERTEX
  8
0
  6
CONTINUOUS
 10
6.725840
 20
1.659680
  0
VERTEX
  8
0
  6
CONTINUOUS
 10
6.575800
 20
1.659680
  0
SEQEND
  8
0
  0
SOLID
  8
0
 62
    15
 10
7.448320
 20
1.767920
 11
7.449640
 21
2.496560
 12
7.448320
 22
0.982960
 13
7.449640
 23
1.711600
  0
POLYLINE
  8
0
  6
CONTINUOUS
 66
     1
 40
0.000000
 41
0.000000
  0
VERTEX
  8
0
  6
CONTINUOUS
 10
7.448320
 20
1.767920
  0
VERTEX
  8
0
  6
CONTINUOUS
 10
7.449640
 20
2.496560
  0
VERTEX
  8
0
  6
CONTINUOUS
 10
7.449640
 20
1.711600
  0
VERTEX
  8
0
  6
CONTINUOUS
 10
7.448320
 20
0.982960
  0
VERTEX
  8
0
  6
CONTINUOUS
 10
7.448320
 20
1.767920
  0
SEQEND
  8
0
  0
SOLID
  8
0
 62
    15
 10
6.725840
 20
1.767920
 11
6.727600
 21
2.496560
 12
7.448320
 22
1.767920
 13
7.449640
 23
2.496560
  0
POLYLINE
  8
0
  6
CONTINUOUS
 66
     1
 40
0.000000
 41
0.000000
  0
VERTEX
  8
0
  6
CONTINUOUS
 10
6.725840
 20
1.767920
  0
VERTEX
  8
0
  6
CONTINUOUS
 10
6.727600
 20
2.496560
  0
VERTEX
  8
0
  6
CONTINUOUS
 10
7.449640
 20
2.496560
  0
VERTEX
  8
0
  6
CONTINUOUS
 10
7.448320
 20
1.767920
  0
VERTEX
  8
0
  6
CONTINUOUS
 10
6.725840
 20
1.767920
  0
SEQEND
  8
0
  0
SOLID
  8
0
 62
    15
 10
2.916760
 20
0.982960
 11
2.918080
 21
1.711600
 12
2.917640
 22
0.986040
 13
2.919400
 23
1.714680
  0
POLYLINE
  8
0
  6
CONTINUOUS
 66
     1
 40
0.000000
 41
0.000000
  0
VERTEX
  8
0
  6
CONTINUOUS
 10
2.916760
 20
0.982960
  0
VERTEX
  8
0
  6
CONTINUOUS
 10
2.918080
 20
1.711600
  0
VERTEX
  8
0
  6
CONTINUOUS
 10
2.919400
 20
1.714680
  0
VERTEX
  8
0
  6
CONTINUOUS
 10
2.917640
 20
0.986040
  0
VERTEX
  8
0
  6
CONTINUOUS
 10
2.916760
 20
0.982960
  0
SEQEND
  8
0
  0
POLYLINE
  8
0
  6
CONTINUOUS
 66
     1
 40
0.000000
 41
0.000000
  0
VERTEX
  8
0
  6
CONTINUOUS
 10
2.917640
 20
0.986040
  0
VERTEX
  8
0
  6
CONTINUOUS
 10
2.917640
 20
1.771440
  0
VERTEX
  8
0
  6
CONTINUOUS
 10
3.640120
 20
1.771440
  0
VERTEX
  8
0
  6
CONTINUOUS
 10
3.640120
 20
1.662760
  0
VERTEX
  8
0
  6
CONTINUOUS
 10
3.790160
 20
1.662760
  0
VERTEX
  8
0
  6
CONTINUOUS
 10
3.847360
 20
1.609080
  0
VERTEX
  8
0
  6
CONTINUOUS
 10
3.908520
 20
1.567280
  0
VERTEX
  8
0
  6
CONTINUOUS
 10
3.974520
 20
1.538240
  0
VERTEX
  8
0
  6
CONTINUOUS
 10
4.046240
 20
1.521520
  0
VERTEX
  8
0
  6
CONTINUOUS
 10
4.125440
 20
1.516680
  0
VERTEX
  8
0
  6
CONTINUOUS
 10
4.168120
 20
1.518880
  0
VERTEX
  8
0
  6
CONTINUOUS
 10
4.212560
 20
1.524160
  0
VERTEX
  8
0
  6
CONTINUOUS
 10
4.259640
 20
1.532520
  0
VERTEX
  8
0
  6
CONTINUOUS
 10
4.309360
 20
1.543520
  0
VERTEX
  8
0
  6
CONTINUOUS
 10
4.361720
 20
1.557600
  0
VERTEX
  8
0
  6
CONTINUOUS
 10
4.471720
 20
1.591040
  0
VERTEX
  8
0
  6
CONTINUOUS
 10
4.524520
 20
1.603360
  0
VERTEX
  8
0
  6
CONTINUOUS
 10
4.575120
 20
1.612600
  0
VERTEX
  8
0
  6
CONTINUOUS
 10
4.623080
 20
1.617880
  0
VERTEX
  8
0
  6
CONTINUOUS
 10
4.668400
 20
1.619640
  0
VERTEX
  8
0
  6
CONTINUOUS
 10
4.711080
 20
1.617440
  0
VERTEX
  8
0
  6
CONTINUOUS
 10
4.751120
 20
1.612160
  0
VERTEX
  8
0
  6
CONTINUOUS
 10
4.788520
 20
1.603800
  0
VERTEX
  8
0
  6
CONTINUOUS
 10
4.823280
 20
1.591480
  0
VERTEX
  8
0
  6
CONTINUOUS
 10
4.854960
 20
1.576520
  0
VERTEX
  8
0
  6
CONTINUOUS
 10
4.884000
 20
1.557600
  0
VERTEX
  8
0
  6
CONTINUOUS
 10
4.909960
 20
1.536040
  0
VERTEX
  8
0
  6
CONTINUOUS
 10
4.932840
 20
1.511400
  0
VERTEX
  8
0
  6
CONTINUOUS
 10
4.952640
 20
1.483680
  0
VERTEX
  8
0
  6
CONTINUOUS
 10
4.969360
 20
1.452880
  0
VERTEX
  8
0
  6
CONTINUOUS
 10
4.983000
 20
1.419440
  0
VERTEX
  8
0
  6
CONTINUOUS
 10
4.984320
 20
1.420760
  0
VERTEX
  8
0
  6
CONTINUOUS
 10
4.998400
 20
1.420760
  0
VERTEX
  8
0
  6
CONTINUOUS
 10
4.997080
 20
1.420760
  0
VERTEX
  8
0
  6
CONTINUOUS
 10
5.000600
 20
1.457720
  0
VERTEX
  8
0
  6
CONTINUOUS
 10
5.011600
 20
1.492480
  0
VERTEX
  8
0
  6
CONTINUOUS
 10
5.028320
 20
1.523720
  0
VERTEX
  8
0
  6
CONTINUOUS
 10
5.051200
 20
1.551000
  0
VERTEX
  8
0
  6
CONTINUOUS
 10
5.078480
 20
1.573880
  0
VERTEX
  8
0
  6
CONTINUOUS
 10
5.109720
 20
1.590600
  0
VERTEX
  8
0
  6
CONTINUOUS
 10
5.144480
 20
1.601600
  0
VERTEX
  8
0
  6
CONTINUOUS
 10
5.181440
 20
1.605120
  0
VERTEX
  8
0
  6
CONTINUOUS
 10
5.218840
 20
1.601600
  0
VERTEX
  8
0
  6
CONTINUOUS
 10
5.253160
 20
1.590600
  0
VERTEX
  8
0
  6
CONTINUOUS
 10
5.284400
 20
1.573880
  0
VERTEX
  8
0
  6
CONTINUOUS
 10
5.312120
 20
1.551000
  0
VERTEX
  8
0
  6
CONTINUOUS
 10
5.334560
 20
1.523720
  0
VERTEX
  8
0
  6
CONTINUOUS
 10
5.351280
 20
1.492480
  0
VERTEX
  8
0
  6
CONTINUOUS
 10
5.362280
 20
1.457720
  0
VERTEX
  8
0
  6
CONTINUOUS
 10
5.366240
 20
1.418560
  0
VERTEX
  8
0
  6
CONTINUOUS
 10
5.382520
 20
1.418560
  0
VERTEX
  8
0
  6
CONTINUOUS
 10
5.395720
 20
1.452000
  0
VERTEX
  8
0
  6
CONTINUOUS
 10
5.412440
 20
1.482800
  0
VERTEX
  8
0
  6
CONTINUOUS
 10
5.432240
 20
1.510080
  0
VERTEX
  8
0
  6
CONTINUOUS
 10
5.455560
 20
1.534720
  0
VERTEX
  8
0
  6
CONTINUOUS
 10
5.481520
 20
1.556280
  0
VERTEX
  8
0
  6
CONTINUOUS
 10
5.510560
 20
1.574760
  0
VERTEX
  8
0
  6
CONTINUOUS
 10
5.542240
 20
1.589720
  0
VERTEX
  8
0
  6
CONTINUOUS
 10
5.577000
 20
1.601600
  0
VERTEX
  8
0
  6
CONTINUOUS
 10
5.614400
 20
1.609960
  0
VERTEX
  8
0
  6
CONTINUOUS
 10
5.654440
 20
1.615240
  0
VERTEX
  8
0
  6
CONTINUOUS
 10
5.697560
 20
1.616560
  0
VERTEX
  8
0
  6
CONTINUOUS
 10
5.742880
 20
1.614800
  0
VERTEX
  8
0
  6
CONTINUOUS
 10
5.790840
 20
1.609520
  0
VERTEX
  8
0
  6
CONTINUOUS
 10
5.841440
 20
1.600280
  0
VERTEX
  8
0
  6
CONTINUOUS
 10
5.894240
 20
1.587520
  0
VERTEX
  8
0
  6
CONTINUOUS
 10
6.004240
 20
1.554080
  0
VERTEX
  8
0
  6
CONTINUOUS
 10
6.056160
 20
1.540000
  0
VERTEX
  8
0
  6
CONTINUOUS
 10
6.105880
 20
1.529000
  0
VERTEX
  8
0
  6
CONTINUOUS
 10
6.152960
 20
1.521080
  0
VERTEX
  8
0
  6
CONTINUOUS
 10
6.197840
 20
1.515800
  0
VERTEX
  8
0
  6
CONTINUOUS
 10
6.240520
 20
1.513600
  0
VERTEX
  8
0
  6
CONTINUOUS
 10
6.319280
 20
1.518000
  0
VERTEX
  8
0
  6
CONTINUOUS
 10
6.391440
 20
1.535160
  0
VERTEX
  8
0
  6
CONTINUOUS
 10
6.457440
 20
1.564200
  0
VERTEX
  8
0
  6
CONTINUOUS
 10
6.518600
 20
1.605560
  0
VERTEX
  8
0
  6
CONTINUOUS
 10
6.575800
 20
1.659680
  0
VERTEX
  8
0
  6
CONTINUOUS
 10
6.725840
 20
1.659680
  0
VERTEX
  8
0
  6
CONTINUOUS
 10
6.725840
 20
1.767920
  0
VERTEX
  8
0
  6
CONTINUOUS
 10
7.448320
 20
1.767920
  0
VERTEX
  8
0
  6
CONTINUOUS
 10
7.448320
 20
0.982960
  0
VERTEX
  8
0
  6
CONTINUOUS
 10
2.916760
 20
0.982960
  0
VERTEX
  8
0
  6
CONTINUOUS
 10
2.917640
 20
0.986040
  0
SEQEND
  8
0
  0
TEXT
  8
0
 10
4.889280
 20
0.708400
 40
0.138074
  1
BA  370
 41
1.000000
  7
SN0
 71
     0
 72
     5
 11
5.480458
 21
0.708400
  0
TEXT
  8
0
 10
4.687320
 20
0.516560
 40
0.138074
  1
3/4" x 4-7/16"
 41
1.000000
  7
SN0
 71
     0
 72
     5
 11
5.682037
 21
0.516560
  0
ENDSEC
  0
EOF
