  0
SECTION
  2
HEADER
  9
$ACADVER
  1
AC1006
  9
$EXTMIN
 10
0.755040
 20
0.575960
  9
$EXTMAX
 10
7.828040
 20
6.959920
  9
$LTSCALE
 40
0.044000
  9
$PDMODE
 70
    35
  9
$PDSIZE
 40
0.035200
  0
ENDSEC
  0
SECTION
  2
TABLES
  0
TABLE
  2
LTYPE
 70
     9
  0
LTYPE
  2
CONTINUOUS
 70
    64
  3
Solid line
 72
    65
 73
     0
 40
0.000000
  0
LTYPE
  2
DASHED
 70
    64
  3
__ __ __ __ __ __ __ __ __ __ __ __ __ __ __
 72
    65
 73
     2
 40
0.000330
 49
0.000220
 49
-0.000110
  0
LTYPE
  2
HIDDEN
 70
    64
  3
 _ _ _ _ _ _ _ _ _ _ _ _ _ _ _ _ _ _ _ _ _ _
 72
    65
 73
     2
 40
0.000165
 49
0.000110
 49
-0.000055
  0
LTYPE
  2
CENTER
 70
    64
  3
____ _ ____ _ ____ _ ____ _ ____ _ ____ _ ____
 72
    65
 73
     4
 40
0.000880
 49
0.000550
 49
-0.000110
 49
0.000110
 49
-0.000110
  0
LTYPE
  2
PHANTOM
 70
    64
  3
_____ _ _ _____ _ _ _____ _ _ _____ _ _ ____
 72
    65
 73
     6
 40
0.001100
 49
0.000550
 49
-0.000110
 49
0.000110
 49
-0.000110
 49
0.000110
 49
-0.000110
  0
LTYPE
  2
DOT
 70
    64
  3
...............................................
 72
    65
 73
     2
 40
0.000110
 49
0.000000
 49
-0.000110
  0
LTYPE
  2
DASHDOT
 70
    64
  3
__ . __ . __ . __ . __ . __ . __ . __ . __ . __
 72
    65
 73
     4
 40
0.000440
 49
0.000220
 49
-0.000110
 49
0.000000
 49
-0.000110
  0
LTYPE
  2
BORDER
 70
    64
  3
__ __ . __ __ . __ __ . __ __ . __ __ . __ __
 72
    65
 73
     6
 40
0.000770
 49
0.000220
 49
-0.000110
 49
0.000220
 49
-0.000110
 49
0.000000
 49
-0.000110
  0
LTYPE
  2
DIVIDE
 70
    64
  3
__ . . __ . . __ . . __ . . __ . . __ . . __
 72
    65
 73
     6
 40
0.000550
 49
0.000220
 49
-0.000110
 49
0.000000
 49
-0.000110
 49
0.000000
 49
-0.000110
  0
LTYPE
  2
DOTDOT
 70
    64
  3
 . .  . .  . .  . .  . .  . . 
 72
    65
 73
     5
 40
0.000242
 49
-0.000110
 49
0.000000
 49
-0.000110
 49
0.000000
 49
-0.000110
  0
ENDTAB
  0
TABLE
  2
STYLE
 70
     2
  0
STYLE
 70
     0
  2
SN0
 40
0.000000
 41
0.000440
 50
0.000000
 71
     0
 42
0.000000
  3
ROMAND
  0
STYLE
 70
    68
  2
SV0
 40
0.000000
 41
0.000440
 50
0.000000
 71
     0
 42
0.000000
  3
ROMAND
  0
ENDTAB
  0
TABLE
  2
LAYER
 70
     3
  0
LAYER
  2
FOREGROUND
 70
    64
 62
     7
  6
CONTINUOUS
  0
LAYER
  2
BACKGROUND
 70
    65
 62
    -7
  6
CONTINUOUS
  0
LAYER
  2
0
 70
    64
 62
     7
  6
CONTINUOUS
  0
ENDTAB
  0
ENDSEC
  0
SECTION
  2
ENTITIES
  0
POLYLINE
  8
FOREGROUND
  6
CONTINUOUS
 66
     1
 40
0.000000
 41
0.000000
  0
VERTEX
  8
FOREGROUND
  6
CONTINUOUS
 10
0.000000
 20
7.535880
  0
VERTEX
  8
FOREGROUND
  6
CONTINUOUS
 10
8.499920
 20
7.535880
  0
VERTEX
  8
FOREGROUND
  6
CONTINUOUS
 10
8.499920
 20
-3.464120
  0
VERTEX
  8
FOREGROUND
  6
CONTINUOUS
 10
0.000000
 20
-3.464120
  0
VERTEX
  8
FOREGROUND
  6
CONTINUOUS
 10
0.000000
 20
7.535880
  0
SEQEND
  8
0
  0
POLYLINE
  8
FOREGROUND
  6
CONTINUOUS
 66
     1
 40
0.000000
 41
0.000000
  0
VERTEX
  8
FOREGROUND
  6
CONTINUOUS
 10
0.000000
 20
7.535880
  0
VERTEX
  8
FOREGROUND
  6
CONTINUOUS
 10
8.499920
 20
7.535880
  0
VERTEX
  8
FOREGROUND
  6
CONTINUOUS
 10
8.499920
 20
-3.464120
  0
VERTEX
  8
FOREGROUND
  6
CONTINUOUS
 10
0.000000
 20
-3.464120
  0
VERTEX
  8
FOREGROUND
  6
CONTINUOUS
 10
0.000000
 20
7.535880
  0
SEQEND
  8
0
  0
POLYLINE
  8
0
  6
CONTINUOUS
 66
     1
 40
0.014080
 41
0.014080
  0
VERTEX
  8
0
  6
CONTINUOUS
 10
0.767800
 20
2.959880
  0
VERTEX
  8
0
  6
CONTINUOUS
 10
0.947760
 20
2.959880
  0
VERTEX
  8
0
  6
CONTINUOUS
 10
0.947760
 20
3.088360
  0
VERTEX
  8
0
  6
CONTINUOUS
 10
0.984720
 20
3.089680
  0
VERTEX
  8
0
  6
CONTINUOUS
 10
1.020800
 20
3.094520
  0
VERTEX
  8
0
  6
CONTINUOUS
 10
1.056000
 20
3.102880
  0
VERTEX
  8
0
  6
CONTINUOUS
 10
1.090320
 20
3.113880
  0
VERTEX
  8
0
  6
CONTINUOUS
 10
1.138720
 20
3.137200
  0
VERTEX
  8
0
  6
CONTINUOUS
 10
1.169080
 20
3.156120
  0
VERTEX
  8
0
  6
CONTINUOUS
 10
1.211320
 20
3.189560
  0
VERTEX
  8
0
  6
CONTINUOUS
 10
1.236400
 20
3.215080
  0
VERTEX
  8
0
  6
CONTINUOUS
 10
1.258840
 20
3.243240
  0
VERTEX
  8
0
  6
CONTINUOUS
 10
1.287440
 20
3.289880
  0
VERTEX
  8
0
  6
CONTINUOUS
 10
1.302840
 20
3.323760
  0
VERTEX
  8
0
  6
CONTINUOUS
 10
1.314720
 20
3.359400
  0
VERTEX
  8
0
  6
CONTINUOUS
 10
1.323080
 20
3.396800
  0
VERTEX
  8
0
  6
CONTINUOUS
 10
1.327480
 20
3.435960
  0
VERTEX
  8
0
  6
CONTINUOUS
 10
1.328360
 20
3.456200
  0
VERTEX
  8
0
  6
CONTINUOUS
 10
1.445400
 20
3.456200
  0
VERTEX
  8
0
  6
CONTINUOUS
 10
1.445400
 20
3.655080
  0
VERTEX
  8
0
  6
CONTINUOUS
 10
1.077560
 20
3.678400
  0
VERTEX
  8
0
  6
CONTINUOUS
 10
1.077560
 20
3.919960
  0
VERTEX
  8
0
  6
CONTINUOUS
 10
1.436160
 20
3.931840
  0
VERTEX
  8
0
  6
CONTINUOUS
 10
1.458160
 20
4.088040
  0
VERTEX
  8
0
  6
CONTINUOUS
 10
1.477520
 20
4.194080
  0
VERTEX
  8
0
  6
CONTINUOUS
 10
1.500400
 20
4.300560
  0
VERTEX
  8
0
  6
CONTINUOUS
 10
1.540880
 20
4.459840
  0
VERTEX
  8
0
  6
CONTINUOUS
 10
1.588840
 20
4.617360
  0
VERTEX
  8
0
  6
CONTINUOUS
 10
1.624920
 20
4.720760
  0
VERTEX
  8
0
  6
CONTINUOUS
 10
1.684760
 20
4.871240
  0
VERTEX
  8
0
  6
CONTINUOUS
 10
1.728320
 20
4.968040
  0
VERTEX
  8
0
  6
CONTINUOUS
 10
1.774520
 20
5.061320
  0
VERTEX
  8
0
  6
CONTINUOUS
 10
1.823800
 20
5.150640
  0
VERTEX
  8
0
  6
CONTINUOUS
 10
1.875720
 20
5.235120
  0
VERTEX
  8
0
  6
CONTINUOUS
 10
1.930280
 20
5.314320
  0
VERTEX
  8
0
  6
CONTINUOUS
 10
1.987480
 20
5.388240
  0
VERTEX
  8
0
  6
CONTINUOUS
 10
2.046880
 20
5.455560
  0
VERTEX
  8
0
  6
CONTINUOUS
 10
2.108920
 20
5.516280
  0
VERTEX
  8
0
  6
CONTINUOUS
 10
2.140600
 20
5.544000
  0
VERTEX
  8
0
  6
CONTINUOUS
 10
2.173160
 20
5.569960
  0
VERTEX
  8
0
  6
CONTINUOUS
 10
2.239600
 20
5.615280
  0
VERTEX
  8
0
  6
CONTINUOUS
 10
2.307800
 20
5.652240
  0
VERTEX
  8
0
  6
CONTINUOUS
 10
2.343000
 20
5.667200
  0
VERTEX
  8
0
  6
CONTINUOUS
 10
2.378640
 20
5.680400
  0
VERTEX
  8
0
  6
CONTINUOUS
 10
2.432760
 20
5.694920
  0
VERTEX
  8
0
  6
CONTINUOUS
 10
2.469720
 20
5.701960
  0
VERTEX
  8
0
  6
CONTINUOUS
 10
2.525600
 20
5.707240
  0
VERTEX
  8
0
  6
CONTINUOUS
 10
2.563440
 20
5.707240
  0
VERTEX
  8
0
  6
CONTINUOUS
 10
2.601720
 20
5.705040
  0
VERTEX
  8
0
  6
CONTINUOUS
 10
2.660240
 20
5.696240
  0
VERTEX
  8
0
  6
CONTINUOUS
 10
2.699400
 20
5.686560
  0
VERTEX
  8
0
  6
CONTINUOUS
 10
2.759240
 20
5.666760
  0
VERTEX
  8
0
  6
CONTINUOUS
 10
2.819960
 20
5.639920
  0
VERTEX
  8
0
  6
CONTINUOUS
 10
2.881560
 20
5.605600
  0
VERTEX
  8
0
  6
CONTINUOUS
 10
2.943600
 20
5.564680
  0
VERTEX
  8
0
  6
CONTINUOUS
 10
3.006960
 20
5.515400
  0
VERTEX
  8
0
  6
CONTINUOUS
 10
3.070760
 20
5.459080
  0
VERTEX
  8
0
  6
CONTINUOUS
 10
3.157000
 20
5.370640
  0
VERTEX
  8
0
  6
CONTINUOUS
 10
3.244120
 20
5.267680
  0
VERTEX
  8
0
  6
CONTINUOUS
 10
3.266120
 20
5.239520
  0
VERTEX
  8
0
  6
CONTINUOUS
 10
3.348400
 20
5.238640
  0
VERTEX
  8
0
  6
CONTINUOUS
 10
3.348400
 20
5.381200
  0
VERTEX
  8
0
  6
CONTINUOUS
 10
3.380520
 20
5.382520
  0
VERTEX
  8
0
  6
CONTINUOUS
 10
3.412200
 20
5.385600
  0
VERTEX
  8
0
  6
CONTINUOUS
 10
3.444320
 20
5.390440
  0
VERTEX
  8
0
  6
CONTINUOUS
 10
3.491400
 20
5.401880
  0
VERTEX
  8
0
  6
CONTINUOUS
 10
3.536720
 20
5.418600
  0
VERTEX
  8
0
  6
CONTINUOUS
 10
3.579400
 20
5.441480
  0
VERTEX
  8
0
  6
CONTINUOUS
 10
3.605800
 20
5.459960
  0
VERTEX
  8
0
  6
CONTINUOUS
 10
3.641880
 20
5.493840
  0
VERTEX
  8
0
  6
CONTINUOUS
 10
3.663000
 20
5.520680
  0
VERTEX
  8
0
  6
CONTINUOUS
 10
3.681920
 20
5.551040
  0
VERTEX
  8
0
  6
CONTINUOUS
 10
3.697760
 20
5.584920
  0
VERTEX
  8
0
  6
CONTINUOUS
 10
3.710520
 20
5.622760
  0
VERTEX
  8
0
  6
CONTINUOUS
 10
3.720200
 20
5.665000
  0
VERTEX
  8
0
  6
CONTINUOUS
 10
3.725920
 20
5.711200
  0
VERTEX
  8
0
  6
CONTINUOUS
 10
3.850440
 20
5.711200
  0
VERTEX
  8
0
  6
CONTINUOUS
 10
3.850440
 20
6.008200
  0
VERTEX
  8
0
  6
CONTINUOUS
 10
4.076160
 20
6.008200
  0
VERTEX
  8
0
  6
CONTINUOUS
 10
4.204200
 20
6.136240
  0
VERTEX
  8
0
  6
CONTINUOUS
 10
4.204200
 20
6.383080
  0
VERTEX
  8
0
  6
CONTINUOUS
 10
3.933600
 20
6.383080
  0
VERTEX
  8
0
  6
CONTINUOUS
 10
3.933600
 20
6.640920
  0
VERTEX
  8
0
  6
CONTINUOUS
 10
4.194960
 20
6.640920
  0
VERTEX
  8
0
  6
CONTINUOUS
 10
4.194960
 20
6.952440
  0
VERTEX
  8
0
  6
CONTINUOUS
 10
0.762960
 20
6.952440
  0
VERTEX
  8
0
  6
CONTINUOUS
 10
0.762960
 20
2.959880
  0
SEQEND
  8
0
  0
POLYLINE
  8
0
  6
DOT
 66
     1
 40
0.014080
 41
0.014080
  0
VERTEX
  8
0
  6
DOT
 10
0.763840
 20
5.217520
  0
VERTEX
  8
0
  6
DOT
 10
1.073600
 20
5.217520
  0
VERTEX
  8
0
  6
DOT
 10
1.122000
 20
5.415960
  0
VERTEX
  8
0
  6
DOT
 10
1.436160
 20
5.415960
  0
VERTEX
  8
0
  6
DOT
 10
1.474880
 20
5.217520
  0
VERTEX
  8
0
  6
DOT
 10
1.866920
 20
5.217520
  0
SEQEND
  8
0
  0
SOLID
  8
0
 62
    15
 10
5.279120
 20
3.650240
 11
5.931200
 21
3.299560
 12
5.144040
 22
3.567960
 13
5.796560
 23
3.216840
  0
POLYLINE
  8
0
  6
CONTINUOUS
 66
     1
 40
0.000000
 41
0.000000
  0
VERTEX
  8
0
  6
CONTINUOUS
 10
5.279120
 20
3.650240
  0
VERTEX
  8
0
  6
CONTINUOUS
 10
5.931200
 20
3.299560
  0
VERTEX
  8
0
  6
CONTINUOUS
 10
5.796560
 20
3.216840
  0
VERTEX
  8
0
  6
CONTINUOUS
 10
5.144040
 20
3.567960
  0
VERTEX
  8
0
  6
CONTINUOUS
 10
5.279120
 20
3.650240
  0
SEQEND
  8
0
  0
SOLID
  8
0
 62
    15
 10
7.166720
 20
4.638920
 11
7.818800
 21
4.288240
 12
6.904920
 22
4.638920
 13
7.557440
 23
4.288240
  0
POLYLINE
  8
0
  6
CONTINUOUS
 66
     1
 40
0.000000
 41
0.000000
  0
VERTEX
  8
0
  6
CONTINUOUS
 10
7.166720
 20
4.638920
  0
VERTEX
  8
0
  6
CONTINUOUS
 10
7.818800
 20
4.288240
  0
VERTEX
  8
0
  6
CONTINUOUS
 10
7.557440
 20
4.288240
  0
VERTEX
  8
0
  6
CONTINUOUS
 10
6.904920
 20
4.638920
  0
VERTEX
  8
0
  6
CONTINUOUS
 10
7.166720
 20
4.638920
  0
SEQEND
  8
0
  0
SOLID
  8
0
 62
    15
 10
6.904920
 20
4.638920
 11
7.557440
 21
4.288240
 12
6.904920
 22
4.380640
 13
7.557440
 23
4.029960
  0
POLYLINE
  8
0
  6
CONTINUOUS
 66
     1
 40
0.000000
 41
0.000000
  0
VERTEX
  8
0
  6
CONTINUOUS
 10
6.904920
 20
4.638920
  0
VERTEX
  8
0
  6
CONTINUOUS
 10
7.557440
 20
4.288240
  0
VERTEX
  8
0
  6
CONTINUOUS
 10
7.557440
 20
4.029960
  0
VERTEX
  8
0
  6
CONTINUOUS
 10
6.904920
 20
4.380640
  0
VERTEX
  8
0
  6
CONTINUOUS
 10
6.904920
 20
4.638920
  0
SEQEND
  8
0
  0
SOLID
  8
0
 62
    15
 10
7.175960
 20
4.380640
 11
7.828040
 21
4.029960
 12
7.175960
 22
4.134240
 13
7.828040
 23
3.783560
  0
POLYLINE
  8
0
  6
CONTINUOUS
 66
     1
 40
0.000000
 41
0.000000
  0
VERTEX
  8
0
  6
CONTINUOUS
 10
7.175960
 20
4.380640
  0
VERTEX
  8
0
  6
CONTINUOUS
 10
7.828040
 20
4.029960
  0
VERTEX
  8
0
  6
CONTINUOUS
 10
7.828040
 20
3.783560
  0
VERTEX
  8
0
  6
CONTINUOUS
 10
7.175960
 20
4.134240
  0
VERTEX
  8
0
  6
CONTINUOUS
 10
7.175960
 20
4.380640
  0
SEQEND
  8
0
  0
SOLID
  8
0
 62
    15
 10
7.175960
 20
4.134240
 11
7.828040
 21
3.783560
 12
7.047920
 22
4.006200
 13
7.700000
 23
3.655520
  0
POLYLINE
  8
0
  6
CONTINUOUS
 66
     1
 40
0.000000
 41
0.000000
  0
VERTEX
  8
0
  6
CONTINUOUS
 10
7.175960
 20
4.134240
  0
VERTEX
  8
0
  6
CONTINUOUS
 10
7.828040
 20
3.783560
  0
VERTEX
  8
0
  6
CONTINUOUS
 10
7.700000
 20
3.655520
  0
VERTEX
  8
0
  6
CONTINUOUS
 10
7.047920
 20
4.006200
  0
VERTEX
  8
0
  6
CONTINUOUS
 10
7.175960
 20
4.134240
  0
SEQEND
  8
0
  0
SOLID
  8
0
 62
    15
 10
7.047920
 20
4.006200
 11
7.700000
 21
3.655520
 12
6.821760
 22
4.006200
 13
7.474280
 23
3.655520
  0
POLYLINE
  8
0
  6
CONTINUOUS
 66
     1
 40
0.000000
 41
0.000000
  0
VERTEX
  8
0
  6
CONTINUOUS
 10
7.047920
 20
4.006200
  0
VERTEX
  8
0
  6
CONTINUOUS
 10
7.700000
 20
3.655520
  0
VERTEX
  8
0
  6
CONTINUOUS
 10
7.474280
 20
3.655520
  0
VERTEX
  8
0
  6
CONTINUOUS
 10
6.821760
 20
4.006200
  0
VERTEX
  8
0
  6
CONTINUOUS
 10
7.047920
 20
4.006200
  0
SEQEND
  8
0
  0
SOLID
  8
0
 62
    15
 10
6.821760
 20
4.006200
 11
7.474280
 21
3.655520
 12
6.821760
 22
3.709200
 13
7.474280
 23
3.358080
  0
POLYLINE
  8
0
  6
CONTINUOUS
 66
     1
 40
0.000000
 41
0.000000
  0
VERTEX
  8
0
  6
CONTINUOUS
 10
6.821760
 20
4.006200
  0
VERTEX
  8
0
  6
CONTINUOUS
 10
7.474280
 20
3.655520
  0
VERTEX
  8
0
  6
CONTINUOUS
 10
7.474280
 20
3.358080
  0
VERTEX
  8
0
  6
CONTINUOUS
 10
6.821760
 20
3.709200
  0
VERTEX
  8
0
  6
CONTINUOUS
 10
6.821760
 20
4.006200
  0
SEQEND
  8
0
  0
SOLID
  8
0
 62
    15
 10
6.821760
 20
3.709200
 11
7.474280
 21
3.358080
 12
6.697240
 22
3.709200
 13
7.349320
 23
3.358080
  0
POLYLINE
  8
0
  6
CONTINUOUS
 66
     1
 40
0.000000
 41
0.000000
  0
VERTEX
  8
0
  6
CONTINUOUS
 10
6.821760
 20
3.709200
  0
VERTEX
  8
0
  6
CONTINUOUS
 10
7.474280
 20
3.358080
  0
VERTEX
  8
0
  6
CONTINUOUS
 10
7.349320
 20
3.358080
  0
VERTEX
  8
0
  6
CONTINUOUS
 10
6.697240
 20
3.709200
  0
VERTEX
  8
0
  6
CONTINUOUS
 10
6.821760
 20
3.709200
  0
SEQEND
  8
0
  0
SOLID
  8
0
 62
    15
 10
6.697240
 20
3.709200
 11
7.349320
 21
3.358080
 12
6.681840
 22
3.620760
 13
7.333920
 23
3.270080
  0
POLYLINE
  8
0
  6
CONTINUOUS
 66
     1
 40
0.000000
 41
0.000000
  0
VERTEX
  8
0
  6
CONTINUOUS
 10
6.697240
 20
3.709200
  0
VERTEX
  8
0
  6
CONTINUOUS
 10
7.349320
 20
3.358080
  0
VERTEX
  8
0
  6
CONTINUOUS
 10
7.333920
 20
3.270080
  0
VERTEX
  8
0
  6
CONTINUOUS
 10
6.681840
 20
3.620760
  0
VERTEX
  8
0
  6
CONTINUOUS
 10
6.697240
 20
3.709200
  0
SEQEND
  8
0
  0
SOLID
  8
0
 62
    15
 10
6.681840
 20
3.620760
 11
7.333920
 21
3.270080
 12
6.653240
 22
3.549040
 13
7.305320
 23
3.197920
  0
POLYLINE
  8
0
  6
CONTINUOUS
 66
     1
 40
0.000000
 41
0.000000
  0
VERTEX
  8
0
  6
CONTINUOUS
 10
6.681840
 20
3.620760
  0
VERTEX
  8
0
  6
CONTINUOUS
 10
7.333920
 20
3.270080
  0
VERTEX
  8
0
  6
CONTINUOUS
 10
7.305320
 20
3.197920
  0
VERTEX
  8
0
  6
CONTINUOUS
 10
6.653240
 20
3.549040
  0
VERTEX
  8
0
  6
CONTINUOUS
 10
6.681840
 20
3.620760
  0
SEQEND
  8
0
  0
SOLID
  8
0
 62
    15
 10
6.653240
 20
3.549040
 11
7.305320
 21
3.197920
 12
6.613200
 22
3.491840
 13
7.265280
 23
3.141160
  0
POLYLINE
  8
0
  6
CONTINUOUS
 66
     1
 40
0.000000
 41
0.000000
  0
VERTEX
  8
0
  6
CONTINUOUS
 10
6.653240
 20
3.549040
  0
VERTEX
  8
0
  6
CONTINUOUS
 10
7.305320
 20
3.197920
  0
VERTEX
  8
0
  6
CONTINUOUS
 10
7.265280
 20
3.141160
  0
VERTEX
  8
0
  6
CONTINUOUS
 10
6.613200
 20
3.491840
  0
VERTEX
  8
0
  6
CONTINUOUS
 10
6.653240
 20
3.549040
  0
SEQEND
  8
0
  0
SOLID
  8
0
 62
    15
 10
6.613200
 20
3.491840
 11
7.265280
 21
3.141160
 12
6.563920
 22
3.448280
 13
7.216440
 23
3.097600
  0
POLYLINE
  8
0
  6
CONTINUOUS
 66
     1
 40
0.000000
 41
0.000000
  0
VERTEX
  8
0
  6
CONTINUOUS
 10
6.613200
 20
3.491840
  0
VERTEX
  8
0
  6
CONTINUOUS
 10
7.265280
 20
3.141160
  0
VERTEX
  8
0
  6
CONTINUOUS
 10
7.216440
 20
3.097600
  0
VERTEX
  8
0
  6
CONTINUOUS
 10
6.563920
 20
3.448280
  0
VERTEX
  8
0
  6
CONTINUOUS
 10
6.613200
 20
3.491840
  0
SEQEND
  8
0
  0
SOLID
  8
0
 62
    15
 10
6.563920
 20
3.448280
 11
7.216440
 21
3.097600
 12
6.447320
 22
3.395480
 13
7.099400
 23
3.044800
  0
POLYLINE
  8
0
  6
CONTINUOUS
 66
     1
 40
0.000000
 41
0.000000
  0
VERTEX
  8
0
  6
CONTINUOUS
 10
6.563920
 20
3.448280
  0
VERTEX
  8
0
  6
CONTINUOUS
 10
7.216440
 20
3.097600
  0
VERTEX
  8
0
  6
CONTINUOUS
 10
7.099400
 20
3.044800
  0
VERTEX
  8
0
  6
CONTINUOUS
 10
6.447320
 20
3.395480
  0
VERTEX
  8
0
  6
CONTINUOUS
 10
6.563920
 20
3.448280
  0
SEQEND
  8
0
  0
SOLID
  8
0
 62
    15
 10
6.447320
 20
3.395480
 11
7.099400
 21
3.044800
 12
6.319720
 22
3.379200
 13
6.971800
 23
3.028520
  0
POLYLINE
  8
0
  6
CONTINUOUS
 66
     1
 40
0.000000
 41
0.000000
  0
VERTEX
  8
0
  6
CONTINUOUS
 10
6.447320
 20
3.395480
  0
VERTEX
  8
0
  6
CONTINUOUS
 10
7.099400
 20
3.044800
  0
VERTEX
  8
0
  6
CONTINUOUS
 10
6.971800
 20
3.028520
  0
VERTEX
  8
0
  6
CONTINUOUS
 10
6.319720
 20
3.379200
  0
VERTEX
  8
0
  6
CONTINUOUS
 10
6.447320
 20
3.395480
  0
SEQEND
  8
0
  0
SOLID
  8
0
 62
    15
 10
5.894240
 20
3.577200
 11
6.546320
 21
3.226520
 12
5.730560
 22
3.664760
 13
6.382640
 23
3.313640
  0
POLYLINE
  8
0
  6
CONTINUOUS
 66
     1
 40
0.000000
 41
0.000000
  0
VERTEX
  8
0
  6
CONTINUOUS
 10
5.894240
 20
3.577200
  0
VERTEX
  8
0
  6
CONTINUOUS
 10
6.546320
 20
3.226520
  0
VERTEX
  8
0
  6
CONTINUOUS
 10
6.382640
 20
3.313640
  0
VERTEX
  8
0
  6
CONTINUOUS
 10
5.730560
 20
3.664760
  0
VERTEX
  8
0
  6
CONTINUOUS
 10
5.894240
 20
3.577200
  0
SEQEND
  8
0
  0
SOLID
  8
0
 62
    15
 10
6.319720
 20
3.236640
 11
6.971800
 21
2.885960
 12
6.237440
 22
3.237520
 13
6.889520
 23
2.886840
  0
POLYLINE
  8
0
  6
CONTINUOUS
 66
     1
 40
0.000000
 41
0.000000
  0
VERTEX
  8
0
  6
CONTINUOUS
 10
6.319720
 20
3.236640
  0
VERTEX
  8
0
  6
CONTINUOUS
 10
6.971800
 20
2.885960
  0
VERTEX
  8
0
  6
CONTINUOUS
 10
6.889520
 20
2.886840
  0
VERTEX
  8
0
  6
CONTINUOUS
 10
6.237440
 20
3.237520
  0
VERTEX
  8
0
  6
CONTINUOUS
 10
6.319720
 20
3.236640
  0
SEQEND
  8
0
  0
SOLID
  8
0
 62
    15
 10
5.730560
 20
3.664760
 11
6.382640
 21
3.313640
 12
5.573040
 22
3.703040
 13
6.225120
 23
3.352360
  0
POLYLINE
  8
0
  6
CONTINUOUS
 66
     1
 40
0.000000
 41
0.000000
  0
VERTEX
  8
0
  6
CONTINUOUS
 10
5.730560
 20
3.664760
  0
VERTEX
  8
0
  6
CONTINUOUS
 10
6.382640
 20
3.313640
  0
VERTEX
  8
0
  6
CONTINUOUS
 10
6.225120
 20
3.352360
  0
VERTEX
  8
0
  6
CONTINUOUS
 10
5.573040
 20
3.703040
  0
VERTEX
  8
0
  6
CONTINUOUS
 10
5.730560
 20
3.664760
  0
SEQEND
  8
0
  0
SOLID
  8
0
 62
    15
 10
6.319720
 20
3.379200
 11
6.971800
 21
3.028520
 12
6.319720
 22
3.236640
 13
6.971800
 23
2.885960
  0
POLYLINE
  8
0
  6
CONTINUOUS
 66
     1
 40
0.000000
 41
0.000000
  0
VERTEX
  8
0
  6
CONTINUOUS
 10
6.319720
 20
3.379200
  0
VERTEX
  8
0
  6
CONTINUOUS
 10
6.971800
 20
3.028520
  0
VERTEX
  8
0
  6
CONTINUOUS
 10
6.971800
 20
2.885960
  0
VERTEX
  8
0
  6
CONTINUOUS
 10
6.319720
 20
3.236640
  0
VERTEX
  8
0
  6
CONTINUOUS
 10
6.319720
 20
3.379200
  0
SEQEND
  8
0
  0
SOLID
  8
0
 62
    15
 10
5.573040
 20
3.703040
 11
6.225120
 21
3.352360
 12
5.422120
 22
3.696880
 13
6.074640
 23
3.346200
  0
POLYLINE
  8
0
  6
CONTINUOUS
 66
     1
 40
0.000000
 41
0.000000
  0
VERTEX
  8
0
  6
CONTINUOUS
 10
5.573040
 20
3.703040
  0
VERTEX
  8
0
  6
CONTINUOUS
 10
6.225120
 20
3.352360
  0
VERTEX
  8
0
  6
CONTINUOUS
 10
6.074640
 20
3.346200
  0
VERTEX
  8
0
  6
CONTINUOUS
 10
5.422120
 20
3.696880
  0
VERTEX
  8
0
  6
CONTINUOUS
 10
5.573040
 20
3.703040
  0
SEQEND
  8
0
  0
SOLID
  8
0
 62
    15
 10
5.422120
 20
3.696880
 11
6.074640
 21
3.346200
 12
5.279120
 22
3.650240
 13
5.931200
 23
3.299560
  0
POLYLINE
  8
0
  6
CONTINUOUS
 66
     1
 40
0.000000
 41
0.000000
  0
VERTEX
  8
0
  6
CONTINUOUS
 10
5.422120
 20
3.696880
  0
VERTEX
  8
0
  6
CONTINUOUS
 10
6.074640
 20
3.346200
  0
VERTEX
  8
0
  6
CONTINUOUS
 10
5.931200
 20
3.299560
  0
VERTEX
  8
0
  6
CONTINUOUS
 10
5.279120
 20
3.650240
  0
VERTEX
  8
0
  6
CONTINUOUS
 10
5.422120
 20
3.696880
  0
SEQEND
  8
0
  0
SOLID
  8
0
 62
    15
 10
7.166720
 20
4.950440
 11
7.818800
 21
4.599760
 12
7.166720
 22
4.638920
 13
7.818800
 23
4.288240
  0
POLYLINE
  8
0
  6
CONTINUOUS
 66
     1
 40
0.000000
 41
0.000000
  0
VERTEX
  8
0
  6
CONTINUOUS
 10
7.166720
 20
4.950440
  0
VERTEX
  8
0
  6
CONTINUOUS
 10
7.818800
 20
4.599760
  0
VERTEX
  8
0
  6
CONTINUOUS
 10
7.818800
 20
4.288240
  0
VERTEX
  8
0
  6
CONTINUOUS
 10
7.166720
 20
4.638920
  0
VERTEX
  8
0
  6
CONTINUOUS
 10
7.166720
 20
4.950440
  0
SEQEND
  8
0
  0
SOLID
  8
0
 62
    15
 10
5.144040
 20
3.567960
 11
5.796560
 21
3.216840
 12
5.018200
 22
3.453560
 13
5.670280
 23
3.102880
  0
POLYLINE
  8
0
  6
CONTINUOUS
 66
     1
 40
0.000000
 41
0.000000
  0
VERTEX
  8
0
  6
CONTINUOUS
 10
5.144040
 20
3.567960
  0
VERTEX
  8
0
  6
CONTINUOUS
 10
5.796560
 20
3.216840
  0
VERTEX
  8
0
  6
CONTINUOUS
 10
5.670280
 20
3.102880
  0
VERTEX
  8
0
  6
CONTINUOUS
 10
5.018200
 20
3.453560
  0
VERTEX
  8
0
  6
CONTINUOUS
 10
5.144040
 20
3.567960
  0
SEQEND
  8
0
  0
SOLID
  8
0
 62
    15
 10
5.018200
 20
3.453560
 11
5.670280
 21
3.102880
 12
4.901600
 22
3.312320
 13
5.553680
 23
2.961640
  0
POLYLINE
  8
0
  6
CONTINUOUS
 66
     1
 40
0.000000
 41
0.000000
  0
VERTEX
  8
0
  6
CONTINUOUS
 10
5.018200
 20
3.453560
  0
VERTEX
  8
0
  6
CONTINUOUS
 10
5.670280
 20
3.102880
  0
VERTEX
  8
0
  6
CONTINUOUS
 10
5.553680
 20
2.961640
  0
VERTEX
  8
0
  6
CONTINUOUS
 10
4.901600
 20
3.312320
  0
VERTEX
  8
0
  6
CONTINUOUS
 10
5.018200
 20
3.453560
  0
SEQEND
  8
0
  0
SOLID
  8
0
 62
    15
 10
4.901600
 20
3.312320
 11
5.553680
 21
2.961640
 12
4.795120
 22
3.148640
 13
5.447200
 23
2.797520
  0
POLYLINE
  8
0
  6
CONTINUOUS
 66
     1
 40
0.000000
 41
0.000000
  0
VERTEX
  8
0
  6
CONTINUOUS
 10
4.901600
 20
3.312320
  0
VERTEX
  8
0
  6
CONTINUOUS
 10
5.553680
 20
2.961640
  0
VERTEX
  8
0
  6
CONTINUOUS
 10
5.447200
 20
2.797520
  0
VERTEX
  8
0
  6
CONTINUOUS
 10
4.795120
 20
3.148640
  0
VERTEX
  8
0
  6
CONTINUOUS
 10
4.901600
 20
3.312320
  0
SEQEND
  8
0
  0
SOLID
  8
0
 62
    15
 10
4.795120
 20
3.148640
 11
5.447200
 21
2.797520
 12
4.699200
 22
2.966040
 13
5.351720
 23
2.615360
  0
POLYLINE
  8
0
  6
CONTINUOUS
 66
     1
 40
0.000000
 41
0.000000
  0
VERTEX
  8
0
  6
CONTINUOUS
 10
4.795120
 20
3.148640
  0
VERTEX
  8
0
  6
CONTINUOUS
 10
5.447200
 20
2.797520
  0
VERTEX
  8
0
  6
CONTINUOUS
 10
5.351720
 20
2.615360
  0
VERTEX
  8
0
  6
CONTINUOUS
 10
4.699200
 20
2.966040
  0
VERTEX
  8
0
  6
CONTINUOUS
 10
4.795120
 20
3.148640
  0
SEQEND
  8
0
  0
SOLID
  8
0
 62
    15
 10
4.699200
 20
2.966040
 11
5.351720
 21
2.615360
 12
4.615160
 22
2.769360
 13
5.267680
 23
2.418680
  0
POLYLINE
  8
0
  6
CONTINUOUS
 66
     1
 40
0.000000
 41
0.000000
  0
VERTEX
  8
0
  6
CONTINUOUS
 10
4.699200
 20
2.966040
  0
VERTEX
  8
0
  6
CONTINUOUS
 10
5.351720
 20
2.615360
  0
VERTEX
  8
0
  6
CONTINUOUS
 10
5.267680
 20
2.418680
  0
VERTEX
  8
0
  6
CONTINUOUS
 10
4.615160
 20
2.769360
  0
VERTEX
  8
0
  6
CONTINUOUS
 10
4.699200
 20
2.966040
  0
SEQEND
  8
0
  0
SOLID
  8
0
 62
    15
 10
4.615160
 20
2.769360
 11
5.267680
 21
2.418680
 12
4.484480
 22
2.351360
 13
5.136560
 23
2.000680
  0
POLYLINE
  8
0
  6
CONTINUOUS
 66
     1
 40
0.000000
 41
0.000000
  0
VERTEX
  8
0
  6
CONTINUOUS
 10
4.615160
 20
2.769360
  0
VERTEX
  8
0
  6
CONTINUOUS
 10
5.267680
 20
2.418680
  0
VERTEX
  8
0
  6
CONTINUOUS
 10
5.136560
 20
2.000680
  0
VERTEX
  8
0
  6
CONTINUOUS
 10
4.484480
 20
2.351360
  0
VERTEX
  8
0
  6
CONTINUOUS
 10
4.615160
 20
2.769360
  0
SEQEND
  8
0
  0
SOLID
  8
0
 62
    15
 10
4.484480
 20
2.351360
 11
5.136560
 21
2.000680
 12
4.407480
 22
1.929400
 13
5.059560
 23
1.578720
  0
POLYLINE
  8
0
  6
CONTINUOUS
 66
     1
 40
0.000000
 41
0.000000
  0
VERTEX
  8
0
  6
CONTINUOUS
 10
4.484480
 20
2.351360
  0
VERTEX
  8
0
  6
CONTINUOUS
 10
5.136560
 20
2.000680
  0
VERTEX
  8
0
  6
CONTINUOUS
 10
5.059560
 20
1.578720
  0
VERTEX
  8
0
  6
CONTINUOUS
 10
4.407480
 20
1.929400
  0
VERTEX
  8
0
  6
CONTINUOUS
 10
4.484480
 20
2.351360
  0
SEQEND
  8
0
  0
SOLID
  8
0
 62
    15
 10
4.407480
 20
1.929400
 11
5.059560
 21
1.578720
 12
4.048880
 22
1.917960
 13
4.700960
 23
1.567280
  0
POLYLINE
  8
0
  6
CONTINUOUS
 66
     1
 40
0.000000
 41
0.000000
  0
VERTEX
  8
0
  6
CONTINUOUS
 10
4.407480
 20
1.929400
  0
VERTEX
  8
0
  6
CONTINUOUS
 10
5.059560
 20
1.578720
  0
VERTEX
  8
0
  6
CONTINUOUS
 10
4.700960
 20
1.567280
  0
VERTEX
  8
0
  6
CONTINUOUS
 10
4.048880
 20
1.917960
  0
VERTEX
  8
0
  6
CONTINUOUS
 10
4.407480
 20
1.929400
  0
SEQEND
  8
0
  0
SOLID
  8
0
 62
    15
 10
4.048880
 20
1.917960
 11
4.700960
 21
1.567280
 12
4.048880
 22
1.676400
 13
4.700960
 23
1.325720
  0
POLYLINE
  8
0
  6
CONTINUOUS
 66
     1
 40
0.000000
 41
0.000000
  0
VERTEX
  8
0
  6
CONTINUOUS
 10
4.048880
 20
1.917960
  0
VERTEX
  8
0
  6
CONTINUOUS
 10
4.700960
 20
1.567280
  0
VERTEX
  8
0
  6
CONTINUOUS
 10
4.700960
 20
1.325720
  0
VERTEX
  8
0
  6
CONTINUOUS
 10
4.048880
 20
1.676400
  0
VERTEX
  8
0
  6
CONTINUOUS
 10
4.048880
 20
1.917960
  0
SEQEND
  8
0
  0
SOLID
  8
0
 62
    15
 10
4.416720
 20
1.653080
 11
5.069240
 21
1.302400
 12
4.416720
 22
1.454200
 13
5.069240
 23
1.103520
  0
POLYLINE
  8
0
  6
CONTINUOUS
 66
     1
 40
0.000000
 41
0.000000
  0
VERTEX
  8
0
  6
CONTINUOUS
 10
4.416720
 20
1.653080
  0
VERTEX
  8
0
  6
CONTINUOUS
 10
5.069240
 20
1.302400
  0
VERTEX
  8
0
  6
CONTINUOUS
 10
5.069240
 20
1.103520
  0
VERTEX
  8
0
  6
CONTINUOUS
 10
4.416720
 20
1.454200
  0
VERTEX
  8
0
  6
CONTINUOUS
 10
4.416720
 20
1.653080
  0
SEQEND
  8
0
  0
SOLID
  8
0
 62
    15
 10
4.416720
 20
1.454200
 11
5.069240
 21
1.103520
 12
4.299680
 22
1.454200
 13
4.951760
 23
1.103520
  0
POLYLINE
  8
0
  6
CONTINUOUS
 66
     1
 40
0.000000
 41
0.000000
  0
VERTEX
  8
0
  6
CONTINUOUS
 10
4.416720
 20
1.454200
  0
VERTEX
  8
0
  6
CONTINUOUS
 10
5.069240
 20
1.103520
  0
VERTEX
  8
0
  6
CONTINUOUS
 10
4.951760
 20
1.103520
  0
VERTEX
  8
0
  6
CONTINUOUS
 10
4.299680
 20
1.454200
  0
VERTEX
  8
0
  6
CONTINUOUS
 10
4.416720
 20
1.454200
  0
SEQEND
  8
0
  0
SOLID
  8
0
 62
    15
 10
4.299680
 20
1.454200
 11
4.951760
 21
1.103520
 12
4.290880
 22
1.375880
 13
4.942960
 23
1.024760
  0
POLYLINE
  8
0
  6
CONTINUOUS
 66
     1
 40
0.000000
 41
0.000000
  0
VERTEX
  8
0
  6
CONTINUOUS
 10
4.299680
 20
1.454200
  0
VERTEX
  8
0
  6
CONTINUOUS
 10
4.951760
 20
1.103520
  0
VERTEX
  8
0
  6
CONTINUOUS
 10
4.942960
 20
1.024760
  0
VERTEX
  8
0
  6
CONTINUOUS
 10
4.290880
 20
1.375880
  0
VERTEX
  8
0
  6
CONTINUOUS
 10
4.299680
 20
1.454200
  0
SEQEND
  8
0
  0
SOLID
  8
0
 62
    15
 10
4.290880
 20
1.375880
 11
4.942960
 21
1.024760
 12
4.267120
 22
1.304600
 13
4.919200
 23
0.953480
  0
POLYLINE
  8
0
  6
CONTINUOUS
 66
     1
 40
0.000000
 41
0.000000
  0
VERTEX
  8
0
  6
CONTINUOUS
 10
4.290880
 20
1.375880
  0
VERTEX
  8
0
  6
CONTINUOUS
 10
4.942960
 20
1.024760
  0
VERTEX
  8
0
  6
CONTINUOUS
 10
4.919200
 20
0.953480
  0
VERTEX
  8
0
  6
CONTINUOUS
 10
4.267120
 20
1.304600
  0
VERTEX
  8
0
  6
CONTINUOUS
 10
4.290880
 20
1.375880
  0
SEQEND
  8
0
  0
SOLID
  8
0
 62
    15
 10
4.267120
 20
1.304600
 11
4.919200
 21
0.953480
 12
4.182640
 22
1.187560
 13
4.834720
 23
0.836880
  0
POLYLINE
  8
0
  6
CONTINUOUS
 66
     1
 40
0.000000
 41
0.000000
  0
VERTEX
  8
0
  6
CONTINUOUS
 10
4.267120
 20
1.304600
  0
VERTEX
  8
0
  6
CONTINUOUS
 10
4.919200
 20
0.953480
  0
VERTEX
  8
0
  6
CONTINUOUS
 10
4.834720
 20
0.836880
  0
VERTEX
  8
0
  6
CONTINUOUS
 10
4.182640
 20
1.187560
  0
VERTEX
  8
0
  6
CONTINUOUS
 10
4.267120
 20
1.304600
  0
SEQEND
  8
0
  0
SOLID
  8
0
 62
    15
 10
4.182640
 20
1.187560
 11
4.834720
 21
0.836880
 12
4.061640
 22
1.112320
 13
4.713720
 23
0.761200
  0
POLYLINE
  8
0
  6
CONTINUOUS
 66
     1
 40
0.000000
 41
0.000000
  0
VERTEX
  8
0
  6
CONTINUOUS
 10
4.182640
 20
1.187560
  0
VERTEX
  8
0
  6
CONTINUOUS
 10
4.834720
 20
0.836880
  0
VERTEX
  8
0
  6
CONTINUOUS
 10
4.713720
 20
0.761200
  0
VERTEX
  8
0
  6
CONTINUOUS
 10
4.061640
 20
1.112320
  0
VERTEX
  8
0
  6
CONTINUOUS
 10
4.182640
 20
1.187560
  0
SEQEND
  8
0
  0
SOLID
  8
0
 62
    15
 10
4.061640
 20
1.112320
 11
4.713720
 21
0.761200
 12
3.919080
 22
1.086360
 13
4.571600
 23
0.735680
  0
POLYLINE
  8
0
  6
CONTINUOUS
 66
     1
 40
0.000000
 41
0.000000
  0
VERTEX
  8
0
  6
CONTINUOUS
 10
4.061640
 20
1.112320
  0
VERTEX
  8
0
  6
CONTINUOUS
 10
4.713720
 20
0.761200
  0
VERTEX
  8
0
  6
CONTINUOUS
 10
4.571600
 20
0.735680
  0
VERTEX
  8
0
  6
CONTINUOUS
 10
3.919080
 20
1.086360
  0
VERTEX
  8
0
  6
CONTINUOUS
 10
4.061640
 20
1.112320
  0
SEQEND
  8
0
  0
SOLID
  8
0
 62
    15
 10
3.919080
 20
1.086360
 11
4.571600
 21
0.735680
 12
3.919080
 22
0.957440
 13
4.571600
 23
0.606760
  0
POLYLINE
  8
0
  6
CONTINUOUS
 66
     1
 40
0.000000
 41
0.000000
  0
VERTEX
  8
0
  6
CONTINUOUS
 10
3.919080
 20
1.086360
  0
VERTEX
  8
0
  6
CONTINUOUS
 10
4.571600
 20
0.735680
  0
VERTEX
  8
0
  6
CONTINUOUS
 10
4.571600
 20
0.606760
  0
VERTEX
  8
0
  6
CONTINUOUS
 10
3.919080
 20
0.957440
  0
VERTEX
  8
0
  6
CONTINUOUS
 10
3.919080
 20
1.086360
  0
SEQEND
  8
0
  0
SOLID
  8
0
 62
    15
 10
3.919080
 20
0.957440
 11
4.571600
 21
0.606760
 12
3.739120
 22
0.957440
 13
4.391200
 23
0.606760
  0
POLYLINE
  8
0
  6
CONTINUOUS
 66
     1
 40
0.000000
 41
0.000000
  0
VERTEX
  8
0
  6
CONTINUOUS
 10
3.919080
 20
0.957440
  0
VERTEX
  8
0
  6
CONTINUOUS
 10
4.571600
 20
0.606760
  0
VERTEX
  8
0
  6
CONTINUOUS
 10
4.391200
 20
0.606760
  0
VERTEX
  8
0
  6
CONTINUOUS
 10
3.739120
 20
0.957440
  0
VERTEX
  8
0
  6
CONTINUOUS
 10
3.919080
 20
0.957440
  0
SEQEND
  8
0
  0
SOLID
  8
0
 62
    15
 10
3.739120
 20
0.957440
 11
4.391200
 21
0.606760
 12
3.734280
 22
0.957440
 13
4.386360
 23
0.606760
  0
POLYLINE
  8
0
  6
CONTINUOUS
 66
     1
 40
0.000000
 41
0.000000
  0
VERTEX
  8
0
  6
CONTINUOUS
 10
3.739120
 20
0.957440
  0
VERTEX
  8
0
  6
CONTINUOUS
 10
4.391200
 20
0.606760
  0
VERTEX
  8
0
  6
CONTINUOUS
 10
4.386360
 20
0.606760
  0
VERTEX
  8
0
  6
CONTINUOUS
 10
3.734280
 20
0.957440
  0
VERTEX
  8
0
  6
CONTINUOUS
 10
3.739120
 20
0.957440
  0
SEQEND
  8
0
  0
POLYLINE
  8
0
  6
CONTINUOUS
 66
     1
 40
0.000000
 41
0.000000
  0
VERTEX
  8
0
  6
CONTINUOUS
 10
3.734280
 20
0.957440
  0
VERTEX
  8
0
  6
CONTINUOUS
 10
3.734280
 20
4.950440
  0
VERTEX
  8
0
  6
CONTINUOUS
 10
7.166720
 20
4.950440
  0
VERTEX
  8
0
  6
CONTINUOUS
 10
7.166720
 20
4.638920
  0
VERTEX
  8
0
  6
CONTINUOUS
 10
6.904920
 20
4.638920
  0
VERTEX
  8
0
  6
CONTINUOUS
 10
6.904920
 20
4.380640
  0
VERTEX
  8
0
  6
CONTINUOUS
 10
7.175960
 20
4.380640
  0
VERTEX
  8
0
  6
CONTINUOUS
 10
7.175960
 20
4.134240
  0
VERTEX
  8
0
  6
CONTINUOUS
 10
7.047920
 20
4.006200
  0
VERTEX
  8
0
  6
CONTINUOUS
 10
6.821760
 20
4.006200
  0
VERTEX
  8
0
  6
CONTINUOUS
 10
6.821760
 20
3.709200
  0
VERTEX
  8
0
  6
CONTINUOUS
 10
6.697240
 20
3.709200
  0
VERTEX
  8
0
  6
CONTINUOUS
 10
6.681840
 20
3.620760
  0
VERTEX
  8
0
  6
CONTINUOUS
 10
6.653240
 20
3.549040
  0
VERTEX
  8
0
  6
CONTINUOUS
 10
6.613200
 20
3.491840
  0
VERTEX
  8
0
  6
CONTINUOUS
 10
6.563920
 20
3.448280
  0
VERTEX
  8
0
  6
CONTINUOUS
 10
6.447320
 20
3.395480
  0
VERTEX
  8
0
  6
CONTINUOUS
 10
6.319720
 20
3.379200
  0
VERTEX
  8
0
  6
CONTINUOUS
 10
6.319720
 20
3.236640
  0
VERTEX
  8
0
  6
CONTINUOUS
 10
6.237440
 20
3.237520
  0
VERTEX
  8
0
  6
CONTINUOUS
 10
6.063200
 20
3.436400
  0
VERTEX
  8
0
  6
CONTINUOUS
 10
5.894240
 20
3.577200
  0
VERTEX
  8
0
  6
CONTINUOUS
 10
5.730560
 20
3.664760
  0
VERTEX
  8
0
  6
CONTINUOUS
 10
5.573040
 20
3.703040
  0
VERTEX
  8
0
  6
CONTINUOUS
 10
5.422120
 20
3.696880
  0
VERTEX
  8
0
  6
CONTINUOUS
 10
5.279120
 20
3.650240
  0
VERTEX
  8
0
  6
CONTINUOUS
 10
5.144040
 20
3.567960
  0
VERTEX
  8
0
  6
CONTINUOUS
 10
5.018200
 20
3.453560
  0
VERTEX
  8
0
  6
CONTINUOUS
 10
4.901600
 20
3.312320
  0
VERTEX
  8
0
  6
CONTINUOUS
 10
4.795120
 20
3.148640
  0
VERTEX
  8
0
  6
CONTINUOUS
 10
4.699200
 20
2.966040
  0
VERTEX
  8
0
  6
CONTINUOUS
 10
4.615160
 20
2.769360
  0
VERTEX
  8
0
  6
CONTINUOUS
 10
4.484480
 20
2.351360
  0
VERTEX
  8
0
  6
CONTINUOUS
 10
4.407480
 20
1.929400
  0
VERTEX
  8
0
  6
CONTINUOUS
 10
4.048880
 20
1.917960
  0
VERTEX
  8
0
  6
CONTINUOUS
 10
4.048880
 20
1.676400
  0
VERTEX
  8
0
  6
CONTINUOUS
 10
4.416720
 20
1.653080
  0
VERTEX
  8
0
  6
CONTINUOUS
 10
4.416720
 20
1.454200
  0
VERTEX
  8
0
  6
CONTINUOUS
 10
4.299680
 20
1.454200
  0
VERTEX
  8
0
  6
CONTINUOUS
 10
4.290880
 20
1.375880
  0
VERTEX
  8
0
  6
CONTINUOUS
 10
4.267120
 20
1.304600
  0
VERTEX
  8
0
  6
CONTINUOUS
 10
4.182640
 20
1.187560
  0
VERTEX
  8
0
  6
CONTINUOUS
 10
4.061640
 20
1.112320
  0
VERTEX
  8
0
  6
CONTINUOUS
 10
3.919080
 20
1.086360
  0
VERTEX
  8
0
  6
CONTINUOUS
 10
3.919080
 20
0.957440
  0
VERTEX
  8
0
  6
CONTINUOUS
 10
3.739120
 20
0.957440
  0
VERTEX
  8
0
  6
CONTINUOUS
 10
3.734280
 20
0.957440
  0
SEQEND
  8
0
  0
TEXT
  8
0
 10
5.186720
 20
0.810480
 40
0.138105
  1
BA  369
 41
1.000000
  7
SN0
 71
     0
 72
     5
 11
5.777315
 21
0.810480
  0
TEXT
  8
0
 10
5.053840
 20
0.618640
 40
0.138105
  1
3-7/16" x 4"
 41
1.000000
  7
SN0
 71
     0
 72
     5
 11
5.909319
 21
0.618640
  0
POLYLINE
  8
0
  6
DOT
 66
     1
 40
0.000000
 41
0.000000
  0
VERTEX
  8
0
  6
DOT
 10
3.736480
 20
3.197040
  0
VERTEX
  8
0
  6
DOT
 10
4.046240
 20
3.197040
  0
VERTEX
  8
0
  6
DOT
 10
4.094640
 20
3.395480
  0
VERTEX
  8
0
  6
DOT
 10
4.408800
 20
3.395480
  0
VERTEX
  8
0
  6
DOT
 10
4.447520
 20
3.197040
  0
VERTEX
  8
0
  6
DOT
 10
4.839560
 20
3.197040
  0
SEQEND
  8
0
  0
ENDSEC
  0
EOF
