  0
SECTION
  2
HEADER
  9
$ACADVER
  1
AC1006
  9
$EXTMIN
 10
2.166560
 20
0.636680
  9
$EXTMAX
 10
6.619800
 20
5.782920
  9
$LTSCALE
 40
0.044000
  9
$PDMODE
 70
    35
  9
$PDSIZE
 40
0.035200
  0
ENDSEC
  0
SECTION
  2
TABLES
  0
TABLE
  2
LTYPE
 70
     9
  0
LTYPE
  2
CONTINUOUS
 70
    64
  3
Solid line
 72
    65
 73
     0
 40
0.000000
  0
LTYPE
  2
DASHED
 70
    64
  3
__ __ __ __ __ __ __ __ __ __ __ __ __ __ __
 72
    65
 73
     2
 40
0.000330
 49
0.000220
 49
-0.000110
  0
LTYPE
  2
HIDDEN
 70
    64
  3
 _ _ _ _ _ _ _ _ _ _ _ _ _ _ _ _ _ _ _ _ _ _
 72
    65
 73
     2
 40
0.000165
 49
0.000110
 49
-0.000055
  0
LTYPE
  2
CENTER
 70
    64
  3
____ _ ____ _ ____ _ ____ _ ____ _ ____ _ ____
 72
    65
 73
     4
 40
0.000880
 49
0.000550
 49
-0.000110
 49
0.000110
 49
-0.000110
  0
LTYPE
  2
PHANTOM
 70
    64
  3
_____ _ _ _____ _ _ _____ _ _ _____ _ _ ____
 72
    65
 73
     6
 40
0.001100
 49
0.000550
 49
-0.000110
 49
0.000110
 49
-0.000110
 49
0.000110
 49
-0.000110
  0
LTYPE
  2
DOT
 70
    64
  3
...............................................
 72
    65
 73
     2
 40
0.000110
 49
0.000000
 49
-0.000110
  0
LTYPE
  2
DASHDOT
 70
    64
  3
__ . __ . __ . __ . __ . __ . __ . __ . __ . __
 72
    65
 73
     4
 40
0.000440
 49
0.000220
 49
-0.000110
 49
0.000000
 49
-0.000110
  0
LTYPE
  2
BORDER
 70
    64
  3
__ __ . __ __ . __ __ . __ __ . __ __ . __ __
 72
    65
 73
     6
 40
0.000770
 49
0.000220
 49
-0.000110
 49
0.000220
 49
-0.000110
 49
0.000000
 49
-0.000110
  0
LTYPE
  2
DIVIDE
 70
    64
  3
__ . . __ . . __ . . __ . . __ . . __ . . __
 72
    65
 73
     6
 40
0.000550
 49
0.000220
 49
-0.000110
 49
0.000000
 49
-0.000110
 49
0.000000
 49
-0.000110
  0
LTYPE
  2
DOTDOT
 70
    64
  3
 . .  . .  . .  . .  . .  . . 
 72
    65
 73
     5
 40
0.000242
 49
-0.000110
 49
0.000000
 49
-0.000110
 49
0.000000
 49
-0.000110
  0
ENDTAB
  0
TABLE
  2
STYLE
 70
     2
  0
STYLE
 70
     0
  2
SN0
 40
0.000000
 41
0.000440
 50
0.000000
 71
     0
 42
0.000000
  3
ROMAND
  0
STYLE
 70
    68
  2
SV0
 40
0.000000
 41
0.000440
 50
0.000000
 71
     0
 42
0.000000
  3
ROMAND
  0
ENDTAB
  0
TABLE
  2
LAYER
 70
     3
  0
LAYER
  2
FOREGROUND
 70
    64
 62
     7
  6
CONTINUOUS
  0
LAYER
  2
BACKGROUND
 70
    65
 62
    -7
  6
CONTINUOUS
  0
LAYER
  2
0
 70
    64
 62
     7
  6
CONTINUOUS
  0
ENDTAB
  0
ENDSEC
  0
SECTION
  2
ENTITIES
  0
POLYLINE
  8
FOREGROUND
  6
CONTINUOUS
 66
     1
 40
0.000000
 41
0.000000
  0
VERTEX
  8
FOREGROUND
  6
CONTINUOUS
 10
0.000000
 20
6.419600
  0
VERTEX
  8
FOREGROUND
  6
CONTINUOUS
 10
8.499920
 20
6.419600
  0
VERTEX
  8
FOREGROUND
  6
CONTINUOUS
 10
8.499920
 20
-4.580400
  0
VERTEX
  8
FOREGROUND
  6
CONTINUOUS
 10
0.000000
 20
-4.580400
  0
VERTEX
  8
FOREGROUND
  6
CONTINUOUS
 10
0.000000
 20
6.419600
  0
SEQEND
  8
0
  0
POLYLINE
  8
FOREGROUND
  6
CONTINUOUS
 66
     1
 40
0.000000
 41
0.000000
  0
VERTEX
  8
FOREGROUND
  6
CONTINUOUS
 10
0.000000
 20
6.419600
  0
VERTEX
  8
FOREGROUND
  6
CONTINUOUS
 10
8.499920
 20
6.419600
  0
VERTEX
  8
FOREGROUND
  6
CONTINUOUS
 10
8.499920
 20
-4.580400
  0
VERTEX
  8
FOREGROUND
  6
CONTINUOUS
 10
0.000000
 20
-4.580400
  0
VERTEX
  8
FOREGROUND
  6
CONTINUOUS
 10
0.000000
 20
6.419600
  0
SEQEND
  8
0
  0
POLYLINE
  8
0
  6
CONTINUOUS
 66
     1
 40
0.014080
 41
0.014080
  0
VERTEX
  8
0
  6
CONTINUOUS
 10
6.496160
 20
4.996640
  0
VERTEX
  8
0
  6
CONTINUOUS
 10
6.470640
 20
5.092560
  0
VERTEX
  8
0
  6
CONTINUOUS
 10
6.441600
 20
5.183640
  0
VERTEX
  8
0
  6
CONTINUOUS
 10
6.409040
 20
5.269000
  0
VERTEX
  8
0
  6
CONTINUOUS
 10
6.373400
 20
5.348640
  0
VERTEX
  8
0
  6
CONTINUOUS
 10
6.334240
 20
5.422120
  0
VERTEX
  8
0
  6
CONTINUOUS
 10
6.291120
 20
5.489880
  0
VERTEX
  8
0
  6
CONTINUOUS
 10
6.244920
 20
5.550600
  0
VERTEX
  8
0
  6
CONTINUOUS
 10
6.194320
 20
5.604720
  0
VERTEX
  8
0
  6
CONTINUOUS
 10
6.158680
 20
5.637280
  0
VERTEX
  8
0
  6
CONTINUOUS
 10
6.121280
 20
5.666320
  0
VERTEX
  8
0
  6
CONTINUOUS
 10
6.081680
 20
5.692280
  0
VERTEX
  8
0
  6
CONTINUOUS
 10
6.019640
 20
5.724840
  0
VERTEX
  8
0
  6
CONTINUOUS
 10
5.953200
 20
5.749480
  0
VERTEX
  8
0
  6
CONTINUOUS
 10
5.906560
 20
5.761360
  0
VERTEX
  8
0
  6
CONTINUOUS
 10
5.858160
 20
5.769720
  0
VERTEX
  8
0
  6
CONTINUOUS
 10
5.807560
 20
5.774120
  0
VERTEX
  8
0
  6
CONTINUOUS
 10
5.755200
 20
5.775000
  0
VERTEX
  8
0
  6
CONTINUOUS
 10
5.701080
 20
5.771920
  0
VERTEX
  8
0
  6
CONTINUOUS
 10
5.672920
 20
5.769280
  0
VERTEX
  8
0
  6
CONTINUOUS
 10
5.615720
 20
5.760040
  0
VERTEX
  8
0
  6
CONTINUOUS
 10
5.525960
 20
5.738920
  0
VERTEX
  8
0
  6
CONTINUOUS
 10
5.463040
 20
5.719560
  0
VERTEX
  8
0
  6
CONTINUOUS
 10
5.365360
 20
5.682600
  0
VERTEX
  8
0
  6
CONTINUOUS
 10
5.262840
 20
5.635520
  0
VERTEX
  8
0
  6
CONTINUOUS
 10
5.155480
 20
5.578320
  0
VERTEX
  8
0
  6
CONTINUOUS
 10
4.945600
 20
5.457760
  0
VERTEX
  8
0
  6
CONTINUOUS
 10
4.797320
 20
5.377680
  0
VERTEX
  8
0
  6
CONTINUOUS
 10
4.671040
 20
5.315200
  0
VERTEX
  8
0
  6
CONTINUOUS
 10
4.564560
 20
5.267680
  0
VERTEX
  8
0
  6
CONTINUOUS
 10
4.475240
 20
5.233800
  0
VERTEX
  8
0
  6
CONTINUOUS
 10
4.414960
 20
5.215320
  0
VERTEX
  8
0
  6
CONTINUOUS
 10
4.374920
 20
5.205640
  0
VERTEX
  8
0
  6
CONTINUOUS
 10
4.327840
 20
5.197720
  0
VERTEX
  8
0
  6
CONTINUOUS
 10
4.286920
 20
5.194640
  0
VERTEX
  8
0
  6
CONTINUOUS
 10
4.250840
 20
5.195520
  0
VERTEX
  8
0
  6
CONTINUOUS
 10
4.218280
 20
5.199040
  0
VERTEX
  8
0
  6
CONTINUOUS
 10
4.114440
 20
5.220160
  0
VERTEX
  8
0
  6
CONTINUOUS
 10
4.082320
 20
5.225440
  0
VERTEX
  8
0
  6
CONTINUOUS
 10
4.048880
 20
5.237320
  0
VERTEX
  8
0
  6
CONTINUOUS
 10
4.013680
 20
5.255800
  0
VERTEX
  8
0
  6
CONTINUOUS
 10
3.977160
 20
5.279560
  0
VERTEX
  8
0
  6
CONTINUOUS
 10
3.898840
 20
5.340280
  0
VERTEX
  8
0
  6
CONTINUOUS
 10
3.791040
 20
5.429600
  0
VERTEX
  8
0
  6
CONTINUOUS
 10
3.696880
 20
5.502200
  0
VERTEX
  8
0
  6
CONTINUOUS
 10
3.647160
 20
5.536080
  0
VERTEX
  8
0
  6
CONTINUOUS
 10
3.595240
 20
5.566880
  0
VERTEX
  8
0
  6
CONTINUOUS
 10
3.541120
 20
5.594160
  0
VERTEX
  8
0
  6
CONTINUOUS
 10
3.485240
 20
5.616600
  0
VERTEX
  8
0
  6
CONTINUOUS
 10
3.427160
 20
5.632880
  0
VERTEX
  8
0
  6
CONTINUOUS
 10
3.397240
 20
5.638600
  0
VERTEX
  8
0
  6
CONTINUOUS
 10
3.366880
 20
5.642560
  0
VERTEX
  8
0
  6
CONTINUOUS
 10
3.307920
 20
5.645640
  0
VERTEX
  8
0
  6
CONTINUOUS
 10
3.253800
 20
5.643880
  0
VERTEX
  8
0
  6
CONTINUOUS
 10
3.203200
 20
5.637720
  0
VERTEX
  8
0
  6
CONTINUOUS
 10
3.156560
 20
5.628040
  0
VERTEX
  8
0
  6
CONTINUOUS
 10
3.092760
 20
5.608240
  0
VERTEX
  8
0
  6
CONTINUOUS
 10
3.034240
 20
5.584040
  0
VERTEX
  8
0
  6
CONTINUOUS
 10
2.897400
 20
5.516280
  0
VERTEX
  8
0
  6
CONTINUOUS
 10
2.848560
 20
5.496480
  0
VERTEX
  8
0
  6
CONTINUOUS
 10
2.815560
 20
5.486800
  0
VERTEX
  8
0
  6
CONTINUOUS
 10
2.781680
 20
5.480640
  0
VERTEX
  8
0
  6
CONTINUOUS
 10
2.746920
 20
5.478440
  0
VERTEX
  8
0
  6
CONTINUOUS
 10
2.615800
 20
5.488120
  0
VERTEX
  8
0
  6
CONTINUOUS
 10
2.577080
 20
5.493840
  0
VERTEX
  8
0
  6
CONTINUOUS
 10
2.544080
 20
5.503520
  0
VERTEX
  8
0
  6
CONTINUOUS
 10
2.511520
 20
5.519360
  0
VERTEX
  8
0
  6
CONTINUOUS
 10
2.464440
 20
5.551480
  0
VERTEX
  8
0
  6
CONTINUOUS
 10
2.370720
 20
5.627160
  0
VERTEX
  8
0
  6
CONTINUOUS
 10
2.175800
 20
5.378120
  0
VERTEX
  8
0
  6
CONTINUOUS
 10
2.603920
 20
4.786320
  0
VERTEX
  8
0
  6
CONTINUOUS
 10
6.200480
 20
4.786320
  0
VERTEX
  8
0
  6
CONTINUOUS
 10
6.496160
 20
4.996640
  0
SEQEND
  8
0
  0
SOLID
  8
0
 62
    15
 10
4.577320
 20
2.904440
 11
5.217960
 21
2.536600
 12
4.566320
 22
2.894320
 13
5.206960
 23
2.526480
  0
POLYLINE
  8
0
  6
CONTINUOUS
 66
     1
 40
0.000000
 41
0.000000
  0
VERTEX
  8
0
  6
CONTINUOUS
 10
4.577320
 20
2.904440
  0
VERTEX
  8
0
  6
CONTINUOUS
 10
5.217960
 20
2.536600
  0
VERTEX
  8
0
  6
CONTINUOUS
 10
5.206960
 20
2.526480
  0
VERTEX
  8
0
  6
CONTINUOUS
 10
4.566320
 20
2.894320
  0
VERTEX
  8
0
  6
CONTINUOUS
 10
4.577320
 20
2.904440
  0
SEQEND
  8
0
  0
SOLID
  8
0
 62
    15
 10
5.978720
 20
4.114440
 11
6.619360
 21
3.746160
 12
5.904800
 22
4.095080
 13
6.545880
 23
3.727240
  0
POLYLINE
  8
0
  6
CONTINUOUS
 66
     1
 40
0.000000
 41
0.000000
  0
VERTEX
  8
0
  6
CONTINUOUS
 10
5.978720
 20
4.114440
  0
VERTEX
  8
0
  6
CONTINUOUS
 10
6.619360
 20
3.746160
  0
VERTEX
  8
0
  6
CONTINUOUS
 10
6.545880
 20
3.727240
  0
VERTEX
  8
0
  6
CONTINUOUS
 10
5.904800
 20
4.095080
  0
VERTEX
  8
0
  6
CONTINUOUS
 10
5.978720
 20
4.114440
  0
SEQEND
  8
0
  0
SOLID
  8
0
 62
    15
 10
5.904800
 20
4.095080
 11
6.545880
 21
3.727240
 12
5.849800
 22
4.079240
 13
6.490880
 23
3.710960
  0
POLYLINE
  8
0
  6
CONTINUOUS
 66
     1
 40
0.000000
 41
0.000000
  0
VERTEX
  8
0
  6
CONTINUOUS
 10
5.904800
 20
4.095080
  0
VERTEX
  8
0
  6
CONTINUOUS
 10
6.545880
 20
3.727240
  0
VERTEX
  8
0
  6
CONTINUOUS
 10
6.490880
 20
3.710960
  0
VERTEX
  8
0
  6
CONTINUOUS
 10
5.849800
 20
4.079240
  0
VERTEX
  8
0
  6
CONTINUOUS
 10
5.904800
 20
4.095080
  0
SEQEND
  8
0
  0
SOLID
  8
0
 62
    15
 10
5.849800
 20
4.079240
 11
6.490880
 21
3.710960
 12
5.776760
 22
4.047120
 13
6.417400
 23
3.678840
  0
POLYLINE
  8
0
  6
CONTINUOUS
 66
     1
 40
0.000000
 41
0.000000
  0
VERTEX
  8
0
  6
CONTINUOUS
 10
5.849800
 20
4.079240
  0
VERTEX
  8
0
  6
CONTINUOUS
 10
6.490880
 20
3.710960
  0
VERTEX
  8
0
  6
CONTINUOUS
 10
6.417400
 20
3.678840
  0
VERTEX
  8
0
  6
CONTINUOUS
 10
5.776760
 20
4.047120
  0
VERTEX
  8
0
  6
CONTINUOUS
 10
5.849800
 20
4.079240
  0
SEQEND
  8
0
  0
SOLID
  8
0
 62
    15
 10
5.776760
 20
4.047120
 11
6.417400
 21
3.678840
 12
5.721760
 22
3.998280
 13
6.362400
 23
3.630000
  0
POLYLINE
  8
0
  6
CONTINUOUS
 66
     1
 40
0.000000
 41
0.000000
  0
VERTEX
  8
0
  6
CONTINUOUS
 10
5.776760
 20
4.047120
  0
VERTEX
  8
0
  6
CONTINUOUS
 10
6.417400
 20
3.678840
  0
VERTEX
  8
0
  6
CONTINUOUS
 10
6.362400
 20
3.630000
  0
VERTEX
  8
0
  6
CONTINUOUS
 10
5.721760
 20
3.998280
  0
VERTEX
  8
0
  6
CONTINUOUS
 10
5.776760
 20
4.047120
  0
SEQEND
  8
0
  0
SOLID
  8
0
 62
    15
 10
5.721760
 20
3.998280
 11
6.362400
 21
3.630000
 12
5.689640
 22
3.960880
 13
6.330280
 23
3.593040
  0
POLYLINE
  8
0
  6
CONTINUOUS
 66
     1
 40
0.000000
 41
0.000000
  0
VERTEX
  8
0
  6
CONTINUOUS
 10
5.721760
 20
3.998280
  0
VERTEX
  8
0
  6
CONTINUOUS
 10
6.362400
 20
3.630000
  0
VERTEX
  8
0
  6
CONTINUOUS
 10
6.330280
 20
3.593040
  0
VERTEX
  8
0
  6
CONTINUOUS
 10
5.689640
 20
3.960880
  0
VERTEX
  8
0
  6
CONTINUOUS
 10
5.721760
 20
3.998280
  0
SEQEND
  8
0
  0
SOLID
  8
0
 62
    15
 10
5.689640
 20
3.960880
 11
6.330280
 21
3.593040
 12
5.648280
 22
3.912040
 13
6.288920
 23
3.543760
  0
POLYLINE
  8
0
  6
CONTINUOUS
 66
     1
 40
0.000000
 41
0.000000
  0
VERTEX
  8
0
  6
CONTINUOUS
 10
5.689640
 20
3.960880
  0
VERTEX
  8
0
  6
CONTINUOUS
 10
6.330280
 20
3.593040
  0
VERTEX
  8
0
  6
CONTINUOUS
 10
6.288920
 20
3.543760
  0
VERTEX
  8
0
  6
CONTINUOUS
 10
5.648280
 20
3.912040
  0
VERTEX
  8
0
  6
CONTINUOUS
 10
5.689640
 20
3.960880
  0
SEQEND
  8
0
  0
SOLID
  8
0
 62
    15
 10
5.648280
 20
3.912040
 11
6.288920
 21
3.543760
 12
5.610000
 22
3.853520
 13
6.250640
 23
3.485240
  0
POLYLINE
  8
0
  6
CONTINUOUS
 66
     1
 40
0.000000
 41
0.000000
  0
VERTEX
  8
0
  6
CONTINUOUS
 10
5.648280
 20
3.912040
  0
VERTEX
  8
0
  6
CONTINUOUS
 10
6.288920
 20
3.543760
  0
VERTEX
  8
0
  6
CONTINUOUS
 10
6.250640
 20
3.485240
  0
VERTEX
  8
0
  6
CONTINUOUS
 10
5.610000
 20
3.853520
  0
VERTEX
  8
0
  6
CONTINUOUS
 10
5.648280
 20
3.912040
  0
SEQEND
  8
0
  0
SOLID
  8
0
 62
    15
 10
5.610000
 20
3.853520
 11
6.250640
 21
3.485240
 12
5.587120
 22
3.788400
 13
6.227760
 23
3.420560
  0
POLYLINE
  8
0
  6
CONTINUOUS
 66
     1
 40
0.000000
 41
0.000000
  0
VERTEX
  8
0
  6
CONTINUOUS
 10
5.610000
 20
3.853520
  0
VERTEX
  8
0
  6
CONTINUOUS
 10
6.250640
 20
3.485240
  0
VERTEX
  8
0
  6
CONTINUOUS
 10
6.227760
 20
3.420560
  0
VERTEX
  8
0
  6
CONTINUOUS
 10
5.587120
 20
3.788400
  0
VERTEX
  8
0
  6
CONTINUOUS
 10
5.610000
 20
3.853520
  0
SEQEND
  8
0
  0
SOLID
  8
0
 62
    15
 10
5.587120
 20
3.788400
 11
6.227760
 21
3.420560
 12
5.572600
 22
3.718000
 13
6.213240
 23
3.350160
  0
POLYLINE
  8
0
  6
CONTINUOUS
 66
     1
 40
0.000000
 41
0.000000
  0
VERTEX
  8
0
  6
CONTINUOUS
 10
5.587120
 20
3.788400
  0
VERTEX
  8
0
  6
CONTINUOUS
 10
6.227760
 20
3.420560
  0
VERTEX
  8
0
  6
CONTINUOUS
 10
6.213240
 20
3.350160
  0
VERTEX
  8
0
  6
CONTINUOUS
 10
5.572600
 20
3.718000
  0
VERTEX
  8
0
  6
CONTINUOUS
 10
5.587120
 20
3.788400
  0
SEQEND
  8
0
  0
SOLID
  8
0
 62
    15
 10
5.572600
 20
3.718000
 11
6.213240
 21
3.350160
 12
5.559840
 22
3.642760
 13
6.200920
 23
3.274480
  0
POLYLINE
  8
0
  6
CONTINUOUS
 66
     1
 40
0.000000
 41
0.000000
  0
VERTEX
  8
0
  6
CONTINUOUS
 10
5.572600
 20
3.718000
  0
VERTEX
  8
0
  6
CONTINUOUS
 10
6.213240
 20
3.350160
  0
VERTEX
  8
0
  6
CONTINUOUS
 10
6.200920
 20
3.274480
  0
VERTEX
  8
0
  6
CONTINUOUS
 10
5.559840
 20
3.642760
  0
VERTEX
  8
0
  6
CONTINUOUS
 10
5.572600
 20
3.718000
  0
SEQEND
  8
0
  0
SOLID
  8
0
 62
    15
 10
5.559840
 20
3.642760
 11
6.200920
 21
3.274480
 12
5.516280
 22
3.478640
 13
6.156920
 23
3.110360
  0
POLYLINE
  8
0
  6
CONTINUOUS
 66
     1
 40
0.000000
 41
0.000000
  0
VERTEX
  8
0
  6
CONTINUOUS
 10
5.559840
 20
3.642760
  0
VERTEX
  8
0
  6
CONTINUOUS
 10
6.200920
 20
3.274480
  0
VERTEX
  8
0
  6
CONTINUOUS
 10
6.156920
 20
3.110360
  0
VERTEX
  8
0
  6
CONTINUOUS
 10
5.516280
 20
3.478640
  0
VERTEX
  8
0
  6
CONTINUOUS
 10
5.559840
 20
3.642760
  0
SEQEND
  8
0
  0
SOLID
  8
0
 62
    15
 10
5.516280
 20
3.478640
 11
6.156920
 21
3.110360
 12
5.471840
 22
3.390640
 13
6.112920
 23
3.022800
  0
POLYLINE
  8
0
  6
CONTINUOUS
 66
     1
 40
0.000000
 41
0.000000
  0
VERTEX
  8
0
  6
CONTINUOUS
 10
5.516280
 20
3.478640
  0
VERTEX
  8
0
  6
CONTINUOUS
 10
6.156920
 20
3.110360
  0
VERTEX
  8
0
  6
CONTINUOUS
 10
6.112920
 20
3.022800
  0
VERTEX
  8
0
  6
CONTINUOUS
 10
5.471840
 20
3.390640
  0
VERTEX
  8
0
  6
CONTINUOUS
 10
5.516280
 20
3.478640
  0
SEQEND
  8
0
  0
SOLID
  8
0
 62
    15
 10
5.471840
 20
3.390640
 11
6.112920
 21
3.022800
 12
5.404080
 22
3.300000
 13
6.044720
 23
2.931720
  0
POLYLINE
  8
0
  6
CONTINUOUS
 66
     1
 40
0.000000
 41
0.000000
  0
VERTEX
  8
0
  6
CONTINUOUS
 10
5.471840
 20
3.390640
  0
VERTEX
  8
0
  6
CONTINUOUS
 10
6.112920
 20
3.022800
  0
VERTEX
  8
0
  6
CONTINUOUS
 10
6.044720
 20
2.931720
  0
VERTEX
  8
0
  6
CONTINUOUS
 10
5.404080
 20
3.300000
  0
VERTEX
  8
0
  6
CONTINUOUS
 10
5.471840
 20
3.390640
  0
SEQEND
  8
0
  0
SOLID
  8
0
 62
    15
 10
5.404080
 20
3.300000
 11
6.044720
 21
2.931720
 12
5.313440
 22
3.219920
 13
5.954080
 23
2.851640
  0
POLYLINE
  8
0
  6
CONTINUOUS
 66
     1
 40
0.000000
 41
0.000000
  0
VERTEX
  8
0
  6
CONTINUOUS
 10
5.404080
 20
3.300000
  0
VERTEX
  8
0
  6
CONTINUOUS
 10
6.044720
 20
2.931720
  0
VERTEX
  8
0
  6
CONTINUOUS
 10
5.954080
 20
2.851640
  0
VERTEX
  8
0
  6
CONTINUOUS
 10
5.313440
 20
3.219920
  0
VERTEX
  8
0
  6
CONTINUOUS
 10
5.404080
 20
3.300000
  0
SEQEND
  8
0
  0
SOLID
  8
0
 62
    15
 10
5.313440
 20
3.219920
 11
5.954080
 21
2.851640
 12
5.208720
 22
3.160080
 13
5.849360
 23
2.792240
  0
POLYLINE
  8
0
  6
CONTINUOUS
 66
     1
 40
0.000000
 41
0.000000
  0
VERTEX
  8
0
  6
CONTINUOUS
 10
5.313440
 20
3.219920
  0
VERTEX
  8
0
  6
CONTINUOUS
 10
5.954080
 20
2.851640
  0
VERTEX
  8
0
  6
CONTINUOUS
 10
5.849360
 20
2.792240
  0
VERTEX
  8
0
  6
CONTINUOUS
 10
5.208720
 20
3.160080
  0
VERTEX
  8
0
  6
CONTINUOUS
 10
5.313440
 20
3.219920
  0
SEQEND
  8
0
  0
SOLID
  8
0
 62
    15
 10
5.208720
 20
3.160080
 11
5.849360
 21
2.792240
 12
4.982120
 22
3.082640
 13
5.622760
 23
2.714800
  0
POLYLINE
  8
0
  6
CONTINUOUS
 66
     1
 40
0.000000
 41
0.000000
  0
VERTEX
  8
0
  6
CONTINUOUS
 10
5.208720
 20
3.160080
  0
VERTEX
  8
0
  6
CONTINUOUS
 10
5.849360
 20
2.792240
  0
VERTEX
  8
0
  6
CONTINUOUS
 10
5.622760
 20
2.714800
  0
VERTEX
  8
0
  6
CONTINUOUS
 10
4.982120
 20
3.082640
  0
VERTEX
  8
0
  6
CONTINUOUS
 10
5.208720
 20
3.160080
  0
SEQEND
  8
0
  0
SOLID
  8
0
 62
    15
 10
4.982120
 20
3.082640
 11
5.622760
 21
2.714800
 12
4.926240
 22
3.068560
 13
5.566880
 23
2.700280
  0
POLYLINE
  8
0
  6
CONTINUOUS
 66
     1
 40
0.000000
 41
0.000000
  0
VERTEX
  8
0
  6
CONTINUOUS
 10
4.982120
 20
3.082640
  0
VERTEX
  8
0
  6
CONTINUOUS
 10
5.622760
 20
2.714800
  0
VERTEX
  8
0
  6
CONTINUOUS
 10
5.566880
 20
2.700280
  0
VERTEX
  8
0
  6
CONTINUOUS
 10
4.926240
 20
3.068560
  0
VERTEX
  8
0
  6
CONTINUOUS
 10
4.982120
 20
3.082640
  0
SEQEND
  8
0
  0
SOLID
  8
0
 62
    15
 10
4.926240
 20
3.068560
 11
5.566880
 21
2.700280
 12
4.872560
 22
3.055360
 13
5.513200
 23
2.687080
  0
POLYLINE
  8
0
  6
CONTINUOUS
 66
     1
 40
0.000000
 41
0.000000
  0
VERTEX
  8
0
  6
CONTINUOUS
 10
4.926240
 20
3.068560
  0
VERTEX
  8
0
  6
CONTINUOUS
 10
5.566880
 20
2.700280
  0
VERTEX
  8
0
  6
CONTINUOUS
 10
5.513200
 20
2.687080
  0
VERTEX
  8
0
  6
CONTINUOUS
 10
4.872560
 20
3.055360
  0
VERTEX
  8
0
  6
CONTINUOUS
 10
4.926240
 20
3.068560
  0
SEQEND
  8
0
  0
SOLID
  8
0
 62
    15
 10
4.872560
 20
3.055360
 11
5.513200
 21
2.687080
 12
4.773560
 22
3.028080
 13
5.414640
 23
2.660240
  0
POLYLINE
  8
0
  6
CONTINUOUS
 66
     1
 40
0.000000
 41
0.000000
  0
VERTEX
  8
0
  6
CONTINUOUS
 10
4.872560
 20
3.055360
  0
VERTEX
  8
0
  6
CONTINUOUS
 10
5.513200
 20
2.687080
  0
VERTEX
  8
0
  6
CONTINUOUS
 10
5.414640
 20
2.660240
  0
VERTEX
  8
0
  6
CONTINUOUS
 10
4.773560
 20
3.028080
  0
VERTEX
  8
0
  6
CONTINUOUS
 10
4.872560
 20
3.055360
  0
SEQEND
  8
0
  0
SOLID
  8
0
 62
    15
 10
4.773560
 20
3.028080
 11
5.414640
 21
2.660240
 12
4.691720
 22
2.996840
 13
5.332800
 23
2.629000
  0
POLYLINE
  8
0
  6
CONTINUOUS
 66
     1
 40
0.000000
 41
0.000000
  0
VERTEX
  8
0
  6
CONTINUOUS
 10
4.773560
 20
3.028080
  0
VERTEX
  8
0
  6
CONTINUOUS
 10
5.414640
 20
2.660240
  0
VERTEX
  8
0
  6
CONTINUOUS
 10
5.332800
 20
2.629000
  0
VERTEX
  8
0
  6
CONTINUOUS
 10
4.691720
 20
2.996840
  0
VERTEX
  8
0
  6
CONTINUOUS
 10
4.773560
 20
3.028080
  0
SEQEND
  8
0
  0
SOLID
  8
0
 62
    15
 10
4.691720
 20
2.996840
 11
5.332800
 21
2.629000
 12
4.633200
 22
2.956360
 13
5.274280
 23
2.588520
  0
POLYLINE
  8
0
  6
CONTINUOUS
 66
     1
 40
0.000000
 41
0.000000
  0
VERTEX
  8
0
  6
CONTINUOUS
 10
4.691720
 20
2.996840
  0
VERTEX
  8
0
  6
CONTINUOUS
 10
5.332800
 20
2.629000
  0
VERTEX
  8
0
  6
CONTINUOUS
 10
5.274280
 20
2.588520
  0
VERTEX
  8
0
  6
CONTINUOUS
 10
4.633200
 20
2.956360
  0
VERTEX
  8
0
  6
CONTINUOUS
 10
4.691720
 20
2.996840
  0
SEQEND
  8
0
  0
SOLID
  8
0
 62
    15
 10
4.633200
 20
2.956360
 11
5.274280
 21
2.588520
 12
4.588320
 22
2.914560
 13
5.229400
 23
2.546280
  0
POLYLINE
  8
0
  6
CONTINUOUS
 66
     1
 40
0.000000
 41
0.000000
  0
VERTEX
  8
0
  6
CONTINUOUS
 10
4.633200
 20
2.956360
  0
VERTEX
  8
0
  6
CONTINUOUS
 10
5.274280
 20
2.588520
  0
VERTEX
  8
0
  6
CONTINUOUS
 10
5.229400
 20
2.546280
  0
VERTEX
  8
0
  6
CONTINUOUS
 10
4.588320
 20
2.914560
  0
VERTEX
  8
0
  6
CONTINUOUS
 10
4.633200
 20
2.956360
  0
SEQEND
  8
0
  0
SOLID
  8
0
 62
    15
 10
4.588320
 20
2.914560
 11
5.229400
 21
2.546280
 12
4.577320
 22
2.904440
 13
5.217960
 23
2.536600
  0
POLYLINE
  8
0
  6
CONTINUOUS
 66
     1
 40
0.000000
 41
0.000000
  0
VERTEX
  8
0
  6
CONTINUOUS
 10
4.588320
 20
2.914560
  0
VERTEX
  8
0
  6
CONTINUOUS
 10
5.229400
 20
2.546280
  0
VERTEX
  8
0
  6
CONTINUOUS
 10
5.217960
 20
2.536600
  0
VERTEX
  8
0
  6
CONTINUOUS
 10
4.577320
 20
2.904440
  0
VERTEX
  8
0
  6
CONTINUOUS
 10
4.588320
 20
2.914560
  0
SEQEND
  8
0
  0
SOLID
  8
0
 62
    15
 10
5.892040
 20
4.418480
 11
6.532680
 21
4.050200
 12
5.978720
 22
4.114440
 13
6.619360
 23
3.746160
  0
POLYLINE
  8
0
  6
CONTINUOUS
 66
     1
 40
0.000000
 41
0.000000
  0
VERTEX
  8
0
  6
CONTINUOUS
 10
5.892040
 20
4.418480
  0
VERTEX
  8
0
  6
CONTINUOUS
 10
6.532680
 20
4.050200
  0
VERTEX
  8
0
  6
CONTINUOUS
 10
6.619360
 20
3.746160
  0
VERTEX
  8
0
  6
CONTINUOUS
 10
5.978720
 20
4.114440
  0
VERTEX
  8
0
  6
CONTINUOUS
 10
5.892040
 20
4.418480
  0
SEQEND
  8
0
  0
SOLID
  8
0
 62
    15
 10
4.566320
 20
2.894320
 11
5.206960
 21
2.526480
 12
4.543880
 22
2.873200
 13
5.184520
 23
2.505360
  0
POLYLINE
  8
0
  6
CONTINUOUS
 66
     1
 40
0.000000
 41
0.000000
  0
VERTEX
  8
0
  6
CONTINUOUS
 10
4.566320
 20
2.894320
  0
VERTEX
  8
0
  6
CONTINUOUS
 10
5.206960
 20
2.526480
  0
VERTEX
  8
0
  6
CONTINUOUS
 10
5.184520
 20
2.505360
  0
VERTEX
  8
0
  6
CONTINUOUS
 10
4.543880
 20
2.873200
  0
VERTEX
  8
0
  6
CONTINUOUS
 10
4.566320
 20
2.894320
  0
SEQEND
  8
0
  0
SOLID
  8
0
 62
    15
 10
4.543880
 20
2.873200
 11
5.184520
 21
2.505360
 12
4.499880
 22
2.820400
 13
5.140960
 23
2.452120
  0
POLYLINE
  8
0
  6
CONTINUOUS
 66
     1
 40
0.000000
 41
0.000000
  0
VERTEX
  8
0
  6
CONTINUOUS
 10
4.543880
 20
2.873200
  0
VERTEX
  8
0
  6
CONTINUOUS
 10
5.184520
 20
2.505360
  0
VERTEX
  8
0
  6
CONTINUOUS
 10
5.140960
 20
2.452120
  0
VERTEX
  8
0
  6
CONTINUOUS
 10
4.499880
 20
2.820400
  0
VERTEX
  8
0
  6
CONTINUOUS
 10
4.543880
 20
2.873200
  0
SEQEND
  8
0
  0
SOLID
  8
0
 62
    15
 10
4.499880
 20
2.820400
 11
5.140960
 21
2.452120
 12
4.457200
 22
2.742960
 13
5.097840
 23
2.374680
  0
POLYLINE
  8
0
  6
CONTINUOUS
 66
     1
 40
0.000000
 41
0.000000
  0
VERTEX
  8
0
  6
CONTINUOUS
 10
4.499880
 20
2.820400
  0
VERTEX
  8
0
  6
CONTINUOUS
 10
5.140960
 20
2.452120
  0
VERTEX
  8
0
  6
CONTINUOUS
 10
5.097840
 20
2.374680
  0
VERTEX
  8
0
  6
CONTINUOUS
 10
4.457200
 20
2.742960
  0
VERTEX
  8
0
  6
CONTINUOUS
 10
4.499880
 20
2.820400
  0
SEQEND
  8
0
  0
SOLID
  8
0
 62
    15
 10
4.457200
 20
2.742960
 11
5.097840
 21
2.374680
 12
4.415840
 22
2.628560
 13
5.056480
 23
2.260280
  0
POLYLINE
  8
0
  6
CONTINUOUS
 66
     1
 40
0.000000
 41
0.000000
  0
VERTEX
  8
0
  6
CONTINUOUS
 10
4.457200
 20
2.742960
  0
VERTEX
  8
0
  6
CONTINUOUS
 10
5.097840
 20
2.374680
  0
VERTEX
  8
0
  6
CONTINUOUS
 10
5.056480
 20
2.260280
  0
VERTEX
  8
0
  6
CONTINUOUS
 10
4.415840
 20
2.628560
  0
VERTEX
  8
0
  6
CONTINUOUS
 10
4.457200
 20
2.742960
  0
SEQEND
  8
0
  0
SOLID
  8
0
 62
    15
 10
4.415840
 20
2.628560
 11
5.056480
 21
2.260280
 12
4.375800
 22
2.464000
 13
5.016880
 23
2.096160
  0
POLYLINE
  8
0
  6
CONTINUOUS
 66
     1
 40
0.000000
 41
0.000000
  0
VERTEX
  8
0
  6
CONTINUOUS
 10
4.415840
 20
2.628560
  0
VERTEX
  8
0
  6
CONTINUOUS
 10
5.056480
 20
2.260280
  0
VERTEX
  8
0
  6
CONTINUOUS
 10
5.016880
 20
2.096160
  0
VERTEX
  8
0
  6
CONTINUOUS
 10
4.375800
 20
2.464000
  0
VERTEX
  8
0
  6
CONTINUOUS
 10
4.415840
 20
2.628560
  0
SEQEND
  8
0
  0
SOLID
  8
0
 62
    15
 10
4.375800
 20
2.464000
 11
5.016880
 21
2.096160
 12
4.356880
 22
2.359280
 13
4.997520
 23
1.991000
  0
POLYLINE
  8
0
  6
CONTINUOUS
 66
     1
 40
0.000000
 41
0.000000
  0
VERTEX
  8
0
  6
CONTINUOUS
 10
4.375800
 20
2.464000
  0
VERTEX
  8
0
  6
CONTINUOUS
 10
5.016880
 20
2.096160
  0
VERTEX
  8
0
  6
CONTINUOUS
 10
4.997520
 20
1.991000
  0
VERTEX
  8
0
  6
CONTINUOUS
 10
4.356880
 20
2.359280
  0
VERTEX
  8
0
  6
CONTINUOUS
 10
4.375800
 20
2.464000
  0
SEQEND
  8
0
  0
SOLID
  8
0
 62
    15
 10
4.356880
 20
2.359280
 11
4.997520
 21
1.991000
 12
4.338400
 22
2.237400
 13
4.979040
 23
1.869120
  0
POLYLINE
  8
0
  6
CONTINUOUS
 66
     1
 40
0.000000
 41
0.000000
  0
VERTEX
  8
0
  6
CONTINUOUS
 10
4.356880
 20
2.359280
  0
VERTEX
  8
0
  6
CONTINUOUS
 10
4.997520
 20
1.991000
  0
VERTEX
  8
0
  6
CONTINUOUS
 10
4.979040
 20
1.869120
  0
VERTEX
  8
0
  6
CONTINUOUS
 10
4.338400
 20
2.237400
  0
VERTEX
  8
0
  6
CONTINUOUS
 10
4.356880
 20
2.359280
  0
SEQEND
  8
0
  0
SOLID
  8
0
 62
    15
 10
4.338400
 20
2.237400
 11
4.979040
 21
1.869120
 12
4.320360
 22
2.096600
 13
4.961000
 23
1.728320
  0
POLYLINE
  8
0
  6
CONTINUOUS
 66
     1
 40
0.000000
 41
0.000000
  0
VERTEX
  8
0
  6
CONTINUOUS
 10
4.338400
 20
2.237400
  0
VERTEX
  8
0
  6
CONTINUOUS
 10
4.979040
 20
1.869120
  0
VERTEX
  8
0
  6
CONTINUOUS
 10
4.961000
 20
1.728320
  0
VERTEX
  8
0
  6
CONTINUOUS
 10
4.320360
 20
2.096600
  0
VERTEX
  8
0
  6
CONTINUOUS
 10
4.338400
 20
2.237400
  0
SEQEND
  8
0
  0
SOLID
  8
0
 62
    15
 10
4.320360
 20
2.096600
 11
4.961000
 21
1.728320
 12
4.302760
 22
1.935560
 13
4.943840
 23
1.567280
  0
POLYLINE
  8
0
  6
CONTINUOUS
 66
     1
 40
0.000000
 41
0.000000
  0
VERTEX
  8
0
  6
CONTINUOUS
 10
4.320360
 20
2.096600
  0
VERTEX
  8
0
  6
CONTINUOUS
 10
4.961000
 20
1.728320
  0
VERTEX
  8
0
  6
CONTINUOUS
 10
4.943840
 20
1.567280
  0
VERTEX
  8
0
  6
CONTINUOUS
 10
4.302760
 20
1.935560
  0
VERTEX
  8
0
  6
CONTINUOUS
 10
4.320360
 20
2.096600
  0
SEQEND
  8
0
  0
SOLID
  8
0
 62
    15
 10
4.302760
 20
1.935560
 11
4.943840
 21
1.567280
 12
4.281200
 22
1.772320
 13
4.921840
 23
1.404480
  0
POLYLINE
  8
0
  6
CONTINUOUS
 66
     1
 40
0.000000
 41
0.000000
  0
VERTEX
  8
0
  6
CONTINUOUS
 10
4.302760
 20
1.935560
  0
VERTEX
  8
0
  6
CONTINUOUS
 10
4.943840
 20
1.567280
  0
VERTEX
  8
0
  6
CONTINUOUS
 10
4.921840
 20
1.404480
  0
VERTEX
  8
0
  6
CONTINUOUS
 10
4.281200
 20
1.772320
  0
VERTEX
  8
0
  6
CONTINUOUS
 10
4.302760
 20
1.935560
  0
SEQEND
  8
0
  0
SOLID
  8
0
 62
    15
 10
4.281200
 20
1.772320
 11
4.921840
 21
1.404480
 12
4.249960
 22
1.627120
 13
4.890600
 23
1.259280
  0
POLYLINE
  8
0
  6
CONTINUOUS
 66
     1
 40
0.000000
 41
0.000000
  0
VERTEX
  8
0
  6
CONTINUOUS
 10
4.281200
 20
1.772320
  0
VERTEX
  8
0
  6
CONTINUOUS
 10
4.921840
 20
1.404480
  0
VERTEX
  8
0
  6
CONTINUOUS
 10
4.890600
 20
1.259280
  0
VERTEX
  8
0
  6
CONTINUOUS
 10
4.249960
 20
1.627120
  0
VERTEX
  8
0
  6
CONTINUOUS
 10
4.281200
 20
1.772320
  0
SEQEND
  8
0
  0
SOLID
  8
0
 62
    15
 10
4.249960
 20
1.627120
 11
4.890600
 21
1.259280
 12
4.209920
 22
1.499080
 13
4.850560
 23
1.131240
  0
POLYLINE
  8
0
  6
CONTINUOUS
 66
     1
 40
0.000000
 41
0.000000
  0
VERTEX
  8
0
  6
CONTINUOUS
 10
4.249960
 20
1.627120
  0
VERTEX
  8
0
  6
CONTINUOUS
 10
4.890600
 20
1.259280
  0
VERTEX
  8
0
  6
CONTINUOUS
 10
4.850560
 20
1.131240
  0
VERTEX
  8
0
  6
CONTINUOUS
 10
4.209920
 20
1.499080
  0
VERTEX
  8
0
  6
CONTINUOUS
 10
4.249960
 20
1.627120
  0
SEQEND
  8
0
  0
SOLID
  8
0
 62
    15
 10
4.209920
 20
1.499080
 11
4.850560
 21
1.131240
 12
4.161080
 22
1.387760
 13
4.801720
 23
1.019480
  0
POLYLINE
  8
0
  6
CONTINUOUS
 66
     1
 40
0.000000
 41
0.000000
  0
VERTEX
  8
0
  6
CONTINUOUS
 10
4.209920
 20
1.499080
  0
VERTEX
  8
0
  6
CONTINUOUS
 10
4.850560
 20
1.131240
  0
VERTEX
  8
0
  6
CONTINUOUS
 10
4.801720
 20
1.019480
  0
VERTEX
  8
0
  6
CONTINUOUS
 10
4.161080
 20
1.387760
  0
VERTEX
  8
0
  6
CONTINUOUS
 10
4.209920
 20
1.499080
  0
SEQEND
  8
0
  0
SOLID
  8
0
 62
    15
 10
4.161080
 20
1.387760
 11
4.801720
 21
1.019480
 12
4.103880
 22
1.292280
 13
4.744520
 23
0.924000
  0
POLYLINE
  8
0
  6
CONTINUOUS
 66
     1
 40
0.000000
 41
0.000000
  0
VERTEX
  8
0
  6
CONTINUOUS
 10
4.161080
 20
1.387760
  0
VERTEX
  8
0
  6
CONTINUOUS
 10
4.801720
 20
1.019480
  0
VERTEX
  8
0
  6
CONTINUOUS
 10
4.744520
 20
0.924000
  0
VERTEX
  8
0
  6
CONTINUOUS
 10
4.103880
 20
1.292280
  0
VERTEX
  8
0
  6
CONTINUOUS
 10
4.161080
 20
1.387760
  0
SEQEND
  8
0
  0
SOLID
  8
0
 62
    15
 10
4.103880
 20
1.292280
 11
4.744520
 21
0.924000
 12
4.038760
 22
1.212640
 13
4.679840
 23
0.844360
  0
POLYLINE
  8
0
  6
CONTINUOUS
 66
     1
 40
0.000000
 41
0.000000
  0
VERTEX
  8
0
  6
CONTINUOUS
 10
4.103880
 20
1.292280
  0
VERTEX
  8
0
  6
CONTINUOUS
 10
4.744520
 20
0.924000
  0
VERTEX
  8
0
  6
CONTINUOUS
 10
4.679840
 20
0.844360
  0
VERTEX
  8
0
  6
CONTINUOUS
 10
4.038760
 20
1.212640
  0
VERTEX
  8
0
  6
CONTINUOUS
 10
4.103880
 20
1.292280
  0
SEQEND
  8
0
  0
SOLID
  8
0
 62
    15
 10
4.038760
 20
1.212640
 11
4.679840
 21
0.844360
 12
3.966160
 22
1.147520
 13
4.607240
 23
0.779680
  0
POLYLINE
  8
0
  6
CONTINUOUS
 66
     1
 40
0.000000
 41
0.000000
  0
VERTEX
  8
0
  6
CONTINUOUS
 10
4.038760
 20
1.212640
  0
VERTEX
  8
0
  6
CONTINUOUS
 10
4.679840
 20
0.844360
  0
VERTEX
  8
0
  6
CONTINUOUS
 10
4.607240
 20
0.779680
  0
VERTEX
  8
0
  6
CONTINUOUS
 10
3.966160
 20
1.147520
  0
VERTEX
  8
0
  6
CONTINUOUS
 10
4.038760
 20
1.212640
  0
SEQEND
  8
0
  0
SOLID
  8
0
 62
    15
 10
3.966160
 20
1.147520
 11
4.607240
 21
0.779680
 12
3.886960
 22
1.097360
 13
4.527600
 23
0.729080
  0
POLYLINE
  8
0
  6
CONTINUOUS
 66
     1
 40
0.000000
 41
0.000000
  0
VERTEX
  8
0
  6
CONTINUOUS
 10
3.966160
 20
1.147520
  0
VERTEX
  8
0
  6
CONTINUOUS
 10
4.607240
 20
0.779680
  0
VERTEX
  8
0
  6
CONTINUOUS
 10
4.527600
 20
0.729080
  0
VERTEX
  8
0
  6
CONTINUOUS
 10
3.886960
 20
1.097360
  0
VERTEX
  8
0
  6
CONTINUOUS
 10
3.966160
 20
1.147520
  0
SEQEND
  8
0
  0
SOLID
  8
0
 62
    15
 10
3.886960
 20
1.097360
 11
4.527600
 21
0.729080
 12
3.800280
 22
1.060840
 13
4.441360
 23
0.692560
  0
POLYLINE
  8
0
  6
CONTINUOUS
 66
     1
 40
0.000000
 41
0.000000
  0
VERTEX
  8
0
  6
CONTINUOUS
 10
3.886960
 20
1.097360
  0
VERTEX
  8
0
  6
CONTINUOUS
 10
4.527600
 20
0.729080
  0
VERTEX
  8
0
  6
CONTINUOUS
 10
4.441360
 20
0.692560
  0
VERTEX
  8
0
  6
CONTINUOUS
 10
3.800280
 20
1.060840
  0
VERTEX
  8
0
  6
CONTINUOUS
 10
3.886960
 20
1.097360
  0
SEQEND
  8
0
  0
SOLID
  8
0
 62
    15
 10
3.800280
 20
1.060840
 11
4.441360
 21
0.692560
 12
3.707880
 22
1.037960
 13
4.348520
 23
0.669680
  0
POLYLINE
  8
0
  6
CONTINUOUS
 66
     1
 40
0.000000
 41
0.000000
  0
VERTEX
  8
0
  6
CONTINUOUS
 10
3.800280
 20
1.060840
  0
VERTEX
  8
0
  6
CONTINUOUS
 10
4.441360
 20
0.692560
  0
VERTEX
  8
0
  6
CONTINUOUS
 10
4.348520
 20
0.669680
  0
VERTEX
  8
0
  6
CONTINUOUS
 10
3.707880
 20
1.037960
  0
VERTEX
  8
0
  6
CONTINUOUS
 10
3.800280
 20
1.060840
  0
SEQEND
  8
0
  0
SOLID
  8
0
 62
    15
 10
3.707880
 20
1.037960
 11
4.348520
 21
0.669680
 12
3.608880
 22
1.027840
 13
4.249520
 23
0.659560
  0
POLYLINE
  8
0
  6
CONTINUOUS
 66
     1
 40
0.000000
 41
0.000000
  0
VERTEX
  8
0
  6
CONTINUOUS
 10
3.707880
 20
1.037960
  0
VERTEX
  8
0
  6
CONTINUOUS
 10
4.348520
 20
0.669680
  0
VERTEX
  8
0
  6
CONTINUOUS
 10
4.249520
 20
0.659560
  0
VERTEX
  8
0
  6
CONTINUOUS
 10
3.608880
 20
1.027840
  0
VERTEX
  8
0
  6
CONTINUOUS
 10
3.707880
 20
1.037960
  0
SEQEND
  8
0
  0
SOLID
  8
0
 62
    15
 10
3.608880
 20
1.027840
 11
4.249520
 21
0.659560
 12
3.504600
 22
1.030040
 13
4.145240
 23
0.661760
  0
POLYLINE
  8
0
  6
CONTINUOUS
 66
     1
 40
0.000000
 41
0.000000
  0
VERTEX
  8
0
  6
CONTINUOUS
 10
3.608880
 20
1.027840
  0
VERTEX
  8
0
  6
CONTINUOUS
 10
4.249520
 20
0.659560
  0
VERTEX
  8
0
  6
CONTINUOUS
 10
4.145240
 20
0.661760
  0
VERTEX
  8
0
  6
CONTINUOUS
 10
3.504600
 20
1.030040
  0
VERTEX
  8
0
  6
CONTINUOUS
 10
3.608880
 20
1.027840
  0
SEQEND
  8
0
  0
SOLID
  8
0
 62
    15
 10
3.280200
 20
1.069640
 11
3.921280
 21
0.701360
 12
3.038200
 22
1.152360
 13
3.679280
 23
0.784080
  0
POLYLINE
  8
0
  6
CONTINUOUS
 66
     1
 40
0.000000
 41
0.000000
  0
VERTEX
  8
0
  6
CONTINUOUS
 10
3.280200
 20
1.069640
  0
VERTEX
  8
0
  6
CONTINUOUS
 10
3.921280
 20
0.701360
  0
VERTEX
  8
0
  6
CONTINUOUS
 10
3.679280
 20
0.784080
  0
VERTEX
  8
0
  6
CONTINUOUS
 10
3.038200
 20
1.152360
  0
VERTEX
  8
0
  6
CONTINUOUS
 10
3.280200
 20
1.069640
  0
SEQEND
  8
0
  0
SOLID
  8
0
 62
    15
 10
3.504600
 20
1.030040
 11
4.145240
 21
0.661760
 12
3.280200
 22
1.069640
 13
3.921280
 23
0.701360
  0
POLYLINE
  8
0
  6
CONTINUOUS
 66
     1
 40
0.000000
 41
0.000000
  0
VERTEX
  8
0
  6
CONTINUOUS
 10
3.504600
 20
1.030040
  0
VERTEX
  8
0
  6
CONTINUOUS
 10
4.145240
 20
0.661760
  0
VERTEX
  8
0
  6
CONTINUOUS
 10
3.921280
 20
0.701360
  0
VERTEX
  8
0
  6
CONTINUOUS
 10
3.280200
 20
1.069640
  0
VERTEX
  8
0
  6
CONTINUOUS
 10
3.504600
 20
1.030040
  0
SEQEND
  8
0
  0
POLYLINE
  8
0
  6
CONTINUOUS
 66
     1
 40
0.000000
 41
0.000000
  0
VERTEX
  8
0
  6
CONTINUOUS
 10
3.042600
 20
1.515360
  0
VERTEX
  8
0
  6
CONTINUOUS
 10
5.161640
 20
4.421120
  0
VERTEX
  8
0
  6
CONTINUOUS
 10
5.892040
 20
4.418480
  0
VERTEX
  8
0
  6
CONTINUOUS
 10
5.978720
 20
4.114440
  0
VERTEX
  8
0
  6
CONTINUOUS
 10
5.849800
 20
4.079240
  0
VERTEX
  8
0
  6
CONTINUOUS
 10
5.776760
 20
4.047120
  0
VERTEX
  8
0
  6
CONTINUOUS
 10
5.721760
 20
3.998280
  0
VERTEX
  8
0
  6
CONTINUOUS
 10
5.648280
 20
3.912040
  0
VERTEX
  8
0
  6
CONTINUOUS
 10
5.610000
 20
3.853520
  0
VERTEX
  8
0
  6
CONTINUOUS
 10
5.587120
 20
3.788400
  0
VERTEX
  8
0
  6
CONTINUOUS
 10
5.572600
 20
3.718000
  0
VERTEX
  8
0
  6
CONTINUOUS
 10
5.559840
 20
3.642760
  0
VERTEX
  8
0
  6
CONTINUOUS
 10
5.516280
 20
3.478640
  0
VERTEX
  8
0
  6
CONTINUOUS
 10
5.471840
 20
3.390640
  0
VERTEX
  8
0
  6
CONTINUOUS
 10
5.404080
 20
3.300000
  0
VERTEX
  8
0
  6
CONTINUOUS
 10
5.313440
 20
3.219920
  0
VERTEX
  8
0
  6
CONTINUOUS
 10
5.208720
 20
3.160080
  0
VERTEX
  8
0
  6
CONTINUOUS
 10
4.982120
 20
3.082640
  0
VERTEX
  8
0
  6
CONTINUOUS
 10
4.872560
 20
3.055360
  0
VERTEX
  8
0
  6
CONTINUOUS
 10
4.773560
 20
3.028080
  0
VERTEX
  8
0
  6
CONTINUOUS
 10
4.691720
 20
2.996840
  0
VERTEX
  8
0
  6
CONTINUOUS
 10
4.633200
 20
2.956360
  0
VERTEX
  8
0
  6
CONTINUOUS
 10
4.543880
 20
2.873200
  0
VERTEX
  8
0
  6
CONTINUOUS
 10
4.499880
 20
2.820400
  0
VERTEX
  8
0
  6
CONTINUOUS
 10
4.457200
 20
2.742960
  0
VERTEX
  8
0
  6
CONTINUOUS
 10
4.415840
 20
2.628560
  0
VERTEX
  8
0
  6
CONTINUOUS
 10
4.375800
 20
2.464000
  0
VERTEX
  8
0
  6
CONTINUOUS
 10
4.356880
 20
2.359280
  0
VERTEX
  8
0
  6
CONTINUOUS
 10
4.338400
 20
2.237400
  0
VERTEX
  8
0
  6
CONTINUOUS
 10
4.320360
 20
2.096600
  0
VERTEX
  8
0
  6
CONTINUOUS
 10
4.302760
 20
1.935560
  0
VERTEX
  8
0
  6
CONTINUOUS
 10
4.281200
 20
1.772320
  0
VERTEX
  8
0
  6
CONTINUOUS
 10
4.249960
 20
1.627120
  0
VERTEX
  8
0
  6
CONTINUOUS
 10
4.209920
 20
1.499080
  0
VERTEX
  8
0
  6
CONTINUOUS
 10
4.161080
 20
1.387760
  0
VERTEX
  8
0
  6
CONTINUOUS
 10
4.103880
 20
1.292280
  0
VERTEX
  8
0
  6
CONTINUOUS
 10
4.038760
 20
1.212640
  0
VERTEX
  8
0
  6
CONTINUOUS
 10
3.966160
 20
1.147520
  0
VERTEX
  8
0
  6
CONTINUOUS
 10
3.886960
 20
1.097360
  0
VERTEX
  8
0
  6
CONTINUOUS
 10
3.800280
 20
1.060840
  0
VERTEX
  8
0
  6
CONTINUOUS
 10
3.707880
 20
1.037960
  0
VERTEX
  8
0
  6
CONTINUOUS
 10
3.608880
 20
1.027840
  0
VERTEX
  8
0
  6
CONTINUOUS
 10
3.504600
 20
1.030040
  0
VERTEX
  8
0
  6
CONTINUOUS
 10
3.280200
 20
1.069640
  0
VERTEX
  8
0
  6
CONTINUOUS
 10
3.038200
 20
1.152360
  0
VERTEX
  8
0
  6
CONTINUOUS
 10
3.042600
 20
1.515360
  0
SEQEND
  8
0
  0
TEXT
  8
0
 10
5.157680
 20
0.872080
 40
0.138224
  1
BA  368
 41
1.000000
  7
SN0
 71
     0
 72
     5
 11
5.748983
 21
0.872080
  0
TEXT
  8
0
 10
5.071440
 20
0.680240
 40
0.138224
  1
1" x 4-3/8"
 41
1.000000
  7
SN0
 71
     0
 72
     5
 11
5.835399
 21
0.680240
  0
ENDSEC
  0
EOF
