  0
SECTION
  2
HEADER
  9
$ACADVER
  1
AC1006
  9
$EXTMIN
 10
4.455880
 20
0.669680
  9
$EXTMAX
 10
7.618600
 20
4.440920
  9
$LTSCALE
 40
0.044000
  9
$PDMODE
 70
    35
  9
$PDSIZE
 40
0.035200
  0
ENDSEC
  0
SECTION
  2
TABLES
  0
TABLE
  2
LTYPE
 70
     9
  0
LTYPE
  2
CONTINUOUS
 70
    64
  3
Solid line
 72
    65
 73
     0
 40
0.000000
  0
LTYPE
  2
DASHED
 70
    64
  3
__ __ __ __ __ __ __ __ __ __ __ __ __ __ __
 72
    65
 73
     2
 40
0.000330
 49
0.000220
 49
-0.000110
  0
LTYPE
  2
HIDDEN
 70
    64
  3
 _ _ _ _ _ _ _ _ _ _ _ _ _ _ _ _ _ _ _ _ _ _
 72
    65
 73
     2
 40
0.000165
 49
0.000110
 49
-0.000055
  0
LTYPE
  2
CENTER
 70
    64
  3
____ _ ____ _ ____ _ ____ _ ____ _ ____ _ ____
 72
    65
 73
     4
 40
0.000880
 49
0.000550
 49
-0.000110
 49
0.000110
 49
-0.000110
  0
LTYPE
  2
PHANTOM
 70
    64
  3
_____ _ _ _____ _ _ _____ _ _ _____ _ _ ____
 72
    65
 73
     6
 40
0.001100
 49
0.000550
 49
-0.000110
 49
0.000110
 49
-0.000110
 49
0.000110
 49
-0.000110
  0
LTYPE
  2
DOT
 70
    64
  3
...............................................
 72
    65
 73
     2
 40
0.000110
 49
0.000000
 49
-0.000110
  0
LTYPE
  2
DASHDOT
 70
    64
  3
__ . __ . __ . __ . __ . __ . __ . __ . __ . __
 72
    65
 73
     4
 40
0.000440
 49
0.000220
 49
-0.000110
 49
0.000000
 49
-0.000110
  0
LTYPE
  2
BORDER
 70
    64
  3
__ __ . __ __ . __ __ . __ __ . __ __ . __ __
 72
    65
 73
     6
 40
0.000770
 49
0.000220
 49
-0.000110
 49
0.000220
 49
-0.000110
 49
0.000000
 49
-0.000110
  0
LTYPE
  2
DIVIDE
 70
    64
  3
__ . . __ . . __ . . __ . . __ . . __ . . __
 72
    65
 73
     6
 40
0.000550
 49
0.000220
 49
-0.000110
 49
0.000000
 49
-0.000110
 49
0.000000
 49
-0.000110
  0
LTYPE
  2
DOTDOT
 70
    64
  3
 . .  . .  . .  . .  . .  . . 
 72
    65
 73
     5
 40
0.000242
 49
-0.000110
 49
0.000000
 49
-0.000110
 49
0.000000
 49
-0.000110
  0
ENDTAB
  0
TABLE
  2
STYLE
 70
     2
  0
STYLE
 70
     0
  2
SN0
 40
0.000000
 41
0.000440
 50
0.000000
 71
     0
 42
0.000000
  3
ROMAND
  0
STYLE
 70
    68
  2
SV0
 40
0.000000
 41
0.000440
 50
0.000000
 71
     0
 42
0.000000
  3
ROMAND
  0
ENDTAB
  0
TABLE
  2
LAYER
 70
     3
  0
LAYER
  2
FOREGROUND
 70
    64
 62
     7
  6
CONTINUOUS
  0
LAYER
  2
BACKGROUND
 70
    65
 62
    -7
  6
CONTINUOUS
  0
LAYER
  2
0
 70
    64
 62
     7
  6
CONTINUOUS
  0
ENDTAB
  0
ENDSEC
  0
SECTION
  2
ENTITIES
  0
POLYLINE
  8
FOREGROUND
  6
CONTINUOUS
 66
     1
 40
0.000000
 41
0.000000
  0
VERTEX
  8
FOREGROUND
  6
CONTINUOUS
 10
0.000000
 20
5.110600
  0
VERTEX
  8
FOREGROUND
  6
CONTINUOUS
 10
8.499920
 20
5.110600
  0
VERTEX
  8
FOREGROUND
  6
CONTINUOUS
 10
8.499920
 20
-5.889400
  0
VERTEX
  8
FOREGROUND
  6
CONTINUOUS
 10
0.000000
 20
-5.889400
  0
VERTEX
  8
FOREGROUND
  6
CONTINUOUS
 10
0.000000
 20
5.110600
  0
SEQEND
  8
0
  0
POLYLINE
  8
FOREGROUND
  6
CONTINUOUS
 66
     1
 40
0.000000
 41
0.000000
  0
VERTEX
  8
FOREGROUND
  6
CONTINUOUS
 10
0.000000
 20
5.110600
  0
VERTEX
  8
FOREGROUND
  6
CONTINUOUS
 10
8.499920
 20
5.110600
  0
VERTEX
  8
FOREGROUND
  6
CONTINUOUS
 10
8.499920
 20
-5.889400
  0
VERTEX
  8
FOREGROUND
  6
CONTINUOUS
 10
0.000000
 20
-5.889400
  0
VERTEX
  8
FOREGROUND
  6
CONTINUOUS
 10
0.000000
 20
5.110600
  0
SEQEND
  8
0
  0
POLYLINE
  8
0
  6
CONTINUOUS
 66
     1
 40
0.014080
 41
0.014080
  0
VERTEX
  8
0
  6
CONTINUOUS
 10
6.711320
 20
4.432120
  0
VERTEX
  8
0
  6
CONTINUOUS
 10
6.736840
 20
4.430800
  0
VERTEX
  8
0
  6
CONTINUOUS
 10
6.774240
 20
4.424200
  0
VERTEX
  8
0
  6
CONTINUOUS
 10
6.809000
 20
4.412320
  0
VERTEX
  8
0
  6
CONTINUOUS
 10
6.831000
 20
4.401760
  0
VERTEX
  8
0
  6
CONTINUOUS
 10
6.851680
 20
4.389440
  0
VERTEX
  8
0
  6
CONTINUOUS
 10
6.871040
 20
4.374920
  0
VERTEX
  8
0
  6
CONTINUOUS
 10
6.888640
 20
4.358640
  0
VERTEX
  8
0
  6
CONTINUOUS
 10
6.904920
 20
4.341040
  0
VERTEX
  8
0
  6
CONTINUOUS
 10
6.919440
 20
4.321680
  0
VERTEX
  8
0
  6
CONTINUOUS
 10
6.931760
 20
4.301000
  0
VERTEX
  8
0
  6
CONTINUOUS
 10
6.946720
 20
4.267560
  0
VERTEX
  8
0
  6
CONTINUOUS
 10
6.954200
 20
4.244240
  0
VERTEX
  8
0
  6
CONTINUOUS
 10
6.960800
 20
4.206840
  0
VERTEX
  8
0
  6
CONTINUOUS
 10
6.962120
 20
4.181320
  0
VERTEX
  8
0
  6
CONTINUOUS
 10
6.963000
 20
4.183520
  0
VERTEX
  8
0
  6
CONTINUOUS
 10
6.963000
 20
3.842960
  0
VERTEX
  8
0
  6
CONTINUOUS
 10
6.962560
 20
3.843840
  0
VERTEX
  8
0
  6
CONTINUOUS
 10
6.460520
 20
3.843840
  0
VERTEX
  8
0
  6
CONTINUOUS
 10
6.460520
 20
3.165800
  0
VERTEX
  8
0
  6
CONTINUOUS
 10
4.463800
 20
3.165800
  0
VERTEX
  8
0
  6
CONTINUOUS
 10
4.464240
 20
4.195400
  0
VERTEX
  8
0
  6
CONTINUOUS
 10
4.466880
 20
4.220920
  0
VERTEX
  8
0
  6
CONTINUOUS
 10
4.475240
 20
4.257440
  0
VERTEX
  8
0
  6
CONTINUOUS
 10
4.483600
 20
4.280320
  0
VERTEX
  8
0
  6
CONTINUOUS
 10
4.494160
 20
4.302320
  0
VERTEX
  8
0
  6
CONTINUOUS
 10
4.506480
 20
4.323000
  0
VERTEX
  8
0
  6
CONTINUOUS
 10
4.521000
 20
4.342360
  0
VERTEX
  8
0
  6
CONTINUOUS
 10
4.537280
 20
4.359960
  0
VERTEX
  8
0
  6
CONTINUOUS
 10
4.554880
 20
4.376240
  0
VERTEX
  8
0
  6
CONTINUOUS
 10
4.574240
 20
4.390760
  0
VERTEX
  8
0
  6
CONTINUOUS
 10
4.594920
 20
4.403080
  0
VERTEX
  8
0
  6
CONTINUOUS
 10
4.628360
 20
4.418040
  0
VERTEX
  8
0
  6
CONTINUOUS
 10
4.651680
 20
4.425520
  0
VERTEX
  8
0
  6
CONTINUOUS
 10
4.689080
 20
4.432120
  0
VERTEX
  8
0
  6
CONTINUOUS
 10
4.714600
 20
4.433440
  0
VERTEX
  8
0
  6
CONTINUOUS
 10
6.703840
 20
4.433440
  0
VERTEX
  8
0
  6
CONTINUOUS
 10
6.711320
 20
4.432120
  0
SEQEND
  8
0
  0
SOLID
  8
0
 62
    15
 10
6.964760
 20
2.198240
 11
7.612880
 21
2.583240
 12
6.969600
 22
2.147640
 13
7.618160
 23
2.532640
  0
POLYLINE
  8
0
  6
CONTINUOUS
 66
     1
 40
0.000000
 41
0.000000
  0
VERTEX
  8
0
  6
CONTINUOUS
 10
6.964760
 20
2.198240
  0
VERTEX
  8
0
  6
CONTINUOUS
 10
7.612880
 20
2.583240
  0
VERTEX
  8
0
  6
CONTINUOUS
 10
7.618160
 20
2.532640
  0
VERTEX
  8
0
  6
CONTINUOUS
 10
6.969600
 20
2.147640
  0
VERTEX
  8
0
  6
CONTINUOUS
 10
6.964760
 20
2.198240
  0
SEQEND
  8
0
  0
SOLID
  8
0
 62
    15
 10
6.769400
 20
2.393160
 11
7.417960
 21
2.778160
 12
6.816480
 22
2.378640
 13
7.465040
 23
2.763640
  0
POLYLINE
  8
0
  6
CONTINUOUS
 66
     1
 40
0.000000
 41
0.000000
  0
VERTEX
  8
0
  6
CONTINUOUS
 10
6.769400
 20
2.393160
  0
VERTEX
  8
0
  6
CONTINUOUS
 10
7.417960
 20
2.778160
  0
VERTEX
  8
0
  6
CONTINUOUS
 10
7.465040
 20
2.763640
  0
VERTEX
  8
0
  6
CONTINUOUS
 10
6.816480
 20
2.378640
  0
VERTEX
  8
0
  6
CONTINUOUS
 10
6.769400
 20
2.393160
  0
SEQEND
  8
0
  0
SOLID
  8
0
 62
    15
 10
6.816480
 20
2.378640
 11
7.465040
 21
2.763640
 12
6.859160
 22
2.355760
 13
7.507280
 23
2.740760
  0
POLYLINE
  8
0
  6
CONTINUOUS
 66
     1
 40
0.000000
 41
0.000000
  0
VERTEX
  8
0
  6
CONTINUOUS
 10
6.816480
 20
2.378640
  0
VERTEX
  8
0
  6
CONTINUOUS
 10
7.465040
 20
2.763640
  0
VERTEX
  8
0
  6
CONTINUOUS
 10
7.507280
 20
2.740760
  0
VERTEX
  8
0
  6
CONTINUOUS
 10
6.859160
 20
2.355760
  0
VERTEX
  8
0
  6
CONTINUOUS
 10
6.816480
 20
2.378640
  0
SEQEND
  8
0
  0
SOLID
  8
0
 62
    15
 10
6.859160
 20
2.355760
 11
7.507280
 21
2.740760
 12
6.896120
 22
2.324960
 13
7.544680
 23
2.709960
  0
POLYLINE
  8
0
  6
CONTINUOUS
 66
     1
 40
0.000000
 41
0.000000
  0
VERTEX
  8
0
  6
CONTINUOUS
 10
6.859160
 20
2.355760
  0
VERTEX
  8
0
  6
CONTINUOUS
 10
7.507280
 20
2.740760
  0
VERTEX
  8
0
  6
CONTINUOUS
 10
7.544680
 20
2.709960
  0
VERTEX
  8
0
  6
CONTINUOUS
 10
6.896120
 20
2.324960
  0
VERTEX
  8
0
  6
CONTINUOUS
 10
6.859160
 20
2.355760
  0
SEQEND
  8
0
  0
SOLID
  8
0
 62
    15
 10
6.896120
 20
2.324960
 11
7.544680
 21
2.709960
 12
6.926920
 22
2.288000
 13
7.575040
 23
2.673000
  0
POLYLINE
  8
0
  6
CONTINUOUS
 66
     1
 40
0.000000
 41
0.000000
  0
VERTEX
  8
0
  6
CONTINUOUS
 10
6.896120
 20
2.324960
  0
VERTEX
  8
0
  6
CONTINUOUS
 10
7.544680
 20
2.709960
  0
VERTEX
  8
0
  6
CONTINUOUS
 10
7.575040
 20
2.673000
  0
VERTEX
  8
0
  6
CONTINUOUS
 10
6.926920
 20
2.288000
  0
VERTEX
  8
0
  6
CONTINUOUS
 10
6.896120
 20
2.324960
  0
SEQEND
  8
0
  0
SOLID
  8
0
 62
    15
 10
6.926920
 20
2.288000
 11
7.575040
 21
2.673000
 12
6.950240
 22
2.245320
 13
7.598360
 23
2.630320
  0
POLYLINE
  8
0
  6
CONTINUOUS
 66
     1
 40
0.000000
 41
0.000000
  0
VERTEX
  8
0
  6
CONTINUOUS
 10
6.926920
 20
2.288000
  0
VERTEX
  8
0
  6
CONTINUOUS
 10
7.575040
 20
2.673000
  0
VERTEX
  8
0
  6
CONTINUOUS
 10
7.598360
 20
2.630320
  0
VERTEX
  8
0
  6
CONTINUOUS
 10
6.950240
 20
2.245320
  0
VERTEX
  8
0
  6
CONTINUOUS
 10
6.926920
 20
2.288000
  0
SEQEND
  8
0
  0
SOLID
  8
0
 62
    15
 10
6.950240
 20
2.245320
 11
7.598360
 21
2.630320
 12
6.964760
 22
2.198240
 13
7.612880
 23
2.583240
  0
POLYLINE
  8
0
  6
CONTINUOUS
 66
     1
 40
0.000000
 41
0.000000
  0
VERTEX
  8
0
  6
CONTINUOUS
 10
6.950240
 20
2.245320
  0
VERTEX
  8
0
  6
CONTINUOUS
 10
7.598360
 20
2.630320
  0
VERTEX
  8
0
  6
CONTINUOUS
 10
7.612880
 20
2.583240
  0
VERTEX
  8
0
  6
CONTINUOUS
 10
6.964760
 20
2.198240
  0
VERTEX
  8
0
  6
CONTINUOUS
 10
6.950240
 20
2.245320
  0
SEQEND
  8
0
  0
SOLID
  8
0
 62
    15
 10
6.718800
 20
2.398440
 11
7.367360
 21
2.783440
 12
6.769400
 22
2.393160
 13
7.417960
 23
2.778160
  0
POLYLINE
  8
0
  6
CONTINUOUS
 66
     1
 40
0.000000
 41
0.000000
  0
VERTEX
  8
0
  6
CONTINUOUS
 10
6.718800
 20
2.398440
  0
VERTEX
  8
0
  6
CONTINUOUS
 10
7.367360
 20
2.783440
  0
VERTEX
  8
0
  6
CONTINUOUS
 10
7.417960
 20
2.778160
  0
VERTEX
  8
0
  6
CONTINUOUS
 10
6.769400
 20
2.393160
  0
VERTEX
  8
0
  6
CONTINUOUS
 10
6.718800
 20
2.398440
  0
SEQEND
  8
0
  0
SOLID
  8
0
 62
    15
 10
6.468000
 20
1.810160
 11
7.116120
 21
2.195160
 12
6.468000
 22
1.132120
 13
7.116120
 23
1.517120
  0
POLYLINE
  8
0
  6
CONTINUOUS
 66
     1
 40
0.000000
 41
0.000000
  0
VERTEX
  8
0
  6
CONTINUOUS
 10
6.468000
 20
1.810160
  0
VERTEX
  8
0
  6
CONTINUOUS
 10
7.116120
 20
2.195160
  0
VERTEX
  8
0
  6
CONTINUOUS
 10
7.116120
 20
1.517120
  0
VERTEX
  8
0
  6
CONTINUOUS
 10
6.468000
 20
1.132120
  0
VERTEX
  8
0
  6
CONTINUOUS
 10
6.468000
 20
1.810160
  0
SEQEND
  8
0
  0
SOLID
  8
0
 62
    15
 10
6.970480
 20
2.149400
 11
7.618600
 21
2.534400
 12
6.970480
 22
1.809280
 13
7.618600
 23
2.194280
  0
POLYLINE
  8
0
  6
CONTINUOUS
 66
     1
 40
0.000000
 41
0.000000
  0
VERTEX
  8
0
  6
CONTINUOUS
 10
6.970480
 20
2.149400
  0
VERTEX
  8
0
  6
CONTINUOUS
 10
7.618600
 20
2.534400
  0
VERTEX
  8
0
  6
CONTINUOUS
 10
7.618600
 20
2.194280
  0
VERTEX
  8
0
  6
CONTINUOUS
 10
6.970480
 20
1.809280
  0
VERTEX
  8
0
  6
CONTINUOUS
 10
6.970480
 20
2.149400
  0
SEQEND
  8
0
  0
SOLID
  8
0
 62
    15
 10
4.581720
 20
2.356640
 11
5.229840
 21
2.741640
 12
4.624400
 22
2.379960
 13
5.272520
 23
2.764960
  0
POLYLINE
  8
0
  6
CONTINUOUS
 66
     1
 40
0.000000
 41
0.000000
  0
VERTEX
  8
0
  6
CONTINUOUS
 10
4.581720
 20
2.356640
  0
VERTEX
  8
0
  6
CONTINUOUS
 10
5.229840
 20
2.741640
  0
VERTEX
  8
0
  6
CONTINUOUS
 10
5.272520
 20
2.764960
  0
VERTEX
  8
0
  6
CONTINUOUS
 10
4.624400
 20
2.379960
  0
VERTEX
  8
0
  6
CONTINUOUS
 10
4.581720
 20
2.356640
  0
SEQEND
  8
0
  0
SOLID
  8
0
 62
    15
 10
4.624400
 20
2.379960
 11
5.272520
 21
2.764960
 12
4.671480
 22
2.394480
 13
5.319600
 23
2.779480
  0
POLYLINE
  8
0
  6
CONTINUOUS
 66
     1
 40
0.000000
 41
0.000000
  0
VERTEX
  8
0
  6
CONTINUOUS
 10
4.624400
 20
2.379960
  0
VERTEX
  8
0
  6
CONTINUOUS
 10
5.272520
 20
2.764960
  0
VERTEX
  8
0
  6
CONTINUOUS
 10
5.319600
 20
2.779480
  0
VERTEX
  8
0
  6
CONTINUOUS
 10
4.671480
 20
2.394480
  0
VERTEX
  8
0
  6
CONTINUOUS
 10
4.624400
 20
2.379960
  0
SEQEND
  8
0
  0
SOLID
  8
0
 62
    15
 10
4.671480
 20
2.394480
 11
5.319600
 21
2.779480
 12
4.722080
 22
2.399320
 13
5.370200
 23
2.784320
  0
POLYLINE
  8
0
  6
CONTINUOUS
 66
     1
 40
0.000000
 41
0.000000
  0
VERTEX
  8
0
  6
CONTINUOUS
 10
4.671480
 20
2.394480
  0
VERTEX
  8
0
  6
CONTINUOUS
 10
5.319600
 20
2.779480
  0
VERTEX
  8
0
  6
CONTINUOUS
 10
5.370200
 20
2.784320
  0
VERTEX
  8
0
  6
CONTINUOUS
 10
4.722080
 20
2.399320
  0
VERTEX
  8
0
  6
CONTINUOUS
 10
4.671480
 20
2.394480
  0
SEQEND
  8
0
  0
SOLID
  8
0
 62
    15
 10
4.722080
 20
2.399320
 11
5.370200
 21
2.784320
 12
6.711320
 22
2.399320
 13
7.359440
 23
2.784320
  0
POLYLINE
  8
0
  6
CONTINUOUS
 66
     1
 40
0.000000
 41
0.000000
  0
VERTEX
  8
0
  6
CONTINUOUS
 10
4.722080
 20
2.399320
  0
VERTEX
  8
0
  6
CONTINUOUS
 10
5.370200
 20
2.784320
  0
VERTEX
  8
0
  6
CONTINUOUS
 10
7.359440
 20
2.784320
  0
VERTEX
  8
0
  6
CONTINUOUS
 10
6.711320
 20
2.399320
  0
VERTEX
  8
0
  6
CONTINUOUS
 10
4.722080
 20
2.399320
  0
SEQEND
  8
0
  0
SOLID
  8
0
 62
    15
 10
6.711320
 20
2.399320
 11
7.359440
 21
2.784320
 12
6.718800
 22
2.398440
 13
7.367360
 23
2.783440
  0
POLYLINE
  8
0
  6
CONTINUOUS
 66
     1
 40
0.000000
 41
0.000000
  0
VERTEX
  8
0
  6
CONTINUOUS
 10
6.711320
 20
2.399320
  0
VERTEX
  8
0
  6
CONTINUOUS
 10
7.359440
 20
2.784320
  0
VERTEX
  8
0
  6
CONTINUOUS
 10
7.367360
 20
2.783440
  0
VERTEX
  8
0
  6
CONTINUOUS
 10
6.718800
 20
2.398440
  0
VERTEX
  8
0
  6
CONTINUOUS
 10
6.711320
 20
2.399320
  0
SEQEND
  8
0
  0
POLYLINE
  8
0
  6
CONTINUOUS
 66
     1
 40
0.000000
 41
0.000000
  0
VERTEX
  8
0
  6
CONTINUOUS
 10
6.718800
 20
2.398440
  0
VERTEX
  8
0
  6
CONTINUOUS
 10
6.769400
 20
2.393160
  0
VERTEX
  8
0
  6
CONTINUOUS
 10
6.816480
 20
2.378640
  0
VERTEX
  8
0
  6
CONTINUOUS
 10
6.859160
 20
2.355760
  0
VERTEX
  8
0
  6
CONTINUOUS
 10
6.896120
 20
2.324960
  0
VERTEX
  8
0
  6
CONTINUOUS
 10
6.926920
 20
2.288000
  0
VERTEX
  8
0
  6
CONTINUOUS
 10
6.950240
 20
2.245320
  0
VERTEX
  8
0
  6
CONTINUOUS
 10
6.964760
 20
2.198240
  0
VERTEX
  8
0
  6
CONTINUOUS
 10
6.969600
 20
2.147640
  0
VERTEX
  8
0
  6
CONTINUOUS
 10
6.970480
 20
2.149400
  0
VERTEX
  8
0
  6
CONTINUOUS
 10
6.970480
 20
1.809280
  0
VERTEX
  8
0
  6
CONTINUOUS
 10
6.970040
 20
1.810160
  0
VERTEX
  8
0
  6
CONTINUOUS
 10
6.468000
 20
1.810160
  0
VERTEX
  8
0
  6
CONTINUOUS
 10
6.468000
 20
1.132120
  0
VERTEX
  8
0
  6
CONTINUOUS
 10
4.471280
 20
1.132120
  0
VERTEX
  8
0
  6
CONTINUOUS
 10
4.471280
 20
2.148960
  0
VERTEX
  8
0
  6
CONTINUOUS
 10
4.476120
 20
2.199120
  0
VERTEX
  8
0
  6
CONTINUOUS
 10
4.491080
 20
2.246200
  0
VERTEX
  8
0
  6
CONTINUOUS
 10
4.513960
 20
2.288880
  0
VERTEX
  8
0
  6
CONTINUOUS
 10
4.544760
 20
2.326280
  0
VERTEX
  8
0
  6
CONTINUOUS
 10
4.581720
 20
2.356640
  0
VERTEX
  8
0
  6
CONTINUOUS
 10
4.624400
 20
2.379960
  0
VERTEX
  8
0
  6
CONTINUOUS
 10
4.671480
 20
2.394480
  0
VERTEX
  8
0
  6
CONTINUOUS
 10
4.722080
 20
2.399320
  0
VERTEX
  8
0
  6
CONTINUOUS
 10
6.711320
 20
2.399320
  0
VERTEX
  8
0
  6
CONTINUOUS
 10
6.718800
 20
2.398440
  0
SEQEND
  8
0
  0
TEXT
  8
0
 10
4.781920
 20
2.285800
 40
0.068450
  1
1/4" radius (use #188)
 41
1.000000
  7
SN0
 71
     0
 72
     5
 11
5.589908
 21
2.285800
  0
TEXT
  8
0
 10
5.751240
 20
0.905080
 40
0.138111
  1
BA  364
 41
1.000000
  7
SN0
 71
     0
 72
     5
 11
6.341250
 21
0.905080
  0
TEXT
  8
0
 10
5.521560
 20
0.713240
 40
0.138111
  1
1-1/4" x 2-1/2"
 41
1.000000
  7
SN0
 71
     0
 72
     5
 11
6.568833
 21
0.713240
  0
ENDSEC
  0
EOF
