  0
SECTION
  2
HEADER
  9
$ACADVER
  1
AC1006
  9
$EXTMIN
 10
3.247640
 20
0.487960
  9
$EXTMAX
 10
6.988960
 20
2.835800
  9
$LTSCALE
 40
0.044000
  9
$PDMODE
 70
    35
  9
$PDSIZE
 40
0.035200
  0
ENDSEC
  0
SECTION
  2
TABLES
  0
TABLE
  2
LTYPE
 70
     9
  0
LTYPE
  2
CONTINUOUS
 70
    64
  3
Solid line
 72
    65
 73
     0
 40
0.000000
  0
LTYPE
  2
DASHED
 70
    64
  3
__ __ __ __ __ __ __ __ __ __ __ __ __ __ __
 72
    65
 73
     2
 40
0.000330
 49
0.000220
 49
-0.000110
  0
LTYPE
  2
HIDDEN
 70
    64
  3
 _ _ _ _ _ _ _ _ _ _ _ _ _ _ _ _ _ _ _ _ _ _
 72
    65
 73
     2
 40
0.000165
 49
0.000110
 49
-0.000055
  0
LTYPE
  2
CENTER
 70
    64
  3
____ _ ____ _ ____ _ ____ _ ____ _ ____ _ ____
 72
    65
 73
     4
 40
0.000880
 49
0.000550
 49
-0.000110
 49
0.000110
 49
-0.000110
  0
LTYPE
  2
PHANTOM
 70
    64
  3
_____ _ _ _____ _ _ _____ _ _ _____ _ _ ____
 72
    65
 73
     6
 40
0.001100
 49
0.000550
 49
-0.000110
 49
0.000110
 49
-0.000110
 49
0.000110
 49
-0.000110
  0
LTYPE
  2
DOT
 70
    64
  3
...............................................
 72
    65
 73
     2
 40
0.000110
 49
0.000000
 49
-0.000110
  0
LTYPE
  2
DASHDOT
 70
    64
  3
__ . __ . __ . __ . __ . __ . __ . __ . __ . __
 72
    65
 73
     4
 40
0.000440
 49
0.000220
 49
-0.000110
 49
0.000000
 49
-0.000110
  0
LTYPE
  2
BORDER
 70
    64
  3
__ __ . __ __ . __ __ . __ __ . __ __ . __ __
 72
    65
 73
     6
 40
0.000770
 49
0.000220
 49
-0.000110
 49
0.000220
 49
-0.000110
 49
0.000000
 49
-0.000110
  0
LTYPE
  2
DIVIDE
 70
    64
  3
__ . . __ . . __ . . __ . . __ . . __ . . __
 72
    65
 73
     6
 40
0.000550
 49
0.000220
 49
-0.000110
 49
0.000000
 49
-0.000110
 49
0.000000
 49
-0.000110
  0
LTYPE
  2
DOTDOT
 70
    64
  3
 . .  . .  . .  . .  . .  . . 
 72
    65
 73
     5
 40
0.000242
 49
-0.000110
 49
0.000000
 49
-0.000110
 49
0.000000
 49
-0.000110
  0
ENDTAB
  0
TABLE
  2
STYLE
 70
     2
  0
STYLE
 70
     0
  2
SN0
 40
0.000000
 41
0.000440
 50
0.000000
 71
     0
 42
0.000000
  3
ROMAND
  0
STYLE
 70
    68
  2
SV0
 40
0.000000
 41
0.000440
 50
0.000000
 71
     0
 42
0.000000
  3
ROMAND
  0
ENDTAB
  0
TABLE
  2
LAYER
 70
     3
  0
LAYER
  2
FOREGROUND
 70
    64
 62
     7
  6
CONTINUOUS
  0
LAYER
  2
BACKGROUND
 70
    65
 62
    -7
  6
CONTINUOUS
  0
LAYER
  2
0
 70
    64
 62
     7
  6
CONTINUOUS
  0
ENDTAB
  0
ENDSEC
  0
SECTION
  2
ENTITIES
  0
POLYLINE
  8
FOREGROUND
  6
CONTINUOUS
 66
     1
 40
0.000000
 41
0.000000
  0
VERTEX
  8
FOREGROUND
  6
CONTINUOUS
 10
0.000000
 20
3.323760
  0
VERTEX
  8
FOREGROUND
  6
CONTINUOUS
 10
8.499920
 20
3.323760
  0
VERTEX
  8
FOREGROUND
  6
CONTINUOUS
 10
8.499920
 20
-7.676240
  0
VERTEX
  8
FOREGROUND
  6
CONTINUOUS
 10
0.000000
 20
-7.676240
  0
VERTEX
  8
FOREGROUND
  6
CONTINUOUS
 10
0.000000
 20
3.323760
  0
SEQEND
  8
0
  0
POLYLINE
  8
FOREGROUND
  6
CONTINUOUS
 66
     1
 40
0.000000
 41
0.000000
  0
VERTEX
  8
FOREGROUND
  6
CONTINUOUS
 10
0.000000
 20
3.323760
  0
VERTEX
  8
FOREGROUND
  6
CONTINUOUS
 10
8.499920
 20
3.323760
  0
VERTEX
  8
FOREGROUND
  6
CONTINUOUS
 10
8.499920
 20
-7.676240
  0
VERTEX
  8
FOREGROUND
  6
CONTINUOUS
 10
0.000000
 20
-7.676240
  0
VERTEX
  8
FOREGROUND
  6
CONTINUOUS
 10
0.000000
 20
3.323760
  0
SEQEND
  8
0
  0
POLYLINE
  8
0
  6
CONTINUOUS
 66
     1
 40
0.014080
 41
0.014080
  0
VERTEX
  8
0
  6
CONTINUOUS
 10
6.602200
 20
2.768040
  0
VERTEX
  8
0
  6
CONTINUOUS
 10
6.647960
 20
2.756160
  0
VERTEX
  8
0
  6
CONTINUOUS
 10
6.691520
 20
2.739880
  0
VERTEX
  8
0
  6
CONTINUOUS
 10
6.732000
 20
2.720080
  0
VERTEX
  8
0
  6
CONTINUOUS
 10
6.769840
 20
2.696760
  0
VERTEX
  8
0
  6
CONTINUOUS
 10
6.804600
 20
2.669920
  0
VERTEX
  8
0
  6
CONTINUOUS
 10
6.836720
 20
2.640000
  0
VERTEX
  8
0
  6
CONTINUOUS
 10
6.865760
 20
2.607880
  0
VERTEX
  8
0
  6
CONTINUOUS
 10
6.903600
 20
2.554640
  0
VERTEX
  8
0
  6
CONTINUOUS
 10
6.924720
 20
2.516800
  0
VERTEX
  8
0
  6
CONTINUOUS
 10
6.942760
 20
2.477200
  0
VERTEX
  8
0
  6
CONTINUOUS
 10
6.963440
 20
2.415160
  0
VERTEX
  8
0
  6
CONTINUOUS
 10
6.973120
 20
2.372480
  0
VERTEX
  8
0
  6
CONTINUOUS
 10
6.979280
 20
2.329360
  0
VERTEX
  8
0
  6
CONTINUOUS
 10
6.981480
 20
2.285360
  0
VERTEX
  8
0
  6
CONTINUOUS
 10
6.980600
 20
2.241360
  0
VERTEX
  8
0
  6
CONTINUOUS
 10
6.975760
 20
2.197800
  0
VERTEX
  8
0
  6
CONTINUOUS
 10
6.967400
 20
2.154680
  0
VERTEX
  8
0
  6
CONTINUOUS
 10
6.955080
 20
2.112000
  0
VERTEX
  8
0
  6
CONTINUOUS
 10
6.938800
 20
2.070640
  0
VERTEX
  8
0
  6
CONTINUOUS
 10
6.918560
 20
2.030160
  0
VERTEX
  8
0
  6
CONTINUOUS
 10
6.893920
 20
1.991440
  0
VERTEX
  8
0
  6
CONTINUOUS
 10
6.865760
 20
1.954920
  0
VERTEX
  8
0
  6
CONTINUOUS
 10
6.833200
 20
1.920160
  0
VERTEX
  8
0
  6
CONTINUOUS
 10
6.796240
 20
1.888040
  0
VERTEX
  8
0
  6
CONTINUOUS
 10
6.754880
 20
1.858560
  0
VERTEX
  8
0
  6
CONTINUOUS
 10
6.709120
 20
1.832160
  0
VERTEX
  8
0
  6
CONTINUOUS
 10
6.684920
 20
1.819840
  0
VERTEX
  8
0
  6
CONTINUOUS
 10
6.632560
 20
1.798720
  0
VERTEX
  8
0
  6
CONTINUOUS
 10
6.575360
 20
1.780680
  0
VERTEX
  8
0
  6
CONTINUOUS
 10
6.513760
 20
1.767040
  0
VERTEX
  8
0
  6
CONTINUOUS
 10
6.481200
 20
1.761760
  0
VERTEX
  8
0
  6
CONTINUOUS
 10
6.412560
 20
1.754720
  0
VERTEX
  8
0
  6
CONTINUOUS
 10
6.412560
 20
1.669360
  0
VERTEX
  8
0
  6
CONTINUOUS
 10
6.365480
 20
1.666280
  0
VERTEX
  8
0
  6
CONTINUOUS
 10
6.319280
 20
1.659680
  0
VERTEX
  8
0
  6
CONTINUOUS
 10
6.274840
 20
1.650000
  0
VERTEX
  8
0
  6
CONTINUOUS
 10
6.211040
 20
1.628440
  0
VERTEX
  8
0
  6
CONTINUOUS
 10
6.151640
 20
1.600280
  0
VERTEX
  8
0
  6
CONTINUOUS
 10
6.114680
 20
1.577400
  0
VERTEX
  8
0
  6
CONTINUOUS
 10
6.079920
 20
1.551880
  0
VERTEX
  8
0
  6
CONTINUOUS
 10
6.047800
 20
1.523720
  0
VERTEX
  8
0
  6
CONTINUOUS
 10
6.004680
 20
1.476200
  0
VERTEX
  8
0
  6
CONTINUOUS
 10
5.980040
 20
1.441440
  0
VERTEX
  8
0
  6
CONTINUOUS
 10
5.958040
 20
1.404480
  0
VERTEX
  8
0
  6
CONTINUOUS
 10
5.939560
 20
1.364880
  0
VERTEX
  8
0
  6
CONTINUOUS
 10
5.924600
 20
1.323520
  0
VERTEX
  8
0
  6
CONTINUOUS
 10
5.913160
 20
1.279960
  0
VERTEX
  8
0
  6
CONTINUOUS
 10
5.909200
 20
1.257520
  0
VERTEX
  8
0
  6
CONTINUOUS
 10
5.477560
 20
1.257520
  0
VERTEX
  8
0
  6
CONTINUOUS
 10
5.477560
 20
2.768040
  0
VERTEX
  8
0
  6
CONTINUOUS
 10
6.602200
 20
2.768040
  0
SEQEND
  8
0
  0
SOLID
  8
0
 62
    15
 10
3.922160
 20
1.287440
 11
4.557960
 21
1.667160
 12
3.850880
 22
1.239040
 13
4.486240
 23
1.619200
  0
POLYLINE
  8
0
  6
CONTINUOUS
 66
     1
 40
0.000000
 41
0.000000
  0
VERTEX
  8
0
  6
CONTINUOUS
 10
3.922160
 20
1.287440
  0
VERTEX
  8
0
  6
CONTINUOUS
 10
4.557960
 20
1.667160
  0
VERTEX
  8
0
  6
CONTINUOUS
 10
4.486240
 20
1.619200
  0
VERTEX
  8
0
  6
CONTINUOUS
 10
3.850880
 20
1.239040
  0
VERTEX
  8
0
  6
CONTINUOUS
 10
3.922160
 20
1.287440
  0
SEQEND
  8
0
  0
SOLID
  8
0
 62
    15
 10
4.462040
 20
2.427040
 11
5.097840
 21
2.807200
 12
4.540360
 22
2.383480
 13
5.176160
 23
2.763640
  0
POLYLINE
  8
0
  6
CONTINUOUS
 66
     1
 40
0.000000
 41
0.000000
  0
VERTEX
  8
0
  6
CONTINUOUS
 10
4.462040
 20
2.427040
  0
VERTEX
  8
0
  6
CONTINUOUS
 10
5.097840
 20
2.807200
  0
VERTEX
  8
0
  6
CONTINUOUS
 10
5.176160
 20
2.763640
  0
VERTEX
  8
0
  6
CONTINUOUS
 10
4.540360
 20
2.383480
  0
VERTEX
  8
0
  6
CONTINUOUS
 10
4.462040
 20
2.427040
  0
SEQEND
  8
0
  0
SOLID
  8
0
 62
    15
 10
4.540360
 20
2.383480
 11
5.176160
 21
2.763640
 12
4.607240
 22
2.327160
 13
5.243040
 23
2.707320
  0
POLYLINE
  8
0
  6
CONTINUOUS
 66
     1
 40
0.000000
 41
0.000000
  0
VERTEX
  8
0
  6
CONTINUOUS
 10
4.540360
 20
2.383480
  0
VERTEX
  8
0
  6
CONTINUOUS
 10
5.176160
 20
2.763640
  0
VERTEX
  8
0
  6
CONTINUOUS
 10
5.243040
 20
2.707320
  0
VERTEX
  8
0
  6
CONTINUOUS
 10
4.607240
 20
2.327160
  0
VERTEX
  8
0
  6
CONTINUOUS
 10
4.540360
 20
2.383480
  0
SEQEND
  8
0
  0
SOLID
  8
0
 62
     7
 10
4.607240
 20
2.327160
 11
5.243040
 21
2.707320
 12
4.662240
 22
2.259840
 13
5.298040
 23
2.640000
  0
POLYLINE
  8
0
  6
CONTINUOUS
 66
     1
 40
0.000000
 41
0.000000
  0
VERTEX
  8
0
  6
CONTINUOUS
 10
4.607240
 20
2.327160
  0
VERTEX
  8
0
  6
CONTINUOUS
 10
5.243040
 20
2.707320
  0
VERTEX
  8
0
  6
CONTINUOUS
 10
5.298040
 20
2.640000
  0
VERTEX
  8
0
  6
CONTINUOUS
 10
4.662240
 20
2.259840
  0
VERTEX
  8
0
  6
CONTINUOUS
 10
4.607240
 20
2.327160
  0
SEQEND
  8
0
  0
SOLID
  8
0
 62
     7
 10
4.662240
 20
2.259840
 11
5.298040
 21
2.640000
 12
4.704920
 22
2.184160
 13
5.340280
 23
2.564320
  0
POLYLINE
  8
0
  6
CONTINUOUS
 66
     1
 40
0.000000
 41
0.000000
  0
VERTEX
  8
0
  6
CONTINUOUS
 10
4.662240
 20
2.259840
  0
VERTEX
  8
0
  6
CONTINUOUS
 10
5.298040
 20
2.640000
  0
VERTEX
  8
0
  6
CONTINUOUS
 10
5.340280
 20
2.564320
  0
VERTEX
  8
0
  6
CONTINUOUS
 10
4.704920
 20
2.184160
  0
VERTEX
  8
0
  6
CONTINUOUS
 10
4.662240
 20
2.259840
  0
SEQEND
  8
0
  0
SOLID
  8
0
 62
     7
 10
4.704920
 20
2.184160
 11
5.340280
 21
2.564320
 12
4.733960
 22
2.102320
 13
5.369760
 23
2.482480
  0
POLYLINE
  8
0
  6
CONTINUOUS
 66
     1
 40
0.000000
 41
0.000000
  0
VERTEX
  8
0
  6
CONTINUOUS
 10
4.704920
 20
2.184160
  0
VERTEX
  8
0
  6
CONTINUOUS
 10
5.340280
 20
2.564320
  0
VERTEX
  8
0
  6
CONTINUOUS
 10
5.369760
 20
2.482480
  0
VERTEX
  8
0
  6
CONTINUOUS
 10
4.733960
 20
2.102320
  0
VERTEX
  8
0
  6
CONTINUOUS
 10
4.704920
 20
2.184160
  0
SEQEND
  8
0
  0
SOLID
  8
0
 62
    15
 10
4.733960
 20
2.102320
 11
5.369760
 21
2.482480
 12
4.749800
 22
2.016080
 13
5.385600
 23
2.396240
  0
POLYLINE
  8
0
  6
CONTINUOUS
 66
     1
 40
0.000000
 41
0.000000
  0
VERTEX
  8
0
  6
CONTINUOUS
 10
4.733960
 20
2.102320
  0
VERTEX
  8
0
  6
CONTINUOUS
 10
5.369760
 20
2.482480
  0
VERTEX
  8
0
  6
CONTINUOUS
 10
5.385600
 20
2.396240
  0
VERTEX
  8
0
  6
CONTINUOUS
 10
4.749800
 20
2.016080
  0
VERTEX
  8
0
  6
CONTINUOUS
 10
4.733960
 20
2.102320
  0
SEQEND
  8
0
  0
SOLID
  8
0
 62
    15
 10
4.749800
 20
2.016080
 11
5.385600
 21
2.396240
 12
4.751120
 22
1.928520
 13
5.386920
 23
2.308680
  0
POLYLINE
  8
0
  6
CONTINUOUS
 66
     1
 40
0.000000
 41
0.000000
  0
VERTEX
  8
0
  6
CONTINUOUS
 10
4.749800
 20
2.016080
  0
VERTEX
  8
0
  6
CONTINUOUS
 10
5.385600
 20
2.396240
  0
VERTEX
  8
0
  6
CONTINUOUS
 10
5.386920
 20
2.308680
  0
VERTEX
  8
0
  6
CONTINUOUS
 10
4.751120
 20
1.928520
  0
VERTEX
  8
0
  6
CONTINUOUS
 10
4.749800
 20
2.016080
  0
SEQEND
  8
0
  0
SOLID
  8
0
 62
    15
 10
4.751120
 20
1.928520
 11
5.386920
 21
2.308680
 12
4.737920
 22
1.841840
 13
5.373720
 23
2.222000
  0
POLYLINE
  8
0
  6
CONTINUOUS
 66
     1
 40
0.000000
 41
0.000000
  0
VERTEX
  8
0
  6
CONTINUOUS
 10
4.751120
 20
1.928520
  0
VERTEX
  8
0
  6
CONTINUOUS
 10
5.386920
 20
2.308680
  0
VERTEX
  8
0
  6
CONTINUOUS
 10
5.373720
 20
2.222000
  0
VERTEX
  8
0
  6
CONTINUOUS
 10
4.737920
 20
1.841840
  0
VERTEX
  8
0
  6
CONTINUOUS
 10
4.751120
 20
1.928520
  0
SEQEND
  8
0
  0
SOLID
  8
0
 62
    15
 10
4.737920
 20
1.841840
 11
5.373720
 21
2.222000
 12
4.709320
 22
1.757800
 13
5.345120
 23
2.137960
  0
POLYLINE
  8
0
  6
CONTINUOUS
 66
     1
 40
0.000000
 41
0.000000
  0
VERTEX
  8
0
  6
CONTINUOUS
 10
4.737920
 20
1.841840
  0
VERTEX
  8
0
  6
CONTINUOUS
 10
5.373720
 20
2.222000
  0
VERTEX
  8
0
  6
CONTINUOUS
 10
5.345120
 20
2.137960
  0
VERTEX
  8
0
  6
CONTINUOUS
 10
4.709320
 20
1.757800
  0
VERTEX
  8
0
  6
CONTINUOUS
 10
4.737920
 20
1.841840
  0
SEQEND
  8
0
  0
SOLID
  8
0
 62
    15
 10
4.372720
 20
2.455200
 11
5.008520
 21
2.834920
 12
4.462040
 22
2.427040
 13
5.097840
 23
2.807200
  0
POLYLINE
  8
0
  6
CONTINUOUS
 66
     1
 40
0.000000
 41
0.000000
  0
VERTEX
  8
0
  6
CONTINUOUS
 10
4.372720
 20
2.455200
  0
VERTEX
  8
0
  6
CONTINUOUS
 10
5.008520
 20
2.834920
  0
VERTEX
  8
0
  6
CONTINUOUS
 10
5.097840
 20
2.807200
  0
VERTEX
  8
0
  6
CONTINUOUS
 10
4.462040
 20
2.427040
  0
VERTEX
  8
0
  6
CONTINUOUS
 10
4.372720
 20
2.455200
  0
SEQEND
  8
0
  0
SOLID
  8
0
 62
    15
 10
3.850880
 20
1.239040
 11
4.486240
 21
1.619200
 12
3.789280
 22
1.179640
 13
4.424640
 23
1.559800
  0
POLYLINE
  8
0
  6
CONTINUOUS
 66
     1
 40
0.000000
 41
0.000000
  0
VERTEX
  8
0
  6
CONTINUOUS
 10
3.850880
 20
1.239040
  0
VERTEX
  8
0
  6
CONTINUOUS
 10
4.486240
 20
1.619200
  0
VERTEX
  8
0
  6
CONTINUOUS
 10
4.424640
 20
1.559800
  0
VERTEX
  8
0
  6
CONTINUOUS
 10
3.789280
 20
1.179640
  0
VERTEX
  8
0
  6
CONTINUOUS
 10
3.850880
 20
1.239040
  0
SEQEND
  8
0
  0
SOLID
  8
0
 62
    15
 10
4.603720
 20
1.607320
 11
5.239080
 21
1.987480
 12
4.525400
 22
1.545720
 13
5.161200
 23
1.925880
  0
POLYLINE
  8
0
  6
CONTINUOUS
 66
     1
 40
0.000000
 41
0.000000
  0
VERTEX
  8
0
  6
CONTINUOUS
 10
4.603720
 20
1.607320
  0
VERTEX
  8
0
  6
CONTINUOUS
 10
5.239080
 20
1.987480
  0
VERTEX
  8
0
  6
CONTINUOUS
 10
5.161200
 20
1.925880
  0
VERTEX
  8
0
  6
CONTINUOUS
 10
4.525400
 20
1.545720
  0
VERTEX
  8
0
  6
CONTINUOUS
 10
4.603720
 20
1.607320
  0
SEQEND
  8
0
  0
SOLID
  8
0
 62
    15
 10
3.789280
 20
1.179640
 11
4.424640
 21
1.559800
 12
3.739120
 22
1.110120
 13
4.374920
 23
1.490280
  0
POLYLINE
  8
0
  6
CONTINUOUS
 66
     1
 40
0.000000
 41
0.000000
  0
VERTEX
  8
0
  6
CONTINUOUS
 10
3.789280
 20
1.179640
  0
VERTEX
  8
0
  6
CONTINUOUS
 10
4.424640
 20
1.559800
  0
VERTEX
  8
0
  6
CONTINUOUS
 10
4.374920
 20
1.490280
  0
VERTEX
  8
0
  6
CONTINUOUS
 10
3.739120
 20
1.110120
  0
VERTEX
  8
0
  6
CONTINUOUS
 10
3.789280
 20
1.179640
  0
SEQEND
  8
0
  0
SOLID
  8
0
 62
    15
 10
3.739120
 20
1.110120
 11
4.374920
 21
1.490280
 12
3.702600
 22
1.031800
 13
4.337960
 23
1.411960
  0
POLYLINE
  8
0
  6
CONTINUOUS
 66
     1
 40
0.000000
 41
0.000000
  0
VERTEX
  8
0
  6
CONTINUOUS
 10
3.739120
 20
1.110120
  0
VERTEX
  8
0
  6
CONTINUOUS
 10
4.374920
 20
1.490280
  0
VERTEX
  8
0
  6
CONTINUOUS
 10
4.337960
 20
1.411960
  0
VERTEX
  8
0
  6
CONTINUOUS
 10
3.702600
 20
1.031800
  0
VERTEX
  8
0
  6
CONTINUOUS
 10
3.739120
 20
1.110120
  0
SEQEND
  8
0
  0
SOLID
  8
0
 62
    15
 10
4.183520
 20
1.441880
 11
4.818880
 21
1.821600
 12
4.183520
 22
1.356520
 13
4.818880
 23
1.736680
  0
POLYLINE
  8
0
  6
CONTINUOUS
 66
     1
 40
0.000000
 41
0.000000
  0
VERTEX
  8
0
  6
CONTINUOUS
 10
4.183520
 20
1.441880
  0
VERTEX
  8
0
  6
CONTINUOUS
 10
4.818880
 20
1.821600
  0
VERTEX
  8
0
  6
CONTINUOUS
 10
4.818880
 20
1.736680
  0
VERTEX
  8
0
  6
CONTINUOUS
 10
4.183520
 20
1.356520
  0
VERTEX
  8
0
  6
CONTINUOUS
 10
4.183520
 20
1.441880
  0
SEQEND
  8
0
  0
SOLID
  8
0
 62
    15
 10
4.664880
 20
1.678600
 11
5.300240
 21
2.058760
 12
4.603720
 22
1.607320
 13
5.239080
 23
1.987480
  0
POLYLINE
  8
0
  6
CONTINUOUS
 66
     1
 40
0.000000
 41
0.000000
  0
VERTEX
  8
0
  6
CONTINUOUS
 10
4.664880
 20
1.678600
  0
VERTEX
  8
0
  6
CONTINUOUS
 10
5.300240
 20
2.058760
  0
VERTEX
  8
0
  6
CONTINUOUS
 10
5.239080
 20
1.987480
  0
VERTEX
  8
0
  6
CONTINUOUS
 10
4.603720
 20
1.607320
  0
VERTEX
  8
0
  6
CONTINUOUS
 10
4.664880
 20
1.678600
  0
SEQEND
  8
0
  0
SOLID
  8
0
 62
    15
 10
4.709320
 20
1.757800
 11
5.345120
 21
2.137960
 12
4.664880
 22
1.678600
 13
5.300240
 23
2.058760
  0
POLYLINE
  8
0
  6
CONTINUOUS
 66
     1
 40
0.000000
 41
0.000000
  0
VERTEX
  8
0
  6
CONTINUOUS
 10
4.709320
 20
1.757800
  0
VERTEX
  8
0
  6
CONTINUOUS
 10
5.345120
 20
2.137960
  0
VERTEX
  8
0
  6
CONTINUOUS
 10
5.300240
 20
2.058760
  0
VERTEX
  8
0
  6
CONTINUOUS
 10
4.664880
 20
1.678600
  0
VERTEX
  8
0
  6
CONTINUOUS
 10
4.709320
 20
1.757800
  0
SEQEND
  8
0
  0
SOLID
  8
0
 62
    15
 10
3.702600
 20
1.031800
 11
4.337960
 21
1.411960
 12
3.680160
 22
0.944680
 13
4.315520
 23
1.324840
  0
POLYLINE
  8
0
  6
CONTINUOUS
 66
     1
 40
0.000000
 41
0.000000
  0
VERTEX
  8
0
  6
CONTINUOUS
 10
3.702600
 20
1.031800
  0
VERTEX
  8
0
  6
CONTINUOUS
 10
4.337960
 20
1.411960
  0
VERTEX
  8
0
  6
CONTINUOUS
 10
4.315520
 20
1.324840
  0
VERTEX
  8
0
  6
CONTINUOUS
 10
3.680160
 20
0.944680
  0
VERTEX
  8
0
  6
CONTINUOUS
 10
3.702600
 20
1.031800
  0
SEQEND
  8
0
  0
SOLID
  8
0
 62
    15
 10
3.248520
 20
2.455200
 11
3.883880
 21
2.834920
 12
4.372720
 22
2.455200
 13
5.008520
 23
2.834920
  0
POLYLINE
  8
0
  6
CONTINUOUS
 66
     1
 40
0.000000
 41
0.000000
  0
VERTEX
  8
0
  6
CONTINUOUS
 10
3.248520
 20
2.455200
  0
VERTEX
  8
0
  6
CONTINUOUS
 10
3.883880
 20
2.834920
  0
VERTEX
  8
0
  6
CONTINUOUS
 10
5.008520
 20
2.834920
  0
VERTEX
  8
0
  6
CONTINUOUS
 10
4.372720
 20
2.455200
  0
VERTEX
  8
0
  6
CONTINUOUS
 10
3.248520
 20
2.455200
  0
SEQEND
  8
0
  0
POLYLINE
  8
0
  6
CONTINUOUS
 66
     1
 40
0.000000
 41
0.000000
  0
VERTEX
  8
0
  6
CONTINUOUS
 10
4.372720
 20
2.455200
  0
VERTEX
  8
0
  6
CONTINUOUS
 10
4.462040
 20
2.427040
  0
VERTEX
  8
0
  6
CONTINUOUS
 10
4.540360
 20
2.383480
  0
VERTEX
  8
0
  6
CONTINUOUS
 10
4.607240
 20
2.327160
  0
VERTEX
  8
0
  6
CONTINUOUS
 10
4.662240
 20
2.259840
  0
VERTEX
  8
0
  6
CONTINUOUS
 10
4.704920
 20
2.184160
  0
VERTEX
  8
0
  6
CONTINUOUS
 10
4.733960
 20
2.102320
  0
VERTEX
  8
0
  6
CONTINUOUS
 10
4.749800
 20
2.016080
  0
VERTEX
  8
0
  6
CONTINUOUS
 10
4.751120
 20
1.928520
  0
VERTEX
  8
0
  6
CONTINUOUS
 10
4.737920
 20
1.841840
  0
VERTEX
  8
0
  6
CONTINUOUS
 10
4.709320
 20
1.757800
  0
VERTEX
  8
0
  6
CONTINUOUS
 10
4.664880
 20
1.678600
  0
VERTEX
  8
0
  6
CONTINUOUS
 10
4.603720
 20
1.607320
  0
VERTEX
  8
0
  6
CONTINUOUS
 10
4.525400
 20
1.545720
  0
VERTEX
  8
0
  6
CONTINUOUS
 10
4.429920
 20
1.496000
  0
VERTEX
  8
0
  6
CONTINUOUS
 10
4.315960
 20
1.460360
  0
VERTEX
  8
0
  6
CONTINUOUS
 10
4.183520
 20
1.441880
  0
VERTEX
  8
0
  6
CONTINUOUS
 10
4.183520
 20
1.356520
  0
VERTEX
  8
0
  6
CONTINUOUS
 10
4.090240
 20
1.346840
  0
VERTEX
  8
0
  6
CONTINUOUS
 10
4.002680
 20
1.323520
  0
VERTEX
  8
0
  6
CONTINUOUS
 10
3.922160
 20
1.287440
  0
VERTEX
  8
0
  6
CONTINUOUS
 10
3.850880
 20
1.239040
  0
VERTEX
  8
0
  6
CONTINUOUS
 10
3.789280
 20
1.179640
  0
VERTEX
  8
0
  6
CONTINUOUS
 10
3.739120
 20
1.110120
  0
VERTEX
  8
0
  6
CONTINUOUS
 10
3.702600
 20
1.031800
  0
VERTEX
  8
0
  6
CONTINUOUS
 10
3.680160
 20
0.944680
  0
VERTEX
  8
0
  6
CONTINUOUS
 10
3.248520
 20
0.944680
  0
VERTEX
  8
0
  6
CONTINUOUS
 10
3.248520
 20
2.455200
  0
VERTEX
  8
0
  6
CONTINUOUS
 10
4.372720
 20
2.455200
  0
SEQEND
  8
0
  0
TEXT
  8
0
 10
4.023360
 20
0.722920
 40
0.138216
  1
BA  363
 41
1.000000
  7
SN0
 71
     0
 72
     5
 11
4.613553
 21
0.722920
  0
TEXT
  8
0
 10
3.793680
 20
0.531520
 40
0.138216
  1
1-1/2" x 1-1/2"
 41
1.000000
  7
SN0
 71
     0
 72
     5
 11
4.841063
 21
0.531520
  0
ENDSEC
  0
EOF
