  0
SECTION
  2
HEADER
  9
$ACADVER
  1
AC1006
  9
$EXTMIN
 10
3.191760
 20
0.490600
  9
$EXTMAX
 10
7.681520
 20
4.606360
  9
$LTSCALE
 40
0.044000
  9
$PDMODE
 70
    35
  9
$PDSIZE
 40
0.035200
  0
ENDSEC
  0
SECTION
  2
TABLES
  0
TABLE
  2
LTYPE
 70
     9
  0
LTYPE
  2
CONTINUOUS
 70
    64
  3
Solid line
 72
    65
 73
     0
 40
0.000000
  0
LTYPE
  2
DASHED
 70
    64
  3
__ __ __ __ __ __ __ __ __ __ __ __ __ __ __
 72
    65
 73
     2
 40
0.000330
 49
0.000220
 49
-0.000110
  0
LTYPE
  2
HIDDEN
 70
    64
  3
 _ _ _ _ _ _ _ _ _ _ _ _ _ _ _ _ _ _ _ _ _ _
 72
    65
 73
     2
 40
0.000165
 49
0.000110
 49
-0.000055
  0
LTYPE
  2
CENTER
 70
    64
  3
____ _ ____ _ ____ _ ____ _ ____ _ ____ _ ____
 72
    65
 73
     4
 40
0.000880
 49
0.000550
 49
-0.000110
 49
0.000110
 49
-0.000110
  0
LTYPE
  2
PHANTOM
 70
    64
  3
_____ _ _ _____ _ _ _____ _ _ _____ _ _ ____
 72
    65
 73
     6
 40
0.001100
 49
0.000550
 49
-0.000110
 49
0.000110
 49
-0.000110
 49
0.000110
 49
-0.000110
  0
LTYPE
  2
DOT
 70
    64
  3
...............................................
 72
    65
 73
     2
 40
0.000110
 49
0.000000
 49
-0.000110
  0
LTYPE
  2
DASHDOT
 70
    64
  3
__ . __ . __ . __ . __ . __ . __ . __ . __ . __
 72
    65
 73
     4
 40
0.000440
 49
0.000220
 49
-0.000110
 49
0.000000
 49
-0.000110
  0
LTYPE
  2
BORDER
 70
    64
  3
__ __ . __ __ . __ __ . __ __ . __ __ . __ __
 72
    65
 73
     6
 40
0.000770
 49
0.000220
 49
-0.000110
 49
0.000220
 49
-0.000110
 49
0.000000
 49
-0.000110
  0
LTYPE
  2
DIVIDE
 70
    64
  3
__ . . __ . . __ . . __ . . __ . . __ . . __
 72
    65
 73
     6
 40
0.000550
 49
0.000220
 49
-0.000110
 49
0.000000
 49
-0.000110
 49
0.000000
 49
-0.000110
  0
LTYPE
  2
DOTDOT
 70
    64
  3
 . .  . .  . .  . .  . .  . . 
 72
    65
 73
     5
 40
0.000242
 49
-0.000110
 49
0.000000
 49
-0.000110
 49
0.000000
 49
-0.000110
  0
ENDTAB
  0
TABLE
  2
STYLE
 70
     2
  0
STYLE
 70
     0
  2
SN0
 40
0.000000
 41
0.000440
 50
0.000000
 71
     0
 42
0.000000
  3
ROMAND
  0
STYLE
 70
    68
  2
SV0
 40
0.000000
 41
0.000440
 50
0.000000
 71
     0
 42
0.000000
  3
ROMAND
  0
ENDTAB
  0
TABLE
  2
LAYER
 70
     3
  0
LAYER
  2
FOREGROUND
 70
    64
 62
     7
  6
CONTINUOUS
  0
LAYER
  2
BACKGROUND
 70
    65
 62
    -7
  6
CONTINUOUS
  0
LAYER
  2
0
 70
    64
 62
     7
  6
CONTINUOUS
  0
ENDTAB
  0
ENDSEC
  0
SECTION
  2
ENTITIES
  0
POLYLINE
  8
FOREGROUND
  6
CONTINUOUS
 66
     1
 40
0.000000
 41
0.000000
  0
VERTEX
  8
FOREGROUND
  6
CONTINUOUS
 10
0.000000
 20
5.096960
  0
VERTEX
  8
FOREGROUND
  6
CONTINUOUS
 10
8.499920
 20
5.096960
  0
VERTEX
  8
FOREGROUND
  6
CONTINUOUS
 10
8.499920
 20
-5.903040
  0
VERTEX
  8
FOREGROUND
  6
CONTINUOUS
 10
0.000000
 20
-5.903040
  0
VERTEX
  8
FOREGROUND
  6
CONTINUOUS
 10
0.000000
 20
5.096960
  0
SEQEND
  8
0
  0
POLYLINE
  8
FOREGROUND
  6
CONTINUOUS
 66
     1
 40
0.000000
 41
0.000000
  0
VERTEX
  8
FOREGROUND
  6
CONTINUOUS
 10
0.000000
 20
5.096960
  0
VERTEX
  8
FOREGROUND
  6
CONTINUOUS
 10
8.499920
 20
5.096960
  0
VERTEX
  8
FOREGROUND
  6
CONTINUOUS
 10
8.499920
 20
-5.903040
  0
VERTEX
  8
FOREGROUND
  6
CONTINUOUS
 10
0.000000
 20
-5.903040
  0
VERTEX
  8
FOREGROUND
  6
CONTINUOUS
 10
0.000000
 20
5.096960
  0
SEQEND
  8
0
  0
POLYLINE
  8
0
  6
CONTINUOUS
 66
     1
 40
0.014080
 41
0.014080
  0
VERTEX
  8
0
  6
CONTINUOUS
 10
6.653240
 20
4.491960
  0
VERTEX
  8
0
  6
CONTINUOUS
 10
6.593840
 20
4.455000
  0
VERTEX
  8
0
  6
CONTINUOUS
 10
6.534440
 20
4.425080
  0
VERTEX
  8
0
  6
CONTINUOUS
 10
6.475040
 20
4.401760
  0
VERTEX
  8
0
  6
CONTINUOUS
 10
6.416520
 20
4.385480
  0
VERTEX
  8
0
  6
CONTINUOUS
 10
6.387480
 20
4.379320
  0
VERTEX
  8
0
  6
CONTINUOUS
 10
6.330280
 20
4.371840
  0
VERTEX
  8
0
  6
CONTINUOUS
 10
6.274400
 20
4.370080
  0
VERTEX
  8
0
  6
CONTINUOUS
 10
6.220280
 20
4.373160
  0
VERTEX
  8
0
  6
CONTINUOUS
 10
6.168360
 20
4.381080
  0
VERTEX
  8
0
  6
CONTINUOUS
 10
6.118640
 20
4.393840
  0
VERTEX
  8
0
  6
CONTINUOUS
 10
6.072440
 20
4.410120
  0
VERTEX
  8
0
  6
CONTINUOUS
 10
6.028880
 20
4.430360
  0
VERTEX
  8
0
  6
CONTINUOUS
 10
5.989280
 20
4.454120
  0
VERTEX
  8
0
  6
CONTINUOUS
 10
5.953640
 20
4.480520
  0
VERTEX
  8
0
  6
CONTINUOUS
 10
5.921960
 20
4.509560
  0
VERTEX
  8
0
  6
CONTINUOUS
 10
5.895120
 20
4.540800
  0
VERTEX
  8
0
  6
CONTINUOUS
 10
5.883680
 20
4.557080
  0
VERTEX
  8
0
  6
CONTINUOUS
 10
5.573480
 20
4.311560
  0
VERTEX
  8
0
  6
CONTINUOUS
 10
5.558080
 20
4.334880
  0
VERTEX
  8
0
  6
CONTINUOUS
 10
5.522880
 20
4.378440
  0
VERTEX
  8
0
  6
CONTINUOUS
 10
5.503520
 20
4.399560
  0
VERTEX
  8
0
  6
CONTINUOUS
 10
5.460840
 20
4.437840
  0
VERTEX
  8
0
  6
CONTINUOUS
 10
5.413320
 20
4.471280
  0
VERTEX
  8
0
  6
CONTINUOUS
 10
5.361400
 20
4.499880
  0
VERTEX
  8
0
  6
CONTINUOUS
 10
5.333240
 20
4.511760
  0
VERTEX
  8
0
  6
CONTINUOUS
 10
5.274280
 20
4.530680
  0
VERTEX
  8
0
  6
CONTINUOUS
 10
5.210920
 20
4.542560
  0
VERTEX
  8
0
  6
CONTINUOUS
 10
5.142720
 20
4.546520
  0
VERTEX
  8
0
  6
CONTINUOUS
 10
5.107520
 20
4.545200
  0
VERTEX
  8
0
  6
CONTINUOUS
 10
5.052520
 20
4.539040
  0
VERTEX
  8
0
  6
CONTINUOUS
 10
4.994880
 20
4.527600
  0
VERTEX
  8
0
  6
CONTINUOUS
 10
4.935480
 20
4.510440
  0
VERTEX
  8
0
  6
CONTINUOUS
 10
4.873880
 20
4.487560
  0
VERTEX
  8
0
  6
CONTINUOUS
 10
4.810080
 20
4.458080
  0
VERTEX
  8
0
  6
CONTINUOUS
 10
4.744520
 20
4.422000
  0
VERTEX
  8
0
  6
CONTINUOUS
 10
4.676760
 20
4.379320
  0
VERTEX
  8
0
  6
CONTINUOUS
 10
4.606800
 20
4.329600
  0
VERTEX
  8
0
  6
CONTINUOUS
 10
4.535520
 20
4.271960
  0
VERTEX
  8
0
  6
CONTINUOUS
 10
4.511320
 20
4.251280
  0
VERTEX
  8
0
  6
CONTINUOUS
 10
4.296600
 20
4.491960
  0
VERTEX
  8
0
  6
CONTINUOUS
 10
4.248640
 20
4.462920
  0
VERTEX
  8
0
  6
CONTINUOUS
 10
4.199800
 20
4.439600
  0
VERTEX
  8
0
  6
CONTINUOUS
 10
4.151400
 20
4.421560
  0
VERTEX
  8
0
  6
CONTINUOUS
 10
4.102560
 20
4.409240
  0
VERTEX
  8
0
  6
CONTINUOUS
 10
4.053720
 20
4.401760
  0
VERTEX
  8
0
  6
CONTINUOUS
 10
4.004880
 20
4.399120
  0
VERTEX
  8
0
  6
CONTINUOUS
 10
3.956480
 20
4.401320
  0
VERTEX
  8
0
  6
CONTINUOUS
 10
3.908960
 20
4.407920
  0
VERTEX
  8
0
  6
CONTINUOUS
 10
3.861440
 20
4.418920
  0
VERTEX
  8
0
  6
CONTINUOUS
 10
3.814800
 20
4.434320
  0
VERTEX
  8
0
  6
CONTINUOUS
 10
3.769480
 20
4.453240
  0
VERTEX
  8
0
  6
CONTINUOUS
 10
3.724600
 20
4.475680
  0
VERTEX
  8
0
  6
CONTINUOUS
 10
3.681040
 20
4.501640
  0
VERTEX
  8
0
  6
CONTINUOUS
 10
3.638800
 20
4.531120
  0
VERTEX
  8
0
  6
CONTINUOUS
 10
3.578520
 20
4.580400
  0
VERTEX
  8
0
  6
CONTINUOUS
 10
3.559160
 20
4.598440
  0
VERTEX
  8
0
  6
CONTINUOUS
 10
3.202320
 20
4.297480
  0
VERTEX
  8
0
  6
CONTINUOUS
 10
3.619440
 20
3.834160
  0
VERTEX
  8
0
  6
CONTINUOUS
 10
6.190800
 20
3.834160
  0
VERTEX
  8
0
  6
CONTINUOUS
 10
6.789200
 20
4.335760
  0
VERTEX
  8
0
  6
CONTINUOUS
 10
6.653240
 20
4.491960
  0
SEQEND
  8
0
  0
SOLID
  8
0
 62
    15
 10
6.072880
 20
2.158640
 11
6.709560
 21
1.799600
 12
6.036800
 22
2.086920
 13
6.673480
 23
1.727880
  0
POLYLINE
  8
0
  6
CONTINUOUS
 66
     1
 40
0.000000
 41
0.000000
  0
VERTEX
  8
0
  6
CONTINUOUS
 10
6.072880
 20
2.158640
  0
VERTEX
  8
0
  6
CONTINUOUS
 10
6.709560
 20
1.799600
  0
VERTEX
  8
0
  6
CONTINUOUS
 10
6.673480
 20
1.727880
  0
VERTEX
  8
0
  6
CONTINUOUS
 10
6.036800
 20
2.086920
  0
VERTEX
  8
0
  6
CONTINUOUS
 10
6.072880
 20
2.158640
  0
SEQEND
  8
0
  0
SOLID
  8
0
 62
    15
 10
7.042200
 20
3.167120
 11
7.678880
 21
2.808080
 12
6.939240
 22
3.150400
 13
7.575480
 23
2.791360
  0
POLYLINE
  8
0
  6
CONTINUOUS
 66
     1
 40
0.000000
 41
0.000000
  0
VERTEX
  8
0
  6
CONTINUOUS
 10
7.042200
 20
3.167120
  0
VERTEX
  8
0
  6
CONTINUOUS
 10
7.678880
 20
2.808080
  0
VERTEX
  8
0
  6
CONTINUOUS
 10
7.575480
 20
2.791360
  0
VERTEX
  8
0
  6
CONTINUOUS
 10
6.939240
 20
3.150400
  0
VERTEX
  8
0
  6
CONTINUOUS
 10
7.042200
 20
3.167120
  0
SEQEND
  8
0
  0
SOLID
  8
0
 62
    15
 10
6.939240
 20
3.150400
 11
7.575480
 21
2.791360
 12
6.841560
 22
3.120920
 13
7.477800
 23
2.762320
  0
POLYLINE
  8
0
  6
CONTINUOUS
 66
     1
 40
0.000000
 41
0.000000
  0
VERTEX
  8
0
  6
CONTINUOUS
 10
6.939240
 20
3.150400
  0
VERTEX
  8
0
  6
CONTINUOUS
 10
7.575480
 20
2.791360
  0
VERTEX
  8
0
  6
CONTINUOUS
 10
7.477800
 20
2.762320
  0
VERTEX
  8
0
  6
CONTINUOUS
 10
6.841560
 20
3.120920
  0
VERTEX
  8
0
  6
CONTINUOUS
 10
6.939240
 20
3.150400
  0
SEQEND
  8
0
  0
SOLID
  8
0
 62
    15
 10
6.841560
 20
3.120920
 11
7.477800
 21
2.762320
 12
6.751360
 22
3.079560
 13
7.387600
 23
2.720520
  0
POLYLINE
  8
0
  6
CONTINUOUS
 66
     1
 40
0.000000
 41
0.000000
  0
VERTEX
  8
0
  6
CONTINUOUS
 10
6.841560
 20
3.120920
  0
VERTEX
  8
0
  6
CONTINUOUS
 10
7.477800
 20
2.762320
  0
VERTEX
  8
0
  6
CONTINUOUS
 10
7.387600
 20
2.720520
  0
VERTEX
  8
0
  6
CONTINUOUS
 10
6.751360
 20
3.079560
  0
VERTEX
  8
0
  6
CONTINUOUS
 10
6.841560
 20
3.120920
  0
SEQEND
  8
0
  0
SOLID
  8
0
 62
    15
 10
6.751360
 20
3.079560
 11
7.387600
 21
2.720520
 12
6.670400
 22
3.025000
 13
7.307080
 23
2.666400
  0
POLYLINE
  8
0
  6
CONTINUOUS
 66
     1
 40
0.000000
 41
0.000000
  0
VERTEX
  8
0
  6
CONTINUOUS
 10
6.751360
 20
3.079560
  0
VERTEX
  8
0
  6
CONTINUOUS
 10
7.387600
 20
2.720520
  0
VERTEX
  8
0
  6
CONTINUOUS
 10
7.307080
 20
2.666400
  0
VERTEX
  8
0
  6
CONTINUOUS
 10
6.670400
 20
3.025000
  0
VERTEX
  8
0
  6
CONTINUOUS
 10
6.751360
 20
3.079560
  0
SEQEND
  8
0
  0
SOLID
  8
0
 62
    15
 10
6.670400
 20
3.025000
 11
7.307080
 21
2.666400
 12
6.601320
 22
2.957680
 13
7.237560
 23
2.599080
  0
POLYLINE
  8
0
  6
CONTINUOUS
 66
     1
 40
0.000000
 41
0.000000
  0
VERTEX
  8
0
  6
CONTINUOUS
 10
6.670400
 20
3.025000
  0
VERTEX
  8
0
  6
CONTINUOUS
 10
7.307080
 20
2.666400
  0
VERTEX
  8
0
  6
CONTINUOUS
 10
7.237560
 20
2.599080
  0
VERTEX
  8
0
  6
CONTINUOUS
 10
6.601320
 20
2.957680
  0
VERTEX
  8
0
  6
CONTINUOUS
 10
6.670400
 20
3.025000
  0
SEQEND
  8
0
  0
SOLID
  8
0
 62
    15
 10
6.601320
 20
2.957680
 11
7.237560
 21
2.599080
 12
6.545440
 22
2.877160
 13
7.181680
 23
2.518560
  0
POLYLINE
  8
0
  6
CONTINUOUS
 66
     1
 40
0.000000
 41
0.000000
  0
VERTEX
  8
0
  6
CONTINUOUS
 10
6.601320
 20
2.957680
  0
VERTEX
  8
0
  6
CONTINUOUS
 10
7.237560
 20
2.599080
  0
VERTEX
  8
0
  6
CONTINUOUS
 10
7.181680
 20
2.518560
  0
VERTEX
  8
0
  6
CONTINUOUS
 10
6.545440
 20
2.877160
  0
VERTEX
  8
0
  6
CONTINUOUS
 10
6.601320
 20
2.957680
  0
SEQEND
  8
0
  0
SOLID
  8
0
 62
    15
 10
6.545440
 20
2.877160
 11
7.181680
 21
2.518560
 12
6.504960
 22
2.783440
 13
7.141640
 23
2.424400
  0
POLYLINE
  8
0
  6
CONTINUOUS
 66
     1
 40
0.000000
 41
0.000000
  0
VERTEX
  8
0
  6
CONTINUOUS
 10
6.545440
 20
2.877160
  0
VERTEX
  8
0
  6
CONTINUOUS
 10
7.181680
 20
2.518560
  0
VERTEX
  8
0
  6
CONTINUOUS
 10
7.141640
 20
2.424400
  0
VERTEX
  8
0
  6
CONTINUOUS
 10
6.504960
 20
2.783440
  0
VERTEX
  8
0
  6
CONTINUOUS
 10
6.545440
 20
2.877160
  0
SEQEND
  8
0
  0
SOLID
  8
0
 62
    15
 10
6.504960
 20
2.783440
 11
7.141640
 21
2.424400
 12
6.482520
 22
2.675640
 13
7.118760
 23
2.316600
  0
POLYLINE
  8
0
  6
CONTINUOUS
 66
     1
 40
0.000000
 41
0.000000
  0
VERTEX
  8
0
  6
CONTINUOUS
 10
6.504960
 20
2.783440
  0
VERTEX
  8
0
  6
CONTINUOUS
 10
7.141640
 20
2.424400
  0
VERTEX
  8
0
  6
CONTINUOUS
 10
7.118760
 20
2.316600
  0
VERTEX
  8
0
  6
CONTINUOUS
 10
6.482520
 20
2.675640
  0
VERTEX
  8
0
  6
CONTINUOUS
 10
6.504960
 20
2.783440
  0
SEQEND
  8
0
  0
SOLID
  8
0
 62
    15
 10
6.482520
 20
2.675640
 11
7.118760
 21
2.316600
 12
6.159560
 22
2.668600
 13
6.796240
 23
2.310000
  0
POLYLINE
  8
0
  6
CONTINUOUS
 66
     1
 40
0.000000
 41
0.000000
  0
VERTEX
  8
0
  6
CONTINUOUS
 10
6.482520
 20
2.675640
  0
VERTEX
  8
0
  6
CONTINUOUS
 10
7.118760
 20
2.316600
  0
VERTEX
  8
0
  6
CONTINUOUS
 10
6.796240
 20
2.310000
  0
VERTEX
  8
0
  6
CONTINUOUS
 10
6.159560
 20
2.668600
  0
VERTEX
  8
0
  6
CONTINUOUS
 10
6.482520
 20
2.675640
  0
SEQEND
  8
0
  0
SOLID
  8
0
 62
    15
 10
6.159560
 20
2.668600
 11
6.796240
 21
2.310000
 12
6.156920
 22
2.545400
 13
6.793600
 23
2.186360
  0
POLYLINE
  8
0
  6
CONTINUOUS
 66
     1
 40
0.000000
 41
0.000000
  0
VERTEX
  8
0
  6
CONTINUOUS
 10
6.159560
 20
2.668600
  0
VERTEX
  8
0
  6
CONTINUOUS
 10
6.796240
 20
2.310000
  0
VERTEX
  8
0
  6
CONTINUOUS
 10
6.793600
 20
2.186360
  0
VERTEX
  8
0
  6
CONTINUOUS
 10
6.156920
 20
2.545400
  0
VERTEX
  8
0
  6
CONTINUOUS
 10
6.159560
 20
2.668600
  0
SEQEND
  8
0
  0
SOLID
  8
0
 62
    15
 10
6.156920
 20
2.545400
 11
6.793600
 21
2.186360
 12
6.146360
 22
2.432760
 13
6.783040
 23
2.073720
  0
POLYLINE
  8
0
  6
CONTINUOUS
 66
     1
 40
0.000000
 41
0.000000
  0
VERTEX
  8
0
  6
CONTINUOUS
 10
6.156920
 20
2.545400
  0
VERTEX
  8
0
  6
CONTINUOUS
 10
6.793600
 20
2.186360
  0
VERTEX
  8
0
  6
CONTINUOUS
 10
6.783040
 20
2.073720
  0
VERTEX
  8
0
  6
CONTINUOUS
 10
6.146360
 20
2.432760
  0
VERTEX
  8
0
  6
CONTINUOUS
 10
6.156920
 20
2.545400
  0
SEQEND
  8
0
  0
SOLID
  8
0
 62
    15
 10
6.146360
 20
2.432760
 11
6.783040
 21
2.073720
 12
6.128320
 22
2.331120
 13
6.765000
 23
1.972080
  0
POLYLINE
  8
0
  6
CONTINUOUS
 66
     1
 40
0.000000
 41
0.000000
  0
VERTEX
  8
0
  6
CONTINUOUS
 10
6.146360
 20
2.432760
  0
VERTEX
  8
0
  6
CONTINUOUS
 10
6.783040
 20
2.073720
  0
VERTEX
  8
0
  6
CONTINUOUS
 10
6.765000
 20
1.972080
  0
VERTEX
  8
0
  6
CONTINUOUS
 10
6.128320
 20
2.331120
  0
VERTEX
  8
0
  6
CONTINUOUS
 10
6.146360
 20
2.432760
  0
SEQEND
  8
0
  0
SOLID
  8
0
 62
    15
 10
6.128320
 20
2.331120
 11
6.765000
 21
1.972080
 12
6.103680
 22
2.239600
 13
6.740360
 23
1.881000
  0
POLYLINE
  8
0
  6
CONTINUOUS
 66
     1
 40
0.000000
 41
0.000000
  0
VERTEX
  8
0
  6
CONTINUOUS
 10
6.128320
 20
2.331120
  0
VERTEX
  8
0
  6
CONTINUOUS
 10
6.765000
 20
1.972080
  0
VERTEX
  8
0
  6
CONTINUOUS
 10
6.740360
 20
1.881000
  0
VERTEX
  8
0
  6
CONTINUOUS
 10
6.103680
 20
2.239600
  0
VERTEX
  8
0
  6
CONTINUOUS
 10
6.128320
 20
2.331120
  0
SEQEND
  8
0
  0
SOLID
  8
0
 62
    15
 10
6.103680
 20
2.239600
 11
6.740360
 21
1.881000
 12
6.072880
 22
2.158640
 13
6.709560
 23
1.799600
  0
POLYLINE
  8
0
  6
CONTINUOUS
 66
     1
 40
0.000000
 41
0.000000
  0
VERTEX
  8
0
  6
CONTINUOUS
 10
6.103680
 20
2.239600
  0
VERTEX
  8
0
  6
CONTINUOUS
 10
6.740360
 20
1.881000
  0
VERTEX
  8
0
  6
CONTINUOUS
 10
6.709560
 20
1.799600
  0
VERTEX
  8
0
  6
CONTINUOUS
 10
6.072880
 20
2.158640
  0
VERTEX
  8
0
  6
CONTINUOUS
 10
6.103680
 20
2.239600
  0
SEQEND
  8
0
  0
SOLID
  8
0
 62
    15
 10
7.044840
 20
3.633960
 11
7.681520
 21
3.274920
 12
7.042200
 22
3.167120
 13
7.678880
 23
2.808080
  0
POLYLINE
  8
0
  6
CONTINUOUS
 66
     1
 40
0.000000
 41
0.000000
  0
VERTEX
  8
0
  6
CONTINUOUS
 10
7.044840
 20
3.633960
  0
VERTEX
  8
0
  6
CONTINUOUS
 10
7.681520
 20
3.274920
  0
VERTEX
  8
0
  6
CONTINUOUS
 10
7.678880
 20
2.808080
  0
VERTEX
  8
0
  6
CONTINUOUS
 10
7.042200
 20
3.167120
  0
VERTEX
  8
0
  6
CONTINUOUS
 10
7.044840
 20
3.633960
  0
SEQEND
  8
0
  0
SOLID
  8
0
 62
    15
 10
6.036800
 20
2.086920
 11
6.673480
 21
1.727880
 12
5.951000
 22
1.971200
 13
6.587240
 23
1.612160
  0
POLYLINE
  8
0
  6
CONTINUOUS
 66
     1
 40
0.000000
 41
0.000000
  0
VERTEX
  8
0
  6
CONTINUOUS
 10
6.036800
 20
2.086920
  0
VERTEX
  8
0
  6
CONTINUOUS
 10
6.673480
 20
1.727880
  0
VERTEX
  8
0
  6
CONTINUOUS
 10
6.587240
 20
1.612160
  0
VERTEX
  8
0
  6
CONTINUOUS
 10
5.951000
 20
1.971200
  0
VERTEX
  8
0
  6
CONTINUOUS
 10
6.036800
 20
2.086920
  0
SEQEND
  8
0
  0
SOLID
  8
0
 62
    15
 10
5.951000
 20
1.971200
 11
6.587240
 21
1.612160
 12
5.850680
 22
1.889800
 13
6.486920
 23
1.530760
  0
POLYLINE
  8
0
  6
CONTINUOUS
 66
     1
 40
0.000000
 41
0.000000
  0
VERTEX
  8
0
  6
CONTINUOUS
 10
5.951000
 20
1.971200
  0
VERTEX
  8
0
  6
CONTINUOUS
 10
6.587240
 20
1.612160
  0
VERTEX
  8
0
  6
CONTINUOUS
 10
6.486920
 20
1.530760
  0
VERTEX
  8
0
  6
CONTINUOUS
 10
5.850680
 20
1.889800
  0
VERTEX
  8
0
  6
CONTINUOUS
 10
5.951000
 20
1.971200
  0
SEQEND
  8
0
  0
SOLID
  8
0
 62
    15
 10
5.850680
 20
1.889800
 11
6.486920
 21
1.530760
 12
5.741120
 22
1.839640
 13
6.377800
 23
1.480600
  0
POLYLINE
  8
0
  6
CONTINUOUS
 66
     1
 40
0.000000
 41
0.000000
  0
VERTEX
  8
0
  6
CONTINUOUS
 10
5.850680
 20
1.889800
  0
VERTEX
  8
0
  6
CONTINUOUS
 10
6.486920
 20
1.530760
  0
VERTEX
  8
0
  6
CONTINUOUS
 10
6.377800
 20
1.480600
  0
VERTEX
  8
0
  6
CONTINUOUS
 10
5.741120
 20
1.839640
  0
VERTEX
  8
0
  6
CONTINUOUS
 10
5.850680
 20
1.889800
  0
SEQEND
  8
0
  0
SOLID
  8
0
 62
    15
 10
5.741120
 20
1.839640
 11
6.377800
 21
1.480600
 12
5.628040
 22
1.818080
 13
6.264280
 23
1.459040
  0
POLYLINE
  8
0
  6
CONTINUOUS
 66
     1
 40
0.000000
 41
0.000000
  0
VERTEX
  8
0
  6
CONTINUOUS
 10
5.741120
 20
1.839640
  0
VERTEX
  8
0
  6
CONTINUOUS
 10
6.377800
 20
1.480600
  0
VERTEX
  8
0
  6
CONTINUOUS
 10
6.264280
 20
1.459040
  0
VERTEX
  8
0
  6
CONTINUOUS
 10
5.628040
 20
1.818080
  0
VERTEX
  8
0
  6
CONTINUOUS
 10
5.741120
 20
1.839640
  0
SEQEND
  8
0
  0
SOLID
  8
0
 62
    15
 10
5.628040
 20
1.818080
 11
6.264280
 21
1.459040
 12
5.515840
 22
1.822040
 13
6.152080
 23
1.463000
  0
POLYLINE
  8
0
  6
CONTINUOUS
 66
     1
 40
0.000000
 41
0.000000
  0
VERTEX
  8
0
  6
CONTINUOUS
 10
5.628040
 20
1.818080
  0
VERTEX
  8
0
  6
CONTINUOUS
 10
6.264280
 20
1.459040
  0
VERTEX
  8
0
  6
CONTINUOUS
 10
6.152080
 20
1.463000
  0
VERTEX
  8
0
  6
CONTINUOUS
 10
5.515840
 20
1.822040
  0
VERTEX
  8
0
  6
CONTINUOUS
 10
5.628040
 20
1.818080
  0
SEQEND
  8
0
  0
SOLID
  8
0
 62
    15
 10
5.515840
 20
1.822040
 11
6.152080
 21
1.463000
 12
5.500880
 22
1.426480
 13
6.137120
 23
1.067440
  0
POLYLINE
  8
0
  6
CONTINUOUS
 66
     1
 40
0.000000
 41
0.000000
  0
VERTEX
  8
0
  6
CONTINUOUS
 10
5.515840
 20
1.822040
  0
VERTEX
  8
0
  6
CONTINUOUS
 10
6.152080
 20
1.463000
  0
VERTEX
  8
0
  6
CONTINUOUS
 10
6.137120
 20
1.067440
  0
VERTEX
  8
0
  6
CONTINUOUS
 10
5.500880
 20
1.426480
  0
VERTEX
  8
0
  6
CONTINUOUS
 10
5.515840
 20
1.822040
  0
SEQEND
  8
0
  0
SOLID
  8
0
 62
    15
 10
5.500880
 20
1.426480
 11
6.137120
 21
1.067440
 12
5.418600
 22
1.426480
 13
6.055280
 23
1.067440
  0
POLYLINE
  8
0
  6
CONTINUOUS
 66
     1
 40
0.000000
 41
0.000000
  0
VERTEX
  8
0
  6
CONTINUOUS
 10
5.500880
 20
1.426480
  0
VERTEX
  8
0
  6
CONTINUOUS
 10
6.137120
 20
1.067440
  0
VERTEX
  8
0
  6
CONTINUOUS
 10
6.055280
 20
1.067440
  0
VERTEX
  8
0
  6
CONTINUOUS
 10
5.418600
 20
1.426480
  0
VERTEX
  8
0
  6
CONTINUOUS
 10
5.500880
 20
1.426480
  0
SEQEND
  8
0
  0
SOLID
  8
0
 62
    15
 10
5.418600
 20
1.426480
 11
6.055280
 21
1.067440
 12
5.332360
 22
1.406240
 13
5.968600
 23
1.047640
  0
POLYLINE
  8
0
  6
CONTINUOUS
 66
     1
 40
0.000000
 41
0.000000
  0
VERTEX
  8
0
  6
CONTINUOUS
 10
5.418600
 20
1.426480
  0
VERTEX
  8
0
  6
CONTINUOUS
 10
6.055280
 20
1.067440
  0
VERTEX
  8
0
  6
CONTINUOUS
 10
5.968600
 20
1.047640
  0
VERTEX
  8
0
  6
CONTINUOUS
 10
5.332360
 20
1.406240
  0
VERTEX
  8
0
  6
CONTINUOUS
 10
5.418600
 20
1.426480
  0
SEQEND
  8
0
  0
SOLID
  8
0
 62
    15
 10
5.332360
 20
1.406240
 11
5.968600
 21
1.047640
 12
5.245680
 22
1.366640
 13
5.881920
 23
1.008040
  0
POLYLINE
  8
0
  6
CONTINUOUS
 66
     1
 40
0.000000
 41
0.000000
  0
VERTEX
  8
0
  6
CONTINUOUS
 10
5.332360
 20
1.406240
  0
VERTEX
  8
0
  6
CONTINUOUS
 10
5.968600
 20
1.047640
  0
VERTEX
  8
0
  6
CONTINUOUS
 10
5.881920
 20
1.008040
  0
VERTEX
  8
0
  6
CONTINUOUS
 10
5.245680
 20
1.366640
  0
VERTEX
  8
0
  6
CONTINUOUS
 10
5.332360
 20
1.406240
  0
SEQEND
  8
0
  0
SOLID
  8
0
 62
    15
 10
5.245680
 20
1.366640
 11
5.881920
 21
1.008040
 12
5.162520
 22
1.307680
 13
5.799200
 23
0.949080
  0
POLYLINE
  8
0
  6
CONTINUOUS
 66
     1
 40
0.000000
 41
0.000000
  0
VERTEX
  8
0
  6
CONTINUOUS
 10
5.245680
 20
1.366640
  0
VERTEX
  8
0
  6
CONTINUOUS
 10
5.881920
 20
1.008040
  0
VERTEX
  8
0
  6
CONTINUOUS
 10
5.799200
 20
0.949080
  0
VERTEX
  8
0
  6
CONTINUOUS
 10
5.162520
 20
1.307680
  0
VERTEX
  8
0
  6
CONTINUOUS
 10
5.245680
 20
1.366640
  0
SEQEND
  8
0
  0
SOLID
  8
0
 62
    15
 10
5.162520
 20
1.307680
 11
5.799200
 21
0.949080
 12
5.087720
 22
1.229800
 13
5.723960
 23
0.871200
  0
POLYLINE
  8
0
  6
CONTINUOUS
 66
     1
 40
0.000000
 41
0.000000
  0
VERTEX
  8
0
  6
CONTINUOUS
 10
5.162520
 20
1.307680
  0
VERTEX
  8
0
  6
CONTINUOUS
 10
5.799200
 20
0.949080
  0
VERTEX
  8
0
  6
CONTINUOUS
 10
5.723960
 20
0.871200
  0
VERTEX
  8
0
  6
CONTINUOUS
 10
5.087720
 20
1.229800
  0
VERTEX
  8
0
  6
CONTINUOUS
 10
5.162520
 20
1.307680
  0
SEQEND
  8
0
  0
SOLID
  8
0
 62
    15
 10
5.087720
 20
1.229800
 11
5.723960
 21
0.871200
 12
5.024800
 22
1.133000
 13
5.661040
 23
0.773960
  0
POLYLINE
  8
0
  6
CONTINUOUS
 66
     1
 40
0.000000
 41
0.000000
  0
VERTEX
  8
0
  6
CONTINUOUS
 10
5.087720
 20
1.229800
  0
VERTEX
  8
0
  6
CONTINUOUS
 10
5.723960
 20
0.871200
  0
VERTEX
  8
0
  6
CONTINUOUS
 10
5.661040
 20
0.773960
  0
VERTEX
  8
0
  6
CONTINUOUS
 10
5.024800
 20
1.133000
  0
VERTEX
  8
0
  6
CONTINUOUS
 10
5.087720
 20
1.229800
  0
SEQEND
  8
0
  0
SOLID
  8
0
 62
    15
 10
5.024800
 20
1.133000
 11
5.661040
 21
0.773960
 12
4.978160
 22
1.017720
 13
5.614400
 23
0.658680
  0
POLYLINE
  8
0
  6
CONTINUOUS
 66
     1
 40
0.000000
 41
0.000000
  0
VERTEX
  8
0
  6
CONTINUOUS
 10
5.024800
 20
1.133000
  0
VERTEX
  8
0
  6
CONTINUOUS
 10
5.661040
 20
0.773960
  0
VERTEX
  8
0
  6
CONTINUOUS
 10
5.614400
 20
0.658680
  0
VERTEX
  8
0
  6
CONTINUOUS
 10
4.978160
 20
1.017720
  0
VERTEX
  8
0
  6
CONTINUOUS
 10
5.024800
 20
1.133000
  0
SEQEND
  8
0
  0
SOLID
  8
0
 62
    15
 10
4.978160
 20
1.017720
 11
5.614400
 21
0.658680
 12
4.951760
 22
0.883520
 13
5.588440
 23
0.524920
  0
POLYLINE
  8
0
  6
CONTINUOUS
 66
     1
 40
0.000000
 41
0.000000
  0
VERTEX
  8
0
  6
CONTINUOUS
 10
4.978160
 20
1.017720
  0
VERTEX
  8
0
  6
CONTINUOUS
 10
5.614400
 20
0.658680
  0
VERTEX
  8
0
  6
CONTINUOUS
 10
5.588440
 20
0.524920
  0
VERTEX
  8
0
  6
CONTINUOUS
 10
4.951760
 20
0.883520
  0
VERTEX
  8
0
  6
CONTINUOUS
 10
4.978160
 20
1.017720
  0
SEQEND
  8
0
  0
SOLID
  8
0
 62
    15
 10
4.951760
 20
0.883520
 11
5.588440
 21
0.524920
 12
4.744520
 22
0.881320
 13
5.381200
 23
0.522720
  0
POLYLINE
  8
0
  6
CONTINUOUS
 66
     1
 40
0.000000
 41
0.000000
  0
VERTEX
  8
0
  6
CONTINUOUS
 10
4.951760
 20
0.883520
  0
VERTEX
  8
0
  6
CONTINUOUS
 10
5.588440
 20
0.524920
  0
VERTEX
  8
0
  6
CONTINUOUS
 10
5.381200
 20
0.522720
  0
VERTEX
  8
0
  6
CONTINUOUS
 10
4.744520
 20
0.881320
  0
VERTEX
  8
0
  6
CONTINUOUS
 10
4.951760
 20
0.883520
  0
SEQEND
  8
0
  0
POLYLINE
  8
0
  6
CONTINUOUS
 66
     1
 40
0.000000
 41
0.000000
  0
VERTEX
  8
0
  6
CONTINUOUS
 10
4.744520
 20
0.881320
  0
VERTEX
  8
0
  6
CONTINUOUS
 10
4.752000
 20
1.662760
  0
VERTEX
  8
0
  6
CONTINUOUS
 10
6.421800
 20
3.617680
  0
VERTEX
  8
0
  6
CONTINUOUS
 10
7.044840
 20
3.633960
  0
VERTEX
  8
0
  6
CONTINUOUS
 10
7.042200
 20
3.167120
  0
VERTEX
  8
0
  6
CONTINUOUS
 10
6.939240
 20
3.150400
  0
VERTEX
  8
0
  6
CONTINUOUS
 10
6.841560
 20
3.120920
  0
VERTEX
  8
0
  6
CONTINUOUS
 10
6.751360
 20
3.079560
  0
VERTEX
  8
0
  6
CONTINUOUS
 10
6.670400
 20
3.025000
  0
VERTEX
  8
0
  6
CONTINUOUS
 10
6.601320
 20
2.957680
  0
VERTEX
  8
0
  6
CONTINUOUS
 10
6.545440
 20
2.877160
  0
VERTEX
  8
0
  6
CONTINUOUS
 10
6.504960
 20
2.783440
  0
VERTEX
  8
0
  6
CONTINUOUS
 10
6.482520
 20
2.675640
  0
VERTEX
  8
0
  6
CONTINUOUS
 10
6.159560
 20
2.668600
  0
VERTEX
  8
0
  6
CONTINUOUS
 10
6.156920
 20
2.545400
  0
VERTEX
  8
0
  6
CONTINUOUS
 10
6.146360
 20
2.432760
  0
VERTEX
  8
0
  6
CONTINUOUS
 10
6.128320
 20
2.331120
  0
VERTEX
  8
0
  6
CONTINUOUS
 10
6.103680
 20
2.239600
  0
VERTEX
  8
0
  6
CONTINUOUS
 10
6.072880
 20
2.158640
  0
VERTEX
  8
0
  6
CONTINUOUS
 10
6.036800
 20
2.086920
  0
VERTEX
  8
0
  6
CONTINUOUS
 10
5.951000
 20
1.971200
  0
VERTEX
  8
0
  6
CONTINUOUS
 10
5.850680
 20
1.889800
  0
VERTEX
  8
0
  6
CONTINUOUS
 10
5.741120
 20
1.839640
  0
VERTEX
  8
0
  6
CONTINUOUS
 10
5.628040
 20
1.818080
  0
VERTEX
  8
0
  6
CONTINUOUS
 10
5.515840
 20
1.822040
  0
VERTEX
  8
0
  6
CONTINUOUS
 10
5.500880
 20
1.426480
  0
VERTEX
  8
0
  6
CONTINUOUS
 10
5.418600
 20
1.426480
  0
VERTEX
  8
0
  6
CONTINUOUS
 10
5.332360
 20
1.406240
  0
VERTEX
  8
0
  6
CONTINUOUS
 10
5.245680
 20
1.366640
  0
VERTEX
  8
0
  6
CONTINUOUS
 10
5.162520
 20
1.307680
  0
VERTEX
  8
0
  6
CONTINUOUS
 10
5.087720
 20
1.229800
  0
VERTEX
  8
0
  6
CONTINUOUS
 10
5.024800
 20
1.133000
  0
VERTEX
  8
0
  6
CONTINUOUS
 10
4.978160
 20
1.017720
  0
VERTEX
  8
0
  6
CONTINUOUS
 10
4.951760
 20
0.883520
  0
VERTEX
  8
0
  6
CONTINUOUS
 10
4.744520
 20
0.881320
  0
SEQEND
  8
0
  0
TEXT
  8
0
 10
6.405960
 20
0.725120
 40
0.138084
  1
BA  362
 41
1.000000
  7
SN0
 71
     0
 72
     5
 11
6.996363
 21
0.725120
  0
TEXT
  8
0
 10
6.250200
 20
0.533280
 40
0.138084
  1
3/4" x 3-5/8"
 41
1.000000
  7
SN0
 71
     0
 72
     5
 11
7.151744
 21
0.533280
  0
ENDSEC
  0
EOF
