  0
SECTION
  2
HEADER
  9
$ACADVER
  1
AC1006
  9
$EXTMIN
 10
0.876480
 20
0.488840
  9
$EXTMAX
 10
7.296960
 20
4.876520
  9
$LTSCALE
 40
0.044000
  9
$PDMODE
 70
    35
  9
$PDSIZE
 40
0.035200
  0
ENDSEC
  0
SECTION
  2
TABLES
  0
TABLE
  2
LTYPE
 70
     9
  0
LTYPE
  2
CONTINUOUS
 70
    64
  3
Solid line
 72
    65
 73
     0
 40
0.000000
  0
LTYPE
  2
DASHED
 70
    64
  3
__ __ __ __ __ __ __ __ __ __ __ __ __ __ __
 72
    65
 73
     2
 40
0.000330
 49
0.000220
 49
-0.000110
  0
LTYPE
  2
HIDDEN
 70
    64
  3
 _ _ _ _ _ _ _ _ _ _ _ _ _ _ _ _ _ _ _ _ _ _
 72
    65
 73
     2
 40
0.000165
 49
0.000110
 49
-0.000055
  0
LTYPE
  2
CENTER
 70
    64
  3
____ _ ____ _ ____ _ ____ _ ____ _ ____ _ ____
 72
    65
 73
     4
 40
0.000880
 49
0.000550
 49
-0.000110
 49
0.000110
 49
-0.000110
  0
LTYPE
  2
PHANTOM
 70
    64
  3
_____ _ _ _____ _ _ _____ _ _ _____ _ _ ____
 72
    65
 73
     6
 40
0.001100
 49
0.000550
 49
-0.000110
 49
0.000110
 49
-0.000110
 49
0.000110
 49
-0.000110
  0
LTYPE
  2
DOT
 70
    64
  3
...............................................
 72
    65
 73
     2
 40
0.000110
 49
0.000000
 49
-0.000110
  0
LTYPE
  2
DASHDOT
 70
    64
  3
__ . __ . __ . __ . __ . __ . __ . __ . __ . __
 72
    65
 73
     4
 40
0.000440
 49
0.000220
 49
-0.000110
 49
0.000000
 49
-0.000110
  0
LTYPE
  2
BORDER
 70
    64
  3
__ __ . __ __ . __ __ . __ __ . __ __ . __ __
 72
    65
 73
     6
 40
0.000770
 49
0.000220
 49
-0.000110
 49
0.000220
 49
-0.000110
 49
0.000000
 49
-0.000110
  0
LTYPE
  2
DIVIDE
 70
    64
  3
__ . . __ . . __ . . __ . . __ . . __ . . __
 72
    65
 73
     6
 40
0.000550
 49
0.000220
 49
-0.000110
 49
0.000000
 49
-0.000110
 49
0.000000
 49
-0.000110
  0
LTYPE
  2
DOTDOT
 70
    64
  3
 . .  . .  . .  . .  . .  . . 
 72
    65
 73
     5
 40
0.000242
 49
-0.000110
 49
0.000000
 49
-0.000110
 49
0.000000
 49
-0.000110
  0
ENDTAB
  0
TABLE
  2
STYLE
 70
     2
  0
STYLE
 70
     0
  2
SN0
 40
0.000000
 41
0.000440
 50
0.000000
 71
     0
 42
0.000000
  3
ROMAND
  0
STYLE
 70
    68
  2
SV0
 40
0.000000
 41
0.000440
 50
0.000000
 71
     0
 42
0.000000
  3
ROMAND
  0
ENDTAB
  0
TABLE
  2
LAYER
 70
     3
  0
LAYER
  2
FOREGROUND
 70
    64
 62
     7
  6
CONTINUOUS
  0
LAYER
  2
BACKGROUND
 70
    65
 62
    -7
  6
CONTINUOUS
  0
LAYER
  2
0
 70
    64
 62
     7
  6
CONTINUOUS
  0
ENDTAB
  0
ENDSEC
  0
SECTION
  2
ENTITIES
  0
POLYLINE
  8
FOREGROUND
  6
CONTINUOUS
 66
     1
 40
0.000000
 41
0.000000
  0
VERTEX
  8
FOREGROUND
  6
CONTINUOUS
 10
0.000000
 20
5.365360
  0
VERTEX
  8
FOREGROUND
  6
CONTINUOUS
 10
8.499920
 20
5.365360
  0
VERTEX
  8
FOREGROUND
  6
CONTINUOUS
 10
8.499920
 20
-5.634640
  0
VERTEX
  8
FOREGROUND
  6
CONTINUOUS
 10
0.000000
 20
-5.634640
  0
VERTEX
  8
FOREGROUND
  6
CONTINUOUS
 10
0.000000
 20
5.365360
  0
SEQEND
  8
0
  0
POLYLINE
  8
FOREGROUND
  6
CONTINUOUS
 66
     1
 40
0.000000
 41
0.000000
  0
VERTEX
  8
FOREGROUND
  6
CONTINUOUS
 10
0.000000
 20
5.365360
  0
VERTEX
  8
FOREGROUND
  6
CONTINUOUS
 10
8.499920
 20
5.365360
  0
VERTEX
  8
FOREGROUND
  6
CONTINUOUS
 10
8.499920
 20
-5.634640
  0
VERTEX
  8
FOREGROUND
  6
CONTINUOUS
 10
0.000000
 20
-5.634640
  0
VERTEX
  8
FOREGROUND
  6
CONTINUOUS
 10
0.000000
 20
5.365360
  0
SEQEND
  8
0
  0
SOLID
  8
0
 62
    15
 10
3.010920
 20
2.516800
 11
3.645840
 21
2.888600
 12
3.010920
 22
2.193400
 13
3.645840
 23
2.564760
  0
POLYLINE
  8
0
  6
CONTINUOUS
 66
     1
 40
0.000000
 41
0.000000
  0
VERTEX
  8
0
  6
CONTINUOUS
 10
3.010920
 20
2.516800
  0
VERTEX
  8
0
  6
CONTINUOUS
 10
3.645840
 20
2.888600
  0
VERTEX
  8
0
  6
CONTINUOUS
 10
3.645840
 20
2.564760
  0
VERTEX
  8
0
  6
CONTINUOUS
 10
3.010920
 20
2.193400
  0
VERTEX
  8
0
  6
CONTINUOUS
 10
3.010920
 20
2.516800
  0
SEQEND
  8
0
  0
SOLID
  8
0
 62
    15
 10
3.392840
 20
3.846920
 11
4.027760
 21
4.218280
 12
3.464120
 22
3.690280
 13
4.099040
 23
4.061640
  0
POLYLINE
  8
0
  6
CONTINUOUS
 66
     1
 40
0.000000
 41
0.000000
  0
VERTEX
  8
0
  6
CONTINUOUS
 10
3.392840
 20
3.846920
  0
VERTEX
  8
0
  6
CONTINUOUS
 10
4.027760
 20
4.218280
  0
VERTEX
  8
0
  6
CONTINUOUS
 10
4.099040
 20
4.061640
  0
VERTEX
  8
0
  6
CONTINUOUS
 10
3.464120
 20
3.690280
  0
VERTEX
  8
0
  6
CONTINUOUS
 10
3.392840
 20
3.846920
  0
SEQEND
  8
0
  0
SOLID
  8
0
 62
    15
 10
3.464120
 20
3.690280
 11
4.099040
 21
4.061640
 12
3.506360
 22
3.518240
 13
4.141280
 23
3.890040
  0
POLYLINE
  8
0
  6
CONTINUOUS
 66
     1
 40
0.000000
 41
0.000000
  0
VERTEX
  8
0
  6
CONTINUOUS
 10
3.464120
 20
3.690280
  0
VERTEX
  8
0
  6
CONTINUOUS
 10
4.099040
 20
4.061640
  0
VERTEX
  8
0
  6
CONTINUOUS
 10
4.141280
 20
3.890040
  0
VERTEX
  8
0
  6
CONTINUOUS
 10
3.506360
 20
3.518240
  0
VERTEX
  8
0
  6
CONTINUOUS
 10
3.464120
 20
3.690280
  0
SEQEND
  8
0
  0
SOLID
  8
0
 62
    15
 10
3.506360
 20
3.518240
 11
4.141280
 21
3.890040
 12
3.516920
 22
3.337400
 13
4.151840
 23
3.709200
  0
POLYLINE
  8
0
  6
CONTINUOUS
 66
     1
 40
0.000000
 41
0.000000
  0
VERTEX
  8
0
  6
CONTINUOUS
 10
3.506360
 20
3.518240
  0
VERTEX
  8
0
  6
CONTINUOUS
 10
4.141280
 20
3.890040
  0
VERTEX
  8
0
  6
CONTINUOUS
 10
4.151840
 20
3.709200
  0
VERTEX
  8
0
  6
CONTINUOUS
 10
3.516920
 20
3.337400
  0
VERTEX
  8
0
  6
CONTINUOUS
 10
3.506360
 20
3.518240
  0
SEQEND
  8
0
  0
SOLID
  8
0
 62
    15
 10
3.516920
 20
3.337400
 11
4.151840
 21
3.709200
 12
3.493600
 22
3.153920
 13
4.128520
 23
3.525720
  0
POLYLINE
  8
0
  6
CONTINUOUS
 66
     1
 40
0.000000
 41
0.000000
  0
VERTEX
  8
0
  6
CONTINUOUS
 10
3.516920
 20
3.337400
  0
VERTEX
  8
0
  6
CONTINUOUS
 10
4.151840
 20
3.709200
  0
VERTEX
  8
0
  6
CONTINUOUS
 10
4.128520
 20
3.525720
  0
VERTEX
  8
0
  6
CONTINUOUS
 10
3.493600
 20
3.153920
  0
VERTEX
  8
0
  6
CONTINUOUS
 10
3.516920
 20
3.337400
  0
SEQEND
  8
0
  0
SOLID
  8
0
 62
    15
 10
3.493600
 20
3.153920
 11
4.128520
 21
3.525720
 12
3.433760
 22
2.974400
 13
4.068680
 23
3.345760
  0
POLYLINE
  8
0
  6
CONTINUOUS
 66
     1
 40
0.000000
 41
0.000000
  0
VERTEX
  8
0
  6
CONTINUOUS
 10
3.493600
 20
3.153920
  0
VERTEX
  8
0
  6
CONTINUOUS
 10
4.128520
 20
3.525720
  0
VERTEX
  8
0
  6
CONTINUOUS
 10
4.068680
 20
3.345760
  0
VERTEX
  8
0
  6
CONTINUOUS
 10
3.433760
 20
2.974400
  0
VERTEX
  8
0
  6
CONTINUOUS
 10
3.493600
 20
3.153920
  0
SEQEND
  8
0
  0
SOLID
  8
0
 62
    15
 10
3.433760
 20
2.974400
 11
4.068680
 21
3.345760
 12
3.334760
 22
2.804120
 13
3.969680
 23
3.175480
  0
POLYLINE
  8
0
  6
CONTINUOUS
 66
     1
 40
0.000000
 41
0.000000
  0
VERTEX
  8
0
  6
CONTINUOUS
 10
3.433760
 20
2.974400
  0
VERTEX
  8
0
  6
CONTINUOUS
 10
4.068680
 20
3.345760
  0
VERTEX
  8
0
  6
CONTINUOUS
 10
3.969680
 20
3.175480
  0
VERTEX
  8
0
  6
CONTINUOUS
 10
3.334760
 20
2.804120
  0
VERTEX
  8
0
  6
CONTINUOUS
 10
3.433760
 20
2.974400
  0
SEQEND
  8
0
  0
SOLID
  8
0
 62
    15
 10
3.334760
 20
2.804120
 11
3.969680
 21
3.175480
 12
3.194840
 22
2.649240
 13
3.829760
 23
3.021040
  0
POLYLINE
  8
0
  6
CONTINUOUS
 66
     1
 40
0.000000
 41
0.000000
  0
VERTEX
  8
0
  6
CONTINUOUS
 10
3.334760
 20
2.804120
  0
VERTEX
  8
0
  6
CONTINUOUS
 10
3.969680
 20
3.175480
  0
VERTEX
  8
0
  6
CONTINUOUS
 10
3.829760
 20
3.021040
  0
VERTEX
  8
0
  6
CONTINUOUS
 10
3.194840
 20
2.649240
  0
VERTEX
  8
0
  6
CONTINUOUS
 10
3.334760
 20
2.804120
  0
SEQEND
  8
0
  0
SOLID
  8
0
 62
    15
 10
3.108160
 20
2.580160
 11
3.743080
 21
2.951520
 12
3.010920
 22
2.516800
 13
3.645840
 23
2.888600
  0
POLYLINE
  8
0
  6
CONTINUOUS
 66
     1
 40
0.000000
 41
0.000000
  0
VERTEX
  8
0
  6
CONTINUOUS
 10
3.108160
 20
2.580160
  0
VERTEX
  8
0
  6
CONTINUOUS
 10
3.743080
 20
2.951520
  0
VERTEX
  8
0
  6
CONTINUOUS
 10
3.645840
 20
2.888600
  0
VERTEX
  8
0
  6
CONTINUOUS
 10
3.010920
 20
2.516800
  0
VERTEX
  8
0
  6
CONTINUOUS
 10
3.108160
 20
2.580160
  0
SEQEND
  8
0
  0
SOLID
  8
0
 62
    15
 10
0.876920
 20
4.496360
 11
1.511840
 21
4.867720
 12
3.392840
 22
3.846920
 13
4.027760
 23
4.218280
  0
POLYLINE
  8
0
  6
CONTINUOUS
 66
     1
 40
0.000000
 41
0.000000
  0
VERTEX
  8
0
  6
CONTINUOUS
 10
0.876920
 20
4.496360
  0
VERTEX
  8
0
  6
CONTINUOUS
 10
1.511840
 20
4.867720
  0
VERTEX
  8
0
  6
CONTINUOUS
 10
4.027760
 20
4.218280
  0
VERTEX
  8
0
  6
CONTINUOUS
 10
3.392840
 20
3.846920
  0
VERTEX
  8
0
  6
CONTINUOUS
 10
0.876920
 20
4.496360
  0
SEQEND
  8
0
  0
SOLID
  8
0
 62
    15
 10
3.194840
 20
2.649240
 11
3.829760
 21
3.021040
 12
3.108160
 22
2.580160
 13
3.743080
 23
2.951520
  0
POLYLINE
  8
0
  6
CONTINUOUS
 66
     1
 40
0.000000
 41
0.000000
  0
VERTEX
  8
0
  6
CONTINUOUS
 10
3.194840
 20
2.649240
  0
VERTEX
  8
0
  6
CONTINUOUS
 10
3.829760
 20
3.021040
  0
VERTEX
  8
0
  6
CONTINUOUS
 10
3.743080
 20
2.951520
  0
VERTEX
  8
0
  6
CONTINUOUS
 10
3.108160
 20
2.580160
  0
VERTEX
  8
0
  6
CONTINUOUS
 10
3.194840
 20
2.649240
  0
SEQEND
  8
0
  0
SOLID
  8
0
 62
    15
 10
3.010920
 20
2.193400
 11
3.645840
 21
2.564760
 12
2.781240
 22
1.991000
 13
3.416160
 23
2.362800
  0
POLYLINE
  8
0
  6
CONTINUOUS
 66
     1
 40
0.000000
 41
0.000000
  0
VERTEX
  8
0
  6
CONTINUOUS
 10
3.010920
 20
2.193400
  0
VERTEX
  8
0
  6
CONTINUOUS
 10
3.645840
 20
2.564760
  0
VERTEX
  8
0
  6
CONTINUOUS
 10
3.416160
 20
2.362800
  0
VERTEX
  8
0
  6
CONTINUOUS
 10
2.781240
 20
1.991000
  0
VERTEX
  8
0
  6
CONTINUOUS
 10
3.010920
 20
2.193400
  0
SEQEND
  8
0
  0
SOLID
  8
0
 62
    15
 10
2.781240
 20
1.991000
 11
3.416160
 21
2.362800
 12
2.681800
 22
1.877480
 13
3.316720
 23
2.249280
  0
POLYLINE
  8
0
  6
CONTINUOUS
 66
     1
 40
0.000000
 41
0.000000
  0
VERTEX
  8
0
  6
CONTINUOUS
 10
2.781240
 20
1.991000
  0
VERTEX
  8
0
  6
CONTINUOUS
 10
3.416160
 20
2.362800
  0
VERTEX
  8
0
  6
CONTINUOUS
 10
3.316720
 20
2.249280
  0
VERTEX
  8
0
  6
CONTINUOUS
 10
2.681800
 20
1.877480
  0
VERTEX
  8
0
  6
CONTINUOUS
 10
2.781240
 20
1.991000
  0
SEQEND
  8
0
  0
SOLID
  8
0
 62
    15
 10
2.681800
 20
1.877480
 11
3.316720
 21
2.249280
 12
2.595120
 22
1.750320
 13
3.230040
 23
2.121680
  0
POLYLINE
  8
0
  6
CONTINUOUS
 66
     1
 40
0.000000
 41
0.000000
  0
VERTEX
  8
0
  6
CONTINUOUS
 10
2.681800
 20
1.877480
  0
VERTEX
  8
0
  6
CONTINUOUS
 10
3.316720
 20
2.249280
  0
VERTEX
  8
0
  6
CONTINUOUS
 10
3.230040
 20
2.121680
  0
VERTEX
  8
0
  6
CONTINUOUS
 10
2.595120
 20
1.750320
  0
VERTEX
  8
0
  6
CONTINUOUS
 10
2.681800
 20
1.877480
  0
SEQEND
  8
0
  0
SOLID
  8
0
 62
    15
 10
2.595120
 20
1.750320
 11
3.230040
 21
2.121680
 12
2.521640
 22
1.604680
 13
3.156560
 23
1.976040
  0
POLYLINE
  8
0
  6
CONTINUOUS
 66
     1
 40
0.000000
 41
0.000000
  0
VERTEX
  8
0
  6
CONTINUOUS
 10
2.595120
 20
1.750320
  0
VERTEX
  8
0
  6
CONTINUOUS
 10
3.230040
 20
2.121680
  0
VERTEX
  8
0
  6
CONTINUOUS
 10
3.156560
 20
1.976040
  0
VERTEX
  8
0
  6
CONTINUOUS
 10
2.521640
 20
1.604680
  0
VERTEX
  8
0
  6
CONTINUOUS
 10
2.595120
 20
1.750320
  0
SEQEND
  8
0
  0
SOLID
  8
0
 62
    15
 10
2.521640
 20
1.604680
 11
3.156560
 21
1.976040
 12
2.463120
 22
1.436160
 13
3.098040
 23
1.807520
  0
POLYLINE
  8
0
  6
CONTINUOUS
 66
     1
 40
0.000000
 41
0.000000
  0
VERTEX
  8
0
  6
CONTINUOUS
 10
2.521640
 20
1.604680
  0
VERTEX
  8
0
  6
CONTINUOUS
 10
3.156560
 20
1.976040
  0
VERTEX
  8
0
  6
CONTINUOUS
 10
3.098040
 20
1.807520
  0
VERTEX
  8
0
  6
CONTINUOUS
 10
2.463120
 20
1.436160
  0
VERTEX
  8
0
  6
CONTINUOUS
 10
2.521640
 20
1.604680
  0
SEQEND
  8
0
  0
SOLID
  8
0
 62
    15
 10
2.463120
 20
1.436160
 11
3.098040
 21
1.807520
 12
2.420440
 22
1.240360
 13
3.055360
 23
1.612160
  0
POLYLINE
  8
0
  6
CONTINUOUS
 66
     1
 40
0.000000
 41
0.000000
  0
VERTEX
  8
0
  6
CONTINUOUS
 10
2.463120
 20
1.436160
  0
VERTEX
  8
0
  6
CONTINUOUS
 10
3.098040
 20
1.807520
  0
VERTEX
  8
0
  6
CONTINUOUS
 10
3.055360
 20
1.612160
  0
VERTEX
  8
0
  6
CONTINUOUS
 10
2.420440
 20
1.240360
  0
VERTEX
  8
0
  6
CONTINUOUS
 10
2.463120
 20
1.436160
  0
SEQEND
  8
0
  0
SOLID
  8
0
 62
    15
 10
2.420440
 20
1.240360
 11
3.055360
 21
1.612160
 12
2.396240
 22
1.013760
 13
3.031160
 23
1.385120
  0
POLYLINE
  8
0
  6
CONTINUOUS
 66
     1
 40
0.000000
 41
0.000000
  0
VERTEX
  8
0
  6
CONTINUOUS
 10
2.420440
 20
1.240360
  0
VERTEX
  8
0
  6
CONTINUOUS
 10
3.055360
 20
1.612160
  0
VERTEX
  8
0
  6
CONTINUOUS
 10
3.031160
 20
1.385120
  0
VERTEX
  8
0
  6
CONTINUOUS
 10
2.396240
 20
1.013760
  0
VERTEX
  8
0
  6
CONTINUOUS
 10
2.420440
 20
1.240360
  0
SEQEND
  8
0
  0
POLYLINE
  8
0
  6
CONTINUOUS
 66
     1
 40
0.000000
 41
0.000000
  0
VERTEX
  8
0
  6
CONTINUOUS
 10
0.876920
 20
4.496360
  0
VERTEX
  8
0
  6
CONTINUOUS
 10
3.392840
 20
3.846920
  0
VERTEX
  8
0
  6
CONTINUOUS
 10
3.464120
 20
3.690280
  0
VERTEX
  8
0
  6
CONTINUOUS
 10
3.506360
 20
3.518240
  0
VERTEX
  8
0
  6
CONTINUOUS
 10
3.516920
 20
3.337400
  0
VERTEX
  8
0
  6
CONTINUOUS
 10
3.493600
 20
3.153920
  0
VERTEX
  8
0
  6
CONTINUOUS
 10
3.433760
 20
2.974400
  0
VERTEX
  8
0
  6
CONTINUOUS
 10
3.334760
 20
2.804120
  0
VERTEX
  8
0
  6
CONTINUOUS
 10
3.194840
 20
2.649240
  0
VERTEX
  8
0
  6
CONTINUOUS
 10
3.108160
 20
2.580160
  0
VERTEX
  8
0
  6
CONTINUOUS
 10
3.010920
 20
2.516800
  0
VERTEX
  8
0
  6
CONTINUOUS
 10
3.010920
 20
2.193400
  0
VERTEX
  8
0
  6
CONTINUOUS
 10
2.781240
 20
1.991000
  0
VERTEX
  8
0
  6
CONTINUOUS
 10
2.681800
 20
1.877480
  0
VERTEX
  8
0
  6
CONTINUOUS
 10
2.595120
 20
1.750320
  0
VERTEX
  8
0
  6
CONTINUOUS
 10
2.521640
 20
1.604680
  0
VERTEX
  8
0
  6
CONTINUOUS
 10
2.463120
 20
1.436160
  0
VERTEX
  8
0
  6
CONTINUOUS
 10
2.420440
 20
1.240360
  0
VERTEX
  8
0
  6
CONTINUOUS
 10
2.396240
 20
1.013760
  0
VERTEX
  8
0
  6
CONTINUOUS
 10
0.876920
 20
1.013760
  0
VERTEX
  8
0
  6
CONTINUOUS
 10
0.876920
 20
4.496360
  0
SEQEND
  8
0
  0
TEXT
  8
0
 10
2.218040
 20
0.723800
 40
0.138019
  1
BA  360
 41
1.000000
  7
SN0
 71
     0
 72
     5
 11
2.808082
 21
0.723800
  0
TEXT
  8
0
 10
1.738440
 20
0.531960
 40
0.138019
  1
section of window sill
 41
1.000000
  7
SN0
 71
     0
 72
     5
 11
3.284171
 21
0.531960
  0
POLYLINE
  8
0
  6
CONTINUOUS
 66
     1
 40
0.014080
 41
0.014080
  0
VERTEX
  8
0
  6
CONTINUOUS
 10
4.649480
 20
4.869040
  0
VERTEX
  8
0
  6
CONTINUOUS
 10
7.165400
 20
4.220040
  0
VERTEX
  8
0
  6
CONTINUOUS
 10
7.185640
 20
4.182640
  0
VERTEX
  8
0
  6
CONTINUOUS
 10
7.204560
 20
4.143920
  0
VERTEX
  8
0
  6
CONTINUOUS
 10
7.221280
 20
4.104320
  0
VERTEX
  8
0
  6
CONTINUOUS
 10
7.236680
 20
4.063400
  0
VERTEX
  8
0
  6
CONTINUOUS
 10
7.261760
 20
3.978920
  0
VERTEX
  8
0
  6
CONTINUOUS
 10
7.278920
 20
3.891360
  0
VERTEX
  8
0
  6
CONTINUOUS
 10
7.284640
 20
3.846920
  0
VERTEX
  8
0
  6
CONTINUOUS
 10
7.288160
 20
3.801600
  0
VERTEX
  8
0
  6
CONTINUOUS
 10
7.289920
 20
3.756280
  0
VERTEX
  8
0
  6
CONTINUOUS
 10
7.289480
 20
3.710520
  0
VERTEX
  8
0
  6
CONTINUOUS
 10
7.286840
 20
3.664760
  0
VERTEX
  8
0
  6
CONTINUOUS
 10
7.282440
 20
3.619000
  0
VERTEX
  8
0
  6
CONTINUOUS
 10
7.275400
 20
3.573240
  0
VERTEX
  8
0
  6
CONTINUOUS
 10
7.266160
 20
3.527040
  0
VERTEX
  8
0
  6
CONTINUOUS
 10
7.254720
 20
3.481720
  0
VERTEX
  8
0
  6
CONTINUOUS
 10
7.241080
 20
3.436400
  0
VERTEX
  8
0
  6
CONTINUOUS
 10
7.216000
 20
3.369520
  0
VERTEX
  8
0
  6
CONTINUOUS
 10
7.185200
 20
3.303520
  0
VERTEX
  8
0
  6
CONTINUOUS
 10
7.149560
 20
3.239280
  0
VERTEX
  8
0
  6
CONTINUOUS
 10
7.107760
 20
3.176800
  0
VERTEX
  8
0
  6
CONTINUOUS
 10
7.060240
 20
3.116960
  0
VERTEX
  8
0
  6
CONTINUOUS
 10
7.025040
 20
3.078240
  0
VERTEX
  8
0
  6
CONTINUOUS
 10
6.967400
 20
3.022360
  0
VERTEX
  8
0
  6
CONTINUOUS
 10
6.903600
 20
2.970000
  0
VERTEX
  8
0
  6
CONTINUOUS
 10
6.857840
 20
2.936560
  0
VERTEX
  8
0
  6
CONTINUOUS
 10
6.783480
 20
2.889920
  0
VERTEX
  8
0
  6
CONTINUOUS
 10
6.783480
 20
2.566080
  0
VERTEX
  8
0
  6
CONTINUOUS
 10
6.663800
 20
2.467520
  0
VERTEX
  8
0
  6
CONTINUOUS
 10
6.607480
 20
2.416920
  0
VERTEX
  8
0
  6
CONTINUOUS
 10
6.527840
 20
2.336840
  0
VERTEX
  8
0
  6
CONTINUOUS
 10
6.478560
 20
2.280080
  0
VERTEX
  8
0
  6
CONTINUOUS
 10
6.431480
 20
2.220240
  0
VERTEX
  8
0
  6
CONTINUOUS
 10
6.387920
 20
2.156880
  0
VERTEX
  8
0
  6
CONTINUOUS
 10
6.347880
 20
2.088680
  0
VERTEX
  8
0
  6
CONTINUOUS
 10
6.310920
 20
2.016080
  0
VERTEX
  8
0
  6
CONTINUOUS
 10
6.277920
 20
1.937760
  0
VERTEX
  8
0
  6
CONTINUOUS
 10
6.248880
 20
1.853720
  0
VERTEX
  8
0
  6
CONTINUOUS
 10
6.223360
 20
1.762640
  0
VERTEX
  8
0
  6
CONTINUOUS
 10
6.202240
 20
1.664960
  0
VERTEX
  8
0
  6
CONTINUOUS
 10
6.185520
 20
1.559800
  0
VERTEX
  8
0
  6
CONTINUOUS
 10
6.173200
 20
1.446280
  0
VERTEX
  8
0
  6
CONTINUOUS
 10
6.168800
 20
1.386440
  0
VERTEX
  8
0
  6
CONTINUOUS
 10
4.649480
 20
1.386440
  0
VERTEX
  8
0
  6
CONTINUOUS
 10
4.649480
 20
4.869040
  0
SEQEND
  8
0
  0
ENDSEC
  0
EOF
