  0
SECTION
  2
HEADER
  9
$ACADVER
  1
AC1006
  9
$EXTMIN
 10
5.635520
 20
0.505560
  9
$EXTMAX
 10
8.037920
 20
3.511640
  9
$LTSCALE
 40
0.044000
  9
$PDMODE
 70
    35
  9
$PDSIZE
 40
0.035200
  0
ENDSEC
  0
SECTION
  2
TABLES
  0
TABLE
  2
LTYPE
 70
     9
  0
LTYPE
  2
CONTINUOUS
 70
    64
  3
Solid line
 72
    65
 73
     0
 40
0.000000
  0
LTYPE
  2
DASHED
 70
    64
  3
__ __ __ __ __ __ __ __ __ __ __ __ __ __ __
 72
    65
 73
     2
 40
0.000330
 49
0.000220
 49
-0.000110
  0
LTYPE
  2
HIDDEN
 70
    64
  3
 _ _ _ _ _ _ _ _ _ _ _ _ _ _ _ _ _ _ _ _ _ _
 72
    65
 73
     2
 40
0.000165
 49
0.000110
 49
-0.000055
  0
LTYPE
  2
CENTER
 70
    64
  3
____ _ ____ _ ____ _ ____ _ ____ _ ____ _ ____
 72
    65
 73
     4
 40
0.000880
 49
0.000550
 49
-0.000110
 49
0.000110
 49
-0.000110
  0
LTYPE
  2
PHANTOM
 70
    64
  3
_____ _ _ _____ _ _ _____ _ _ _____ _ _ ____
 72
    65
 73
     6
 40
0.001100
 49
0.000550
 49
-0.000110
 49
0.000110
 49
-0.000110
 49
0.000110
 49
-0.000110
  0
LTYPE
  2
DOT
 70
    64
  3
...............................................
 72
    65
 73
     2
 40
0.000110
 49
0.000000
 49
-0.000110
  0
LTYPE
  2
DASHDOT
 70
    64
  3
__ . __ . __ . __ . __ . __ . __ . __ . __ . __
 72
    65
 73
     4
 40
0.000440
 49
0.000220
 49
-0.000110
 49
0.000000
 49
-0.000110
  0
LTYPE
  2
BORDER
 70
    64
  3
__ __ . __ __ . __ __ . __ __ . __ __ . __ __
 72
    65
 73
     6
 40
0.000770
 49
0.000220
 49
-0.000110
 49
0.000220
 49
-0.000110
 49
0.000000
 49
-0.000110
  0
LTYPE
  2
DIVIDE
 70
    64
  3
__ . . __ . . __ . . __ . . __ . . __ . . __
 72
    65
 73
     6
 40
0.000550
 49
0.000220
 49
-0.000110
 49
0.000000
 49
-0.000110
 49
0.000000
 49
-0.000110
  0
LTYPE
  2
DOTDOT
 70
    64
  3
 . .  . .  . .  . .  . .  . . 
 72
    65
 73
     5
 40
0.000242
 49
-0.000110
 49
0.000000
 49
-0.000110
 49
0.000000
 49
-0.000110
  0
ENDTAB
  0
TABLE
  2
STYLE
 70
     2
  0
STYLE
 70
     0
  2
SN0
 40
0.000000
 41
0.000440
 50
0.000000
 71
     0
 42
0.000000
  3
ROMAND
  0
STYLE
 70
    68
  2
SV0
 40
0.000000
 41
0.000440
 50
0.000000
 71
     0
 42
0.000000
  3
ROMAND
  0
ENDTAB
  0
TABLE
  2
LAYER
 70
     3
  0
LAYER
  2
FOREGROUND
 70
    64
 62
     7
  6
CONTINUOUS
  0
LAYER
  2
BACKGROUND
 70
    65
 62
    -7
  6
CONTINUOUS
  0
LAYER
  2
0
 70
    64
 62
     7
  6
CONTINUOUS
  0
ENDTAB
  0
ENDSEC
  0
SECTION
  2
ENTITIES
  0
POLYLINE
  8
FOREGROUND
  6
CONTINUOUS
 66
     1
 40
0.000000
 41
0.000000
  0
VERTEX
  8
FOREGROUND
  6
CONTINUOUS
 10
0.000000
 20
4.017200
  0
VERTEX
  8
FOREGROUND
  6
CONTINUOUS
 10
8.499920
 20
4.017200
  0
VERTEX
  8
FOREGROUND
  6
CONTINUOUS
 10
8.499920
 20
-6.982800
  0
VERTEX
  8
FOREGROUND
  6
CONTINUOUS
 10
0.000000
 20
-6.982800
  0
VERTEX
  8
FOREGROUND
  6
CONTINUOUS
 10
0.000000
 20
4.017200
  0
SEQEND
  8
0
  0
POLYLINE
  8
FOREGROUND
  6
CONTINUOUS
 66
     1
 40
0.000000
 41
0.000000
  0
VERTEX
  8
FOREGROUND
  6
CONTINUOUS
 10
0.000000
 20
4.017200
  0
VERTEX
  8
FOREGROUND
  6
CONTINUOUS
 10
8.499920
 20
4.017200
  0
VERTEX
  8
FOREGROUND
  6
CONTINUOUS
 10
8.499920
 20
-6.982800
  0
VERTEX
  8
FOREGROUND
  6
CONTINUOUS
 10
0.000000
 20
-6.982800
  0
VERTEX
  8
FOREGROUND
  6
CONTINUOUS
 10
0.000000
 20
4.017200
  0
SEQEND
  8
0
  0
POLYLINE
  8
0
  6
CONTINUOUS
 66
     1
 40
0.014080
 41
0.014080
  0
VERTEX
  8
0
  6
CONTINUOUS
 10
6.284960
 20
3.503720
  0
VERTEX
  8
0
  6
CONTINUOUS
 10
5.643440
 20
3.503720
  0
VERTEX
  8
0
  6
CONTINUOUS
 10
5.643440
 20
3.172840
  0
VERTEX
  8
0
  6
CONTINUOUS
 10
6.808560
 20
3.172840
  0
VERTEX
  8
0
  6
CONTINUOUS
 10
6.809880
 20
3.336080
  0
VERTEX
  8
0
  6
CONTINUOUS
 10
6.806800
 20
3.355440
  0
VERTEX
  8
0
  6
CONTINUOUS
 10
6.801520
 20
3.373040
  0
VERTEX
  8
0
  6
CONTINUOUS
 10
6.794920
 20
3.389760
  0
VERTEX
  8
0
  6
CONTINUOUS
 10
6.787000
 20
3.405160
  0
VERTEX
  8
0
  6
CONTINUOUS
 10
6.777760
 20
3.419680
  0
VERTEX
  8
0
  6
CONTINUOUS
 10
6.767640
 20
3.432440
  0
VERTEX
  8
0
  6
CONTINUOUS
 10
6.756200
 20
3.444320
  0
VERTEX
  8
0
  6
CONTINUOUS
 10
6.743440
 20
3.454880
  0
VERTEX
  8
0
  6
CONTINUOUS
 10
6.730240
 20
3.464120
  0
VERTEX
  8
0
  6
CONTINUOUS
 10
6.716160
 20
3.472040
  0
VERTEX
  8
0
  6
CONTINUOUS
 10
6.701200
 20
3.479080
  0
VERTEX
  8
0
  6
CONTINUOUS
 10
6.686240
 20
3.484800
  0
VERTEX
  8
0
  6
CONTINUOUS
 10
6.670400
 20
3.489200
  0
VERTEX
  8
0
  6
CONTINUOUS
 10
6.654560
 20
3.492720
  0
VERTEX
  8
0
  6
CONTINUOUS
 10
6.638280
 20
3.494480
  0
VERTEX
  8
0
  6
CONTINUOUS
 10
6.622440
 20
3.495360
  0
VERTEX
  8
0
  6
CONTINUOUS
 10
6.606160
 20
3.495360
  0
VERTEX
  8
0
  6
CONTINUOUS
 10
6.590320
 20
3.493600
  0
VERTEX
  8
0
  6
CONTINUOUS
 10
6.574480
 20
3.490960
  0
VERTEX
  8
0
  6
CONTINUOUS
 10
6.559520
 20
3.487000
  0
VERTEX
  8
0
  6
CONTINUOUS
 10
6.544560
 20
3.481720
  0
VERTEX
  8
0
  6
CONTINUOUS
 10
6.530480
 20
3.475560
  0
VERTEX
  8
0
  6
CONTINUOUS
 10
6.517280
 20
3.468080
  0
VERTEX
  8
0
  6
CONTINUOUS
 10
6.504520
 20
3.459280
  0
VERTEX
  8
0
  6
CONTINUOUS
 10
6.493080
 20
3.449600
  0
VERTEX
  8
0
  6
CONTINUOUS
 10
6.482520
 20
3.438160
  0
VERTEX
  8
0
  6
CONTINUOUS
 10
6.473280
 20
3.425840
  0
VERTEX
  8
0
  6
CONTINUOUS
 10
6.465360
 20
3.412640
  0
VERTEX
  8
0
  6
CONTINUOUS
 10
6.458760
 20
3.398120
  0
VERTEX
  8
0
  6
CONTINUOUS
 10
6.453480
 20
3.382280
  0
VERTEX
  8
0
  6
CONTINUOUS
 10
6.450400
 20
3.365120
  0
VERTEX
  8
0
  6
CONTINUOUS
 10
6.448640
 20
3.347080
  0
VERTEX
  8
0
  6
CONTINUOUS
 10
6.444680
 20
3.331680
  0
VERTEX
  8
0
  6
CONTINUOUS
 10
6.306520
 20
3.331680
  0
VERTEX
  8
0
  6
CONTINUOUS
 10
6.284960
 20
3.501520
  0
VERTEX
  8
0
  6
CONTINUOUS
 10
6.284960
 20
3.503720
  0
SEQEND
  8
0
  0
SOLID
  8
0
 62
     7
 10
6.975320
 20
1.424280
 11
7.618160
 21
1.799600
 12
6.986760
 22
1.395240
 13
7.629600
 23
1.770560
  0
POLYLINE
  8
0
  6
CONTINUOUS
 66
     1
 40
0.000000
 41
0.000000
  0
VERTEX
  8
0
  6
CONTINUOUS
 10
6.975320
 20
1.424280
  0
VERTEX
  8
0
  6
CONTINUOUS
 10
7.618160
 20
1.799600
  0
VERTEX
  8
0
  6
CONTINUOUS
 10
7.629600
 20
1.770560
  0
VERTEX
  8
0
  6
CONTINUOUS
 10
6.986760
 20
1.395240
  0
VERTEX
  8
0
  6
CONTINUOUS
 10
6.975320
 20
1.424280
  0
SEQEND
  8
0
  0
SOLID
  8
0
 62
    15
 10
6.831440
 20
1.510080
 11
7.474720
 21
1.885400
 12
6.846400
 22
1.506120
 13
7.489680
 23
1.881440
  0
POLYLINE
  8
0
  6
CONTINUOUS
 66
     1
 40
0.000000
 41
0.000000
  0
VERTEX
  8
0
  6
CONTINUOUS
 10
6.831440
 20
1.510080
  0
VERTEX
  8
0
  6
CONTINUOUS
 10
7.474720
 20
1.885400
  0
VERTEX
  8
0
  6
CONTINUOUS
 10
7.489680
 20
1.881440
  0
VERTEX
  8
0
  6
CONTINUOUS
 10
6.846400
 20
1.506120
  0
VERTEX
  8
0
  6
CONTINUOUS
 10
6.831440
 20
1.510080
  0
SEQEND
  8
0
  0
SOLID
  8
0
 62
    15
 10
6.846400
 20
1.506120
 11
7.489680
 21
1.881440
 12
6.864880
 22
1.504360
 13
7.507720
 23
1.879680
  0
POLYLINE
  8
0
  6
CONTINUOUS
 66
     1
 40
0.000000
 41
0.000000
  0
VERTEX
  8
0
  6
CONTINUOUS
 10
6.846400
 20
1.506120
  0
VERTEX
  8
0
  6
CONTINUOUS
 10
7.489680
 20
1.881440
  0
VERTEX
  8
0
  6
CONTINUOUS
 10
7.507720
 20
1.879680
  0
VERTEX
  8
0
  6
CONTINUOUS
 10
6.864880
 20
1.504360
  0
VERTEX
  8
0
  6
CONTINUOUS
 10
6.846400
 20
1.506120
  0
SEQEND
  8
0
  0
SOLID
  8
0
 62
    15
 10
6.864880
 20
1.504360
 11
7.507720
 21
1.879680
 12
6.881600
 22
1.501280
 13
7.524880
 23
1.876600
  0
POLYLINE
  8
0
  6
CONTINUOUS
 66
     1
 40
0.000000
 41
0.000000
  0
VERTEX
  8
0
  6
CONTINUOUS
 10
6.864880
 20
1.504360
  0
VERTEX
  8
0
  6
CONTINUOUS
 10
7.507720
 20
1.879680
  0
VERTEX
  8
0
  6
CONTINUOUS
 10
7.524880
 20
1.876600
  0
VERTEX
  8
0
  6
CONTINUOUS
 10
6.881600
 20
1.501280
  0
VERTEX
  8
0
  6
CONTINUOUS
 10
6.864880
 20
1.504360
  0
SEQEND
  8
0
  0
SOLID
  8
0
 62
    15
 10
6.881600
 20
1.501280
 11
7.524880
 21
1.876600
 12
6.897440
 22
1.496000
 13
7.540720
 23
1.871320
  0
POLYLINE
  8
0
  6
CONTINUOUS
 66
     1
 40
0.000000
 41
0.000000
  0
VERTEX
  8
0
  6
CONTINUOUS
 10
6.881600
 20
1.501280
  0
VERTEX
  8
0
  6
CONTINUOUS
 10
7.524880
 20
1.876600
  0
VERTEX
  8
0
  6
CONTINUOUS
 10
7.540720
 20
1.871320
  0
VERTEX
  8
0
  6
CONTINUOUS
 10
6.897440
 20
1.496000
  0
VERTEX
  8
0
  6
CONTINUOUS
 10
6.881600
 20
1.501280
  0
SEQEND
  8
0
  0
SOLID
  8
0
 62
    15
 10
6.897440
 20
1.496000
 11
7.540720
 21
1.871320
 12
6.911960
 22
1.489400
 13
7.555240
 23
1.864720
  0
POLYLINE
  8
0
  6
CONTINUOUS
 66
     1
 40
0.000000
 41
0.000000
  0
VERTEX
  8
0
  6
CONTINUOUS
 10
6.897440
 20
1.496000
  0
VERTEX
  8
0
  6
CONTINUOUS
 10
7.540720
 20
1.871320
  0
VERTEX
  8
0
  6
CONTINUOUS
 10
7.555240
 20
1.864720
  0
VERTEX
  8
0
  6
CONTINUOUS
 10
6.911960
 20
1.489400
  0
VERTEX
  8
0
  6
CONTINUOUS
 10
6.897440
 20
1.496000
  0
SEQEND
  8
0
  0
SOLID
  8
0
 62
    15
 10
6.911960
 20
1.489400
 11
7.555240
 21
1.864720
 12
6.925600
 22
1.481480
 13
7.568880
 23
1.856800
  0
POLYLINE
  8
0
  6
CONTINUOUS
 66
     1
 40
0.000000
 41
0.000000
  0
VERTEX
  8
0
  6
CONTINUOUS
 10
6.911960
 20
1.489400
  0
VERTEX
  8
0
  6
CONTINUOUS
 10
7.555240
 20
1.864720
  0
VERTEX
  8
0
  6
CONTINUOUS
 10
7.568880
 20
1.856800
  0
VERTEX
  8
0
  6
CONTINUOUS
 10
6.925600
 20
1.481480
  0
VERTEX
  8
0
  6
CONTINUOUS
 10
6.911960
 20
1.489400
  0
SEQEND
  8
0
  0
SOLID
  8
0
 62
     7
 10
6.925600
 20
1.481480
 11
7.568880
 21
1.856800
 12
6.937920
 22
1.472240
 13
7.580760
 23
1.847560
  0
POLYLINE
  8
0
  6
CONTINUOUS
 66
     1
 40
0.000000
 41
0.000000
  0
VERTEX
  8
0
  6
CONTINUOUS
 10
6.925600
 20
1.481480
  0
VERTEX
  8
0
  6
CONTINUOUS
 10
7.568880
 20
1.856800
  0
VERTEX
  8
0
  6
CONTINUOUS
 10
7.580760
 20
1.847560
  0
VERTEX
  8
0
  6
CONTINUOUS
 10
6.937920
 20
1.472240
  0
VERTEX
  8
0
  6
CONTINUOUS
 10
6.925600
 20
1.481480
  0
SEQEND
  8
0
  0
SOLID
  8
0
 62
     7
 10
6.937920
 20
1.472240
 11
7.580760
 21
1.847560
 12
6.948920
 22
1.461680
 13
7.592200
 23
1.837000
  0
POLYLINE
  8
0
  6
CONTINUOUS
 66
     1
 40
0.000000
 41
0.000000
  0
VERTEX
  8
0
  6
CONTINUOUS
 10
6.937920
 20
1.472240
  0
VERTEX
  8
0
  6
CONTINUOUS
 10
7.580760
 20
1.847560
  0
VERTEX
  8
0
  6
CONTINUOUS
 10
7.592200
 20
1.837000
  0
VERTEX
  8
0
  6
CONTINUOUS
 10
6.948920
 20
1.461680
  0
VERTEX
  8
0
  6
CONTINUOUS
 10
6.937920
 20
1.472240
  0
SEQEND
  8
0
  0
SOLID
  8
0
 62
     7
 10
6.948920
 20
1.461680
 11
7.592200
 21
1.837000
 12
6.959040
 22
1.450240
 13
7.601880
 23
1.825560
  0
POLYLINE
  8
0
  6
CONTINUOUS
 66
     1
 40
0.000000
 41
0.000000
  0
VERTEX
  8
0
  6
CONTINUOUS
 10
6.948920
 20
1.461680
  0
VERTEX
  8
0
  6
CONTINUOUS
 10
7.592200
 20
1.837000
  0
VERTEX
  8
0
  6
CONTINUOUS
 10
7.601880
 20
1.825560
  0
VERTEX
  8
0
  6
CONTINUOUS
 10
6.959040
 20
1.450240
  0
VERTEX
  8
0
  6
CONTINUOUS
 10
6.948920
 20
1.461680
  0
SEQEND
  8
0
  0
SOLID
  8
0
 62
     7
 10
6.959040
 20
1.450240
 11
7.601880
 21
1.825560
 12
6.975320
 22
1.424280
 13
7.618160
 23
1.799600
  0
POLYLINE
  8
0
  6
CONTINUOUS
 66
     1
 40
0.000000
 41
0.000000
  0
VERTEX
  8
0
  6
CONTINUOUS
 10
6.959040
 20
1.450240
  0
VERTEX
  8
0
  6
CONTINUOUS
 10
7.601880
 20
1.825560
  0
VERTEX
  8
0
  6
CONTINUOUS
 10
7.618160
 20
1.799600
  0
VERTEX
  8
0
  6
CONTINUOUS
 10
6.975320
 20
1.424280
  0
VERTEX
  8
0
  6
CONTINUOUS
 10
6.959040
 20
1.450240
  0
SEQEND
  8
0
  0
SOLID
  8
0
 62
    15
 10
6.831440
 20
1.648240
 11
7.474720
 21
2.023560
 12
6.831440
 22
1.510080
 13
7.474720
 23
1.885400
  0
POLYLINE
  8
0
  6
CONTINUOUS
 66
     1
 40
0.000000
 41
0.000000
  0
VERTEX
  8
0
  6
CONTINUOUS
 10
6.831440
 20
1.648240
  0
VERTEX
  8
0
  6
CONTINUOUS
 10
7.474720
 20
2.023560
  0
VERTEX
  8
0
  6
CONTINUOUS
 10
7.474720
 20
1.885400
  0
VERTEX
  8
0
  6
CONTINUOUS
 10
6.831440
 20
1.510080
  0
VERTEX
  8
0
  6
CONTINUOUS
 10
6.831440
 20
1.648240
  0
SEQEND
  8
0
  0
SOLID
  8
0
 62
    15
 10
6.986760
 20
1.395240
 11
7.629600
 21
1.770560
 12
6.993360
 22
1.364440
 13
7.636200
 23
1.739760
  0
POLYLINE
  8
0
  6
CONTINUOUS
 66
     1
 40
0.000000
 41
0.000000
  0
VERTEX
  8
0
  6
CONTINUOUS
 10
6.986760
 20
1.395240
  0
VERTEX
  8
0
  6
CONTINUOUS
 10
7.629600
 20
1.770560
  0
VERTEX
  8
0
  6
CONTINUOUS
 10
7.636200
 20
1.739760
  0
VERTEX
  8
0
  6
CONTINUOUS
 10
6.993360
 20
1.364440
  0
VERTEX
  8
0
  6
CONTINUOUS
 10
6.986760
 20
1.395240
  0
SEQEND
  8
0
  0
SOLID
  8
0
 62
    15
 10
6.993360
 20
1.364440
 11
7.636200
 21
1.739760
 12
6.995120
 22
1.332320
 13
7.638400
 23
1.707640
  0
POLYLINE
  8
0
  6
CONTINUOUS
 66
     1
 40
0.000000
 41
0.000000
  0
VERTEX
  8
0
  6
CONTINUOUS
 10
6.993360
 20
1.364440
  0
VERTEX
  8
0
  6
CONTINUOUS
 10
7.636200
 20
1.739760
  0
VERTEX
  8
0
  6
CONTINUOUS
 10
7.638400
 20
1.707640
  0
VERTEX
  8
0
  6
CONTINUOUS
 10
6.995120
 20
1.332320
  0
VERTEX
  8
0
  6
CONTINUOUS
 10
6.993360
 20
1.364440
  0
SEQEND
  8
0
  0
SOLID
  8
0
 62
    15
 10
6.995120
 20
1.332320
 11
7.638400
 21
1.707640
 12
6.992480
 22
1.300200
 13
7.635320
 23
1.675520
  0
POLYLINE
  8
0
  6
CONTINUOUS
 66
     1
 40
0.000000
 41
0.000000
  0
VERTEX
  8
0
  6
CONTINUOUS
 10
6.995120
 20
1.332320
  0
VERTEX
  8
0
  6
CONTINUOUS
 10
7.638400
 20
1.707640
  0
VERTEX
  8
0
  6
CONTINUOUS
 10
7.635320
 20
1.675520
  0
VERTEX
  8
0
  6
CONTINUOUS
 10
6.992480
 20
1.300200
  0
VERTEX
  8
0
  6
CONTINUOUS
 10
6.995120
 20
1.332320
  0
SEQEND
  8
0
  0
SOLID
  8
0
 62
    15
 10
6.992480
 20
1.300200
 11
7.635320
 21
1.675520
 12
6.984560
 22
1.268520
 13
7.627400
 23
1.643840
  0
POLYLINE
  8
0
  6
CONTINUOUS
 66
     1
 40
0.000000
 41
0.000000
  0
VERTEX
  8
0
  6
CONTINUOUS
 10
6.992480
 20
1.300200
  0
VERTEX
  8
0
  6
CONTINUOUS
 10
7.635320
 20
1.675520
  0
VERTEX
  8
0
  6
CONTINUOUS
 10
7.627400
 20
1.643840
  0
VERTEX
  8
0
  6
CONTINUOUS
 10
6.984560
 20
1.268520
  0
VERTEX
  8
0
  6
CONTINUOUS
 10
6.992480
 20
1.300200
  0
SEQEND
  8
0
  0
SOLID
  8
0
 62
    15
 10
6.984560
 20
1.268520
 11
7.627400
 21
1.643840
 12
6.971800
 22
1.238600
 13
7.615080
 23
1.613920
  0
POLYLINE
  8
0
  6
CONTINUOUS
 66
     1
 40
0.000000
 41
0.000000
  0
VERTEX
  8
0
  6
CONTINUOUS
 10
6.984560
 20
1.268520
  0
VERTEX
  8
0
  6
CONTINUOUS
 10
7.627400
 20
1.643840
  0
VERTEX
  8
0
  6
CONTINUOUS
 10
7.615080
 20
1.613920
  0
VERTEX
  8
0
  6
CONTINUOUS
 10
6.971800
 20
1.238600
  0
VERTEX
  8
0
  6
CONTINUOUS
 10
6.984560
 20
1.268520
  0
SEQEND
  8
0
  0
SOLID
  8
0
 62
    15
 10
6.971800
 20
1.238600
 11
7.615080
 21
1.613920
 12
6.954640
 22
1.211320
 13
7.597480
 23
1.586640
  0
POLYLINE
  8
0
  6
CONTINUOUS
 66
     1
 40
0.000000
 41
0.000000
  0
VERTEX
  8
0
  6
CONTINUOUS
 10
6.971800
 20
1.238600
  0
VERTEX
  8
0
  6
CONTINUOUS
 10
7.615080
 20
1.613920
  0
VERTEX
  8
0
  6
CONTINUOUS
 10
7.597480
 20
1.586640
  0
VERTEX
  8
0
  6
CONTINUOUS
 10
6.954640
 20
1.211320
  0
VERTEX
  8
0
  6
CONTINUOUS
 10
6.971800
 20
1.238600
  0
SEQEND
  8
0
  0
SOLID
  8
0
 62
    15
 10
6.954640
 20
1.211320
 11
7.597480
 21
1.586640
 12
6.932200
 22
1.187120
 13
7.575040
 23
1.562440
  0
POLYLINE
  8
0
  6
CONTINUOUS
 66
     1
 40
0.000000
 41
0.000000
  0
VERTEX
  8
0
  6
CONTINUOUS
 10
6.954640
 20
1.211320
  0
VERTEX
  8
0
  6
CONTINUOUS
 10
7.597480
 20
1.586640
  0
VERTEX
  8
0
  6
CONTINUOUS
 10
7.575040
 20
1.562440
  0
VERTEX
  8
0
  6
CONTINUOUS
 10
6.932200
 20
1.187120
  0
VERTEX
  8
0
  6
CONTINUOUS
 10
6.954640
 20
1.211320
  0
SEQEND
  8
0
  0
SOLID
  8
0
 62
    15
 10
6.932200
 20
1.187120
 11
7.575040
 21
1.562440
 12
6.919000
 22
1.176560
 13
7.562280
 23
1.551880
  0
POLYLINE
  8
0
  6
CONTINUOUS
 66
     1
 40
0.000000
 41
0.000000
  0
VERTEX
  8
0
  6
CONTINUOUS
 10
6.932200
 20
1.187120
  0
VERTEX
  8
0
  6
CONTINUOUS
 10
7.575040
 20
1.562440
  0
VERTEX
  8
0
  6
CONTINUOUS
 10
7.562280
 20
1.551880
  0
VERTEX
  8
0
  6
CONTINUOUS
 10
6.919000
 20
1.176560
  0
VERTEX
  8
0
  6
CONTINUOUS
 10
6.932200
 20
1.187120
  0
SEQEND
  8
0
  0
SOLID
  8
0
 62
    15
 10
6.919000
 20
1.176560
 11
7.562280
 21
1.551880
 12
6.904920
 22
1.167760
 13
7.548200
 23
1.543080
  0
POLYLINE
  8
0
  6
CONTINUOUS
 66
     1
 40
0.000000
 41
0.000000
  0
VERTEX
  8
0
  6
CONTINUOUS
 10
6.919000
 20
1.176560
  0
VERTEX
  8
0
  6
CONTINUOUS
 10
7.562280
 20
1.551880
  0
VERTEX
  8
0
  6
CONTINUOUS
 10
7.548200
 20
1.543080
  0
VERTEX
  8
0
  6
CONTINUOUS
 10
6.904920
 20
1.167760
  0
VERTEX
  8
0
  6
CONTINUOUS
 10
6.919000
 20
1.176560
  0
SEQEND
  8
0
  0
SOLID
  8
0
 62
    15
 10
6.672160
 20
2.311760
 11
7.315440
 21
2.687080
 12
7.003480
 22
2.311760
 13
7.646760
 23
2.687080
  0
POLYLINE
  8
0
  6
CONTINUOUS
 66
     1
 40
0.000000
 41
0.000000
  0
VERTEX
  8
0
  6
CONTINUOUS
 10
6.672160
 20
2.311760
  0
VERTEX
  8
0
  6
CONTINUOUS
 10
7.315440
 20
2.687080
  0
VERTEX
  8
0
  6
CONTINUOUS
 10
7.646760
 20
2.687080
  0
VERTEX
  8
0
  6
CONTINUOUS
 10
7.003480
 20
2.311760
  0
VERTEX
  8
0
  6
CONTINUOUS
 10
6.672160
 20
2.311760
  0
SEQEND
  8
0
  0
SOLID
  8
0
 62
    15
 10
7.003480
 20
2.311760
 11
7.646760
 21
2.687080
 12
7.003480
 22
1.669800
 13
7.646760
 23
2.045120
  0
POLYLINE
  8
0
  6
CONTINUOUS
 66
     1
 40
0.000000
 41
0.000000
  0
VERTEX
  8
0
  6
CONTINUOUS
 10
7.003480
 20
2.311760
  0
VERTEX
  8
0
  6
CONTINUOUS
 10
7.646760
 20
2.687080
  0
VERTEX
  8
0
  6
CONTINUOUS
 10
7.646760
 20
2.045120
  0
VERTEX
  8
0
  6
CONTINUOUS
 10
7.003480
 20
1.669800
  0
VERTEX
  8
0
  6
CONTINUOUS
 10
7.003480
 20
2.311760
  0
SEQEND
  8
0
  0
POLYLINE
  8
0
  6
CONTINUOUS
 66
     1
 40
0.000000
 41
0.000000
  0
VERTEX
  8
0
  6
CONTINUOUS
 10
7.001280
 20
1.669800
  0
VERTEX
  8
0
  6
CONTINUOUS
 10
6.831440
 20
1.648240
  0
VERTEX
  8
0
  6
CONTINUOUS
 10
6.831440
 20
1.510080
  0
VERTEX
  8
0
  6
CONTINUOUS
 10
6.846400
 20
1.506120
  0
VERTEX
  8
0
  6
CONTINUOUS
 10
6.864880
 20
1.504360
  0
VERTEX
  8
0
  6
CONTINUOUS
 10
6.881600
 20
1.501280
  0
VERTEX
  8
0
  6
CONTINUOUS
 10
6.897440
 20
1.496000
  0
VERTEX
  8
0
  6
CONTINUOUS
 10
6.911960
 20
1.489400
  0
VERTEX
  8
0
  6
CONTINUOUS
 10
6.925600
 20
1.481480
  0
VERTEX
  8
0
  6
CONTINUOUS
 10
6.937920
 20
1.472240
  0
VERTEX
  8
0
  6
CONTINUOUS
 10
6.948920
 20
1.461680
  0
VERTEX
  8
0
  6
CONTINUOUS
 10
6.959040
 20
1.450240
  0
VERTEX
  8
0
  6
CONTINUOUS
 10
6.975320
 20
1.424280
  0
VERTEX
  8
0
  6
CONTINUOUS
 10
6.986760
 20
1.395240
  0
VERTEX
  8
0
  6
CONTINUOUS
 10
6.993360
 20
1.364440
  0
VERTEX
  8
0
  6
CONTINUOUS
 10
6.995120
 20
1.332320
  0
VERTEX
  8
0
  6
CONTINUOUS
 10
6.992480
 20
1.300200
  0
VERTEX
  8
0
  6
CONTINUOUS
 10
6.984560
 20
1.268520
  0
VERTEX
  8
0
  6
CONTINUOUS
 10
6.971800
 20
1.238600
  0
VERTEX
  8
0
  6
CONTINUOUS
 10
6.954640
 20
1.211320
  0
VERTEX
  8
0
  6
CONTINUOUS
 10
6.932200
 20
1.187120
  0
VERTEX
  8
0
  6
CONTINUOUS
 10
6.919000
 20
1.176560
  0
VERTEX
  8
0
  6
CONTINUOUS
 10
6.904920
 20
1.167760
  0
VERTEX
  8
0
  6
CONTINUOUS
 10
6.889520
 20
1.159840
  0
VERTEX
  8
0
  6
CONTINUOUS
 10
6.872800
 20
1.153240
  0
VERTEX
  8
0
  6
CONTINUOUS
 10
6.854760
 20
1.148400
  0
VERTEX
  8
0
  6
CONTINUOUS
 10
6.835840
 20
1.144880
  0
VERTEX
  8
0
  6
CONTINUOUS
 10
6.672160
 20
1.146200
  0
VERTEX
  8
0
  6
CONTINUOUS
 10
6.672160
 20
2.311760
  0
VERTEX
  8
0
  6
CONTINUOUS
 10
7.003480
 20
2.311760
  0
VERTEX
  8
0
  6
CONTINUOUS
 10
7.003480
 20
1.669800
  0
VERTEX
  8
0
  6
CONTINUOUS
 10
7.001280
 20
1.669800
  0
SEQEND
  8
0
  0
TEXT
  8
0
 10
6.865760
 20
0.935000
 40
0.138059
  1
BA  357
 41
1.000000
  7
SN0
 71
     0
 72
     5
 11
7.456154
 21
0.935000
  0
TEXT
  8
0
 10
6.388800
 20
0.743160
 40
0.138059
  1
3/8" bead for exterior
 41
1.000000
  7
SN0
 71
     0
 72
     5
 11
7.931821
 21
0.743160
  0
TEXT
  8
0
 10
6.921200
 20
0.551760
 40
0.138059
  1
siding.
 41
1.000000
  7
SN0
 71
     0
 72
     5
 11
7.400670
 21
0.551760
  0
ENDSEC
  0
EOF
