  0
SECTION
  2
HEADER
  9
$ACADVER
  1
AC1006
  9
$EXTMIN
 10
1.013320
 20
0.687280
  9
$EXTMAX
 10
7.314120
 20
7.219080
  9
$LTSCALE
 40
0.044000
  9
$PDMODE
 70
    35
  9
$PDSIZE
 40
0.035200
  0
ENDSEC
  0
SECTION
  2
TABLES
  0
TABLE
  2
LTYPE
 70
     9
  0
LTYPE
  2
CONTINUOUS
 70
    64
  3
Solid line
 72
    65
 73
     0
 40
0.000000
  0
LTYPE
  2
DASHED
 70
    64
  3
__ __ __ __ __ __ __ __ __ __ __ __ __ __ __
 72
    65
 73
     2
 40
0.000330
 49
0.000220
 49
-0.000110
  0
LTYPE
  2
HIDDEN
 70
    64
  3
 _ _ _ _ _ _ _ _ _ _ _ _ _ _ _ _ _ _ _ _ _ _
 72
    65
 73
     2
 40
0.000165
 49
0.000110
 49
-0.000055
  0
LTYPE
  2
CENTER
 70
    64
  3
____ _ ____ _ ____ _ ____ _ ____ _ ____ _ ____
 72
    65
 73
     4
 40
0.000880
 49
0.000550
 49
-0.000110
 49
0.000110
 49
-0.000110
  0
LTYPE
  2
PHANTOM
 70
    64
  3
_____ _ _ _____ _ _ _____ _ _ _____ _ _ ____
 72
    65
 73
     6
 40
0.001100
 49
0.000550
 49
-0.000110
 49
0.000110
 49
-0.000110
 49
0.000110
 49
-0.000110
  0
LTYPE
  2
DOT
 70
    64
  3
...............................................
 72
    65
 73
     2
 40
0.000110
 49
0.000000
 49
-0.000110
  0
LTYPE
  2
DASHDOT
 70
    64
  3
__ . __ . __ . __ . __ . __ . __ . __ . __ . __
 72
    65
 73
     4
 40
0.000440
 49
0.000220
 49
-0.000110
 49
0.000000
 49
-0.000110
  0
LTYPE
  2
BORDER
 70
    64
  3
__ __ . __ __ . __ __ . __ __ . __ __ . __ __
 72
    65
 73
     6
 40
0.000770
 49
0.000220
 49
-0.000110
 49
0.000220
 49
-0.000110
 49
0.000000
 49
-0.000110
  0
LTYPE
  2
DIVIDE
 70
    64
  3
__ . . __ . . __ . . __ . . __ . . __ . . __
 72
    65
 73
     6
 40
0.000550
 49
0.000220
 49
-0.000110
 49
0.000000
 49
-0.000110
 49
0.000000
 49
-0.000110
  0
LTYPE
  2
DOTDOT
 70
    64
  3
 . .  . .  . .  . .  . .  . . 
 72
    65
 73
     5
 40
0.000242
 49
-0.000110
 49
0.000000
 49
-0.000110
 49
0.000000
 49
-0.000110
  0
ENDTAB
  0
TABLE
  2
STYLE
 70
     2
  0
STYLE
 70
     0
  2
SN0
 40
0.000000
 41
0.000440
 50
0.000000
 71
     0
 42
0.000000
  3
ROMAND
  0
STYLE
 70
    68
  2
SV0
 40
0.000000
 41
0.000440
 50
0.000000
 71
     0
 42
0.000000
  3
ROMAND
  0
ENDTAB
  0
TABLE
  2
LAYER
 70
     3
  0
LAYER
  2
FOREGROUND
 70
    64
 62
     7
  6
CONTINUOUS
  0
LAYER
  2
BACKGROUND
 70
    65
 62
    -7
  6
CONTINUOUS
  0
LAYER
  2
0
 70
    64
 62
     7
  6
CONTINUOUS
  0
ENDTAB
  0
ENDSEC
  0
SECTION
  2
ENTITIES
  0
POLYLINE
  8
FOREGROUND
  6
CONTINUOUS
 66
     1
 40
0.000000
 41
0.000000
  0
VERTEX
  8
FOREGROUND
  6
CONTINUOUS
 10
0.000000
 20
7.906360
  0
VERTEX
  8
FOREGROUND
  6
CONTINUOUS
 10
8.499920
 20
7.906360
  0
VERTEX
  8
FOREGROUND
  6
CONTINUOUS
 10
8.499920
 20
-3.093640
  0
VERTEX
  8
FOREGROUND
  6
CONTINUOUS
 10
0.000000
 20
-3.093640
  0
VERTEX
  8
FOREGROUND
  6
CONTINUOUS
 10
0.000000
 20
7.906360
  0
SEQEND
  8
0
  0
POLYLINE
  8
FOREGROUND
  6
CONTINUOUS
 66
     1
 40
0.000000
 41
0.000000
  0
VERTEX
  8
FOREGROUND
  6
CONTINUOUS
 10
0.000000
 20
7.906360
  0
VERTEX
  8
FOREGROUND
  6
CONTINUOUS
 10
8.499920
 20
7.906360
  0
VERTEX
  8
FOREGROUND
  6
CONTINUOUS
 10
8.499920
 20
-3.093640
  0
VERTEX
  8
FOREGROUND
  6
CONTINUOUS
 10
0.000000
 20
-3.093640
  0
VERTEX
  8
FOREGROUND
  6
CONTINUOUS
 10
0.000000
 20
7.906360
  0
SEQEND
  8
0
  0
POLYLINE
  8
0
  6
CONTINUOUS
 66
     1
 40
0.014080
 41
0.014080
  0
VERTEX
  8
0
  6
CONTINUOUS
 10
6.514200
 20
6.805040
  0
VERTEX
  8
0
  6
CONTINUOUS
 10
7.021080
 20
7.187840
  0
VERTEX
  8
0
  6
CONTINUOUS
 10
7.304000
 20
6.816040
  0
VERTEX
  8
0
  6
CONTINUOUS
 10
6.677000
 20
6.327200
  0
VERTEX
  8
0
  6
CONTINUOUS
 10
1.391280
 20
6.323240
  0
VERTEX
  8
0
  6
CONTINUOUS
 10
1.023880
 20
6.772480
  0
VERTEX
  8
0
  6
CONTINUOUS
 10
1.532080
 20
7.185640
  0
VERTEX
  8
0
  6
CONTINUOUS
 10
1.642080
 20
7.124040
  0
VERTEX
  8
0
  6
CONTINUOUS
 10
1.750320
 20
7.068600
  0
VERTEX
  8
0
  6
CONTINUOUS
 10
1.857240
 20
7.019320
  0
VERTEX
  8
0
  6
CONTINUOUS
 10
1.962840
 20
6.975760
  0
VERTEX
  8
0
  6
CONTINUOUS
 10
2.066680
 20
6.937480
  0
VERTEX
  8
0
  6
CONTINUOUS
 10
2.169200
 20
6.904480
  0
VERTEX
  8
0
  6
CONTINUOUS
 10
2.269960
 20
6.875880
  0
VERTEX
  8
0
  6
CONTINUOUS
 10
2.368960
 20
6.852560
  0
VERTEX
  8
0
  6
CONTINUOUS
 10
2.466640
 20
6.833640
  0
VERTEX
  8
0
  6
CONTINUOUS
 10
2.514600
 20
6.825280
  0
VERTEX
  8
0
  6
CONTINUOUS
 10
2.609640
 20
6.812520
  0
VERTEX
  8
0
  6
CONTINUOUS
 10
2.702480
 20
6.803280
  0
VERTEX
  8
0
  6
CONTINUOUS
 10
2.793560
 20
6.798000
  0
VERTEX
  8
0
  6
CONTINUOUS
 10
2.883320
 20
6.795360
  0
VERTEX
  8
0
  6
CONTINUOUS
 10
2.970440
 20
6.796240
  0
VERTEX
  8
0
  6
CONTINUOUS
 10
3.056240
 20
6.799760
  0
VERTEX
  8
0
  6
CONTINUOUS
 10
3.139840
 20
6.805920
  0
VERTEX
  8
0
  6
CONTINUOUS
 10
3.261280
 20
6.819120
  0
VERTEX
  8
0
  6
CONTINUOUS
 10
3.378320
 20
6.836720
  0
VERTEX
  8
0
  6
CONTINUOUS
 10
3.490520
 20
6.857840
  0
VERTEX
  8
0
  6
CONTINUOUS
 10
3.632640
 20
6.889960
  0
VERTEX
  8
0
  6
CONTINUOUS
 10
3.765960
 20
6.924720
  0
VERTEX
  8
0
  6
CONTINUOUS
 10
4.157120
 20
7.038240
  0
VERTEX
  8
0
  6
CONTINUOUS
 10
4.373600
 20
7.093240
  0
VERTEX
  8
0
  6
CONTINUOUS
 10
4.533760
 20
7.128440
  0
VERTEX
  8
0
  6
CONTINUOUS
 10
4.709320
 20
7.161000
  0
VERTEX
  8
0
  6
CONTINUOUS
 10
4.783240
 20
7.172440
  0
VERTEX
  8
0
  6
CONTINUOUS
 10
4.936360
 20
7.191800
  0
VERTEX
  8
0
  6
CONTINUOUS
 10
5.094760
 20
7.205440
  0
VERTEX
  8
0
  6
CONTINUOUS
 10
5.175720
 20
7.209400
  0
VERTEX
  8
0
  6
CONTINUOUS
 10
5.257120
 20
7.211160
  0
VERTEX
  8
0
  6
CONTINUOUS
 10
5.339400
 20
7.211160
  0
VERTEX
  8
0
  6
CONTINUOUS
 10
5.422120
 20
7.208520
  0
VERTEX
  8
0
  6
CONTINUOUS
 10
5.546640
 20
7.199280
  0
VERTEX
  8
0
  6
CONTINUOUS
 10
5.629360
 20
7.189600
  0
VERTEX
  8
0
  6
CONTINUOUS
 10
5.753440
 20
7.168920
  0
VERTEX
  8
0
  6
CONTINUOUS
 10
5.835280
 20
7.150880
  0
VERTEX
  8
0
  6
CONTINUOUS
 10
5.916240
 20
7.129760
  0
VERTEX
  8
0
  6
CONTINUOUS
 10
5.996320
 20
7.104240
  0
VERTEX
  8
0
  6
CONTINUOUS
 10
6.075080
 20
7.075200
  0
VERTEX
  8
0
  6
CONTINUOUS
 10
6.152960
 20
7.041760
  0
VERTEX
  8
0
  6
CONTINUOUS
 10
6.229080
 20
7.003920
  0
VERTEX
  8
0
  6
CONTINUOUS
 10
6.303440
 20
6.961240
  0
VERTEX
  8
0
  6
CONTINUOUS
 10
6.376040
 20
6.914160
  0
VERTEX
  8
0
  6
CONTINUOUS
 10
6.446000
 20
6.862240
  0
VERTEX
  8
0
  6
CONTINUOUS
 10
6.514200
 20
6.805040
  0
SEQEND
  8
0
  0
SOLID
  8
0
 62
    15
 10
4.190120
 20
3.868480
 11
4.857160
 21
3.502400
 12
4.092000
 22
3.630440
 13
4.759040
 23
3.264360
  0
POLYLINE
  8
0
  6
CONTINUOUS
 66
     1
 40
0.000000
 41
0.000000
  0
VERTEX
  8
0
  6
CONTINUOUS
 10
4.190120
 20
3.868480
  0
VERTEX
  8
0
  6
CONTINUOUS
 10
4.857160
 20
3.502400
  0
VERTEX
  8
0
  6
CONTINUOUS
 10
4.759040
 20
3.264360
  0
VERTEX
  8
0
  6
CONTINUOUS
 10
4.092000
 20
3.630440
  0
VERTEX
  8
0
  6
CONTINUOUS
 10
4.190120
 20
3.868480
  0
SEQEND
  8
0
  0
SOLID
  8
0
 62
    15
 10
2.357080
 20
1.085480
 11
3.024120
 21
0.718960
 12
1.889800
 22
1.092960
 13
2.556840
 23
0.726880
  0
POLYLINE
  8
0
  6
CONTINUOUS
 66
     1
 40
0.000000
 41
0.000000
  0
VERTEX
  8
0
  6
CONTINUOUS
 10
2.357080
 20
1.085480
  0
VERTEX
  8
0
  6
CONTINUOUS
 10
3.024120
 20
0.718960
  0
VERTEX
  8
0
  6
CONTINUOUS
 10
2.556840
 20
0.726880
  0
VERTEX
  8
0
  6
CONTINUOUS
 10
1.889800
 20
1.092960
  0
VERTEX
  8
0
  6
CONTINUOUS
 10
2.357080
 20
1.085480
  0
SEQEND
  8
0
  0
SOLID
  8
0
 62
    15
 10
5.739360
 20
6.055280
 11
6.406840
 21
5.688760
 12
5.749920
 22
5.400560
 13
6.416960
 23
5.034040
  0
POLYLINE
  8
0
  6
CONTINUOUS
 66
     1
 40
0.000000
 41
0.000000
  0
VERTEX
  8
0
  6
CONTINUOUS
 10
5.739360
 20
6.055280
  0
VERTEX
  8
0
  6
CONTINUOUS
 10
6.406840
 20
5.688760
  0
VERTEX
  8
0
  6
CONTINUOUS
 10
6.416960
 20
5.034040
  0
VERTEX
  8
0
  6
CONTINUOUS
 10
5.749920
 20
5.400560
  0
VERTEX
  8
0
  6
CONTINUOUS
 10
5.739360
 20
6.055280
  0
SEQEND
  8
0
  0
SOLID
  8
0
 62
    15
 10
5.749920
 20
5.400560
 11
6.416960
 21
5.034040
 12
5.522880
 22
5.301120
 13
6.189920
 23
4.935040
  0
POLYLINE
  8
0
  6
CONTINUOUS
 66
     1
 40
0.000000
 41
0.000000
  0
VERTEX
  8
0
  6
CONTINUOUS
 10
5.749920
 20
5.400560
  0
VERTEX
  8
0
  6
CONTINUOUS
 10
6.416960
 20
5.034040
  0
VERTEX
  8
0
  6
CONTINUOUS
 10
6.189920
 20
4.935040
  0
VERTEX
  8
0
  6
CONTINUOUS
 10
5.522880
 20
5.301120
  0
VERTEX
  8
0
  6
CONTINUOUS
 10
5.749920
 20
5.400560
  0
SEQEND
  8
0
  0
SOLID
  8
0
 62
    15
 10
5.522880
 20
5.301120
 11
6.189920
 21
4.935040
 12
5.318280
 22
5.191560
 13
5.985320
 23
4.825480
  0
POLYLINE
  8
0
  6
CONTINUOUS
 66
     1
 40
0.000000
 41
0.000000
  0
VERTEX
  8
0
  6
CONTINUOUS
 10
5.522880
 20
5.301120
  0
VERTEX
  8
0
  6
CONTINUOUS
 10
6.189920
 20
4.935040
  0
VERTEX
  8
0
  6
CONTINUOUS
 10
5.985320
 20
4.825480
  0
VERTEX
  8
0
  6
CONTINUOUS
 10
5.318280
 20
5.191560
  0
VERTEX
  8
0
  6
CONTINUOUS
 10
5.522880
 20
5.301120
  0
SEQEND
  8
0
  0
SOLID
  8
0
 62
    15
 10
5.318280
 20
5.191560
 11
5.985320
 21
4.825480
 12
5.134360
 22
5.073640
 13
5.801840
 23
4.707560
  0
POLYLINE
  8
0
  6
CONTINUOUS
 66
     1
 40
0.000000
 41
0.000000
  0
VERTEX
  8
0
  6
CONTINUOUS
 10
5.318280
 20
5.191560
  0
VERTEX
  8
0
  6
CONTINUOUS
 10
5.985320
 20
4.825480
  0
VERTEX
  8
0
  6
CONTINUOUS
 10
5.801840
 20
4.707560
  0
VERTEX
  8
0
  6
CONTINUOUS
 10
5.134360
 20
5.073640
  0
VERTEX
  8
0
  6
CONTINUOUS
 10
5.318280
 20
5.191560
  0
SEQEND
  8
0
  0
SOLID
  8
0
 62
    15
 10
5.134360
 20
5.073640
 11
5.801840
 21
4.707560
 12
4.970240
 22
4.948680
 13
5.637720
 23
4.582160
  0
POLYLINE
  8
0
  6
CONTINUOUS
 66
     1
 40
0.000000
 41
0.000000
  0
VERTEX
  8
0
  6
CONTINUOUS
 10
5.134360
 20
5.073640
  0
VERTEX
  8
0
  6
CONTINUOUS
 10
5.801840
 20
4.707560
  0
VERTEX
  8
0
  6
CONTINUOUS
 10
5.637720
 20
4.582160
  0
VERTEX
  8
0
  6
CONTINUOUS
 10
4.970240
 20
4.948680
  0
VERTEX
  8
0
  6
CONTINUOUS
 10
5.134360
 20
5.073640
  0
SEQEND
  8
0
  0
SOLID
  8
0
 62
    15
 10
4.970240
 20
4.948680
 11
5.637720
 21
4.582160
 12
4.694800
 22
4.682920
 13
5.361840
 23
4.316840
  0
POLYLINE
  8
0
  6
CONTINUOUS
 66
     1
 40
0.000000
 41
0.000000
  0
VERTEX
  8
0
  6
CONTINUOUS
 10
4.970240
 20
4.948680
  0
VERTEX
  8
0
  6
CONTINUOUS
 10
5.637720
 20
4.582160
  0
VERTEX
  8
0
  6
CONTINUOUS
 10
5.361840
 20
4.316840
  0
VERTEX
  8
0
  6
CONTINUOUS
 10
4.694800
 20
4.682920
  0
VERTEX
  8
0
  6
CONTINUOUS
 10
4.970240
 20
4.948680
  0
SEQEND
  8
0
  0
SOLID
  8
0
 62
    15
 10
4.694800
 20
4.682920
 11
5.361840
 21
4.316840
 12
4.480080
 22
4.406600
 13
5.147560
 23
4.040080
  0
POLYLINE
  8
0
  6
CONTINUOUS
 66
     1
 40
0.000000
 41
0.000000
  0
VERTEX
  8
0
  6
CONTINUOUS
 10
4.694800
 20
4.682920
  0
VERTEX
  8
0
  6
CONTINUOUS
 10
5.361840
 20
4.316840
  0
VERTEX
  8
0
  6
CONTINUOUS
 10
5.147560
 20
4.040080
  0
VERTEX
  8
0
  6
CONTINUOUS
 10
4.480080
 20
4.406600
  0
VERTEX
  8
0
  6
CONTINUOUS
 10
4.694800
 20
4.682920
  0
SEQEND
  8
0
  0
SOLID
  8
0
 62
    15
 10
4.480080
 20
4.406600
 11
5.147560
 21
4.040080
 12
4.315520
 22
4.131160
 13
4.983000
 23
3.765080
  0
POLYLINE
  8
0
  6
CONTINUOUS
 66
     1
 40
0.000000
 41
0.000000
  0
VERTEX
  8
0
  6
CONTINUOUS
 10
4.480080
 20
4.406600
  0
VERTEX
  8
0
  6
CONTINUOUS
 10
5.147560
 20
4.040080
  0
VERTEX
  8
0
  6
CONTINUOUS
 10
4.983000
 20
3.765080
  0
VERTEX
  8
0
  6
CONTINUOUS
 10
4.315520
 20
4.131160
  0
VERTEX
  8
0
  6
CONTINUOUS
 10
4.480080
 20
4.406600
  0
SEQEND
  8
0
  0
SOLID
  8
0
 62
    15
 10
4.315520
 20
4.131160
 11
4.983000
 21
3.765080
 12
4.190120
 22
3.868480
 13
4.857160
 23
3.502400
  0
POLYLINE
  8
0
  6
CONTINUOUS
 66
     1
 40
0.000000
 41
0.000000
  0
VERTEX
  8
0
  6
CONTINUOUS
 10
4.315520
 20
4.131160
  0
VERTEX
  8
0
  6
CONTINUOUS
 10
4.983000
 20
3.765080
  0
VERTEX
  8
0
  6
CONTINUOUS
 10
4.857160
 20
3.502400
  0
VERTEX
  8
0
  6
CONTINUOUS
 10
4.190120
 20
3.868480
  0
VERTEX
  8
0
  6
CONTINUOUS
 10
4.315520
 20
4.131160
  0
SEQEND
  8
0
  0
SOLID
  8
0
 62
    15
 10
2.369400
 20
1.720840
 11
3.036880
 21
1.354320
 12
2.357080
 22
1.085480
 13
3.024120
 23
0.718960
  0
POLYLINE
  8
0
  6
CONTINUOUS
 66
     1
 40
0.000000
 41
0.000000
  0
VERTEX
  8
0
  6
CONTINUOUS
 10
2.369400
 20
1.720840
  0
VERTEX
  8
0
  6
CONTINUOUS
 10
3.036880
 20
1.354320
  0
VERTEX
  8
0
  6
CONTINUOUS
 10
3.024120
 20
0.718960
  0
VERTEX
  8
0
  6
CONTINUOUS
 10
2.357080
 20
1.085480
  0
VERTEX
  8
0
  6
CONTINUOUS
 10
2.369400
 20
1.720840
  0
SEQEND
  8
0
  0
SOLID
  8
0
 62
    15
 10
4.092000
 20
3.630440
 11
4.759040
 21
3.264360
 12
4.010600
 22
3.428920
 13
4.677640
 23
3.062400
  0
POLYLINE
  8
0
  6
CONTINUOUS
 66
     1
 40
0.000000
 41
0.000000
  0
VERTEX
  8
0
  6
CONTINUOUS
 10
4.092000
 20
3.630440
  0
VERTEX
  8
0
  6
CONTINUOUS
 10
4.759040
 20
3.264360
  0
VERTEX
  8
0
  6
CONTINUOUS
 10
4.677640
 20
3.062400
  0
VERTEX
  8
0
  6
CONTINUOUS
 10
4.010600
 20
3.428920
  0
VERTEX
  8
0
  6
CONTINUOUS
 10
4.092000
 20
3.630440
  0
SEQEND
  8
0
  0
SOLID
  8
0
 62
    15
 10
4.010600
 20
3.428920
 11
4.677640
 21
3.062400
 12
3.919520
 22
3.224760
 13
4.586560
 23
2.858240
  0
POLYLINE
  8
0
  6
CONTINUOUS
 66
     1
 40
0.000000
 41
0.000000
  0
VERTEX
  8
0
  6
CONTINUOUS
 10
4.010600
 20
3.428920
  0
VERTEX
  8
0
  6
CONTINUOUS
 10
4.677640
 20
3.062400
  0
VERTEX
  8
0
  6
CONTINUOUS
 10
4.586560
 20
2.858240
  0
VERTEX
  8
0
  6
CONTINUOUS
 10
3.919520
 20
3.224760
  0
VERTEX
  8
0
  6
CONTINUOUS
 10
4.010600
 20
3.428920
  0
SEQEND
  8
0
  0
SOLID
  8
0
 62
    15
 10
3.919520
 20
3.224760
 11
4.586560
 21
2.858240
 12
3.799840
 22
2.983200
 13
4.466880
 23
2.616680
  0
POLYLINE
  8
0
  6
CONTINUOUS
 66
     1
 40
0.000000
 41
0.000000
  0
VERTEX
  8
0
  6
CONTINUOUS
 10
3.919520
 20
3.224760
  0
VERTEX
  8
0
  6
CONTINUOUS
 10
4.586560
 20
2.858240
  0
VERTEX
  8
0
  6
CONTINUOUS
 10
4.466880
 20
2.616680
  0
VERTEX
  8
0
  6
CONTINUOUS
 10
3.799840
 20
2.983200
  0
VERTEX
  8
0
  6
CONTINUOUS
 10
3.919520
 20
3.224760
  0
SEQEND
  8
0
  0
SOLID
  8
0
 62
    15
 10
3.799840
 20
2.983200
 11
4.466880
 21
2.616680
 12
3.649360
 22
2.721400
 13
4.316400
 23
2.355320
  0
POLYLINE
  8
0
  6
CONTINUOUS
 66
     1
 40
0.000000
 41
0.000000
  0
VERTEX
  8
0
  6
CONTINUOUS
 10
3.799840
 20
2.983200
  0
VERTEX
  8
0
  6
CONTINUOUS
 10
4.466880
 20
2.616680
  0
VERTEX
  8
0
  6
CONTINUOUS
 10
4.316400
 20
2.355320
  0
VERTEX
  8
0
  6
CONTINUOUS
 10
3.649360
 20
2.721400
  0
VERTEX
  8
0
  6
CONTINUOUS
 10
3.799840
 20
2.983200
  0
SEQEND
  8
0
  0
SOLID
  8
0
 62
    15
 10
3.649360
 20
2.721400
 11
4.316400
 21
2.355320
 12
3.466320
 22
2.456960
 13
4.133360
 23
2.090880
  0
POLYLINE
  8
0
  6
CONTINUOUS
 66
     1
 40
0.000000
 41
0.000000
  0
VERTEX
  8
0
  6
CONTINUOUS
 10
3.649360
 20
2.721400
  0
VERTEX
  8
0
  6
CONTINUOUS
 10
4.316400
 20
2.355320
  0
VERTEX
  8
0
  6
CONTINUOUS
 10
4.133360
 20
2.090880
  0
VERTEX
  8
0
  6
CONTINUOUS
 10
3.466320
 20
2.456960
  0
VERTEX
  8
0
  6
CONTINUOUS
 10
3.649360
 20
2.721400
  0
SEQEND
  8
0
  0
SOLID
  8
0
 62
    15
 10
3.466320
 20
2.456960
 11
4.133360
 21
2.090880
 12
3.248520
 22
2.207480
 13
3.915560
 23
1.840960
  0
POLYLINE
  8
0
  6
CONTINUOUS
 66
     1
 40
0.000000
 41
0.000000
  0
VERTEX
  8
0
  6
CONTINUOUS
 10
3.466320
 20
2.456960
  0
VERTEX
  8
0
  6
CONTINUOUS
 10
4.133360
 20
2.090880
  0
VERTEX
  8
0
  6
CONTINUOUS
 10
3.915560
 20
1.840960
  0
VERTEX
  8
0
  6
CONTINUOUS
 10
3.248520
 20
2.207480
  0
VERTEX
  8
0
  6
CONTINUOUS
 10
3.466320
 20
2.456960
  0
SEQEND
  8
0
  0
SOLID
  8
0
 62
    15
 10
3.248520
 20
2.207480
 11
3.915560
 21
1.840960
 12
2.994200
 22
1.989680
 13
3.661680
 23
1.623600
  0
POLYLINE
  8
0
  6
CONTINUOUS
 66
     1
 40
0.000000
 41
0.000000
  0
VERTEX
  8
0
  6
CONTINUOUS
 10
3.248520
 20
2.207480
  0
VERTEX
  8
0
  6
CONTINUOUS
 10
3.915560
 20
1.840960
  0
VERTEX
  8
0
  6
CONTINUOUS
 10
3.661680
 20
1.623600
  0
VERTEX
  8
0
  6
CONTINUOUS
 10
2.994200
 20
1.989680
  0
VERTEX
  8
0
  6
CONTINUOUS
 10
3.248520
 20
2.207480
  0
SEQEND
  8
0
  0
SOLID
  8
0
 62
    15
 10
2.994200
 20
1.989680
 11
3.661680
 21
1.623600
 12
2.702040
 22
1.822040
 13
3.369080
 23
1.455520
  0
POLYLINE
  8
0
  6
CONTINUOUS
 66
     1
 40
0.000000
 41
0.000000
  0
VERTEX
  8
0
  6
CONTINUOUS
 10
2.994200
 20
1.989680
  0
VERTEX
  8
0
  6
CONTINUOUS
 10
3.661680
 20
1.623600
  0
VERTEX
  8
0
  6
CONTINUOUS
 10
3.369080
 20
1.455520
  0
VERTEX
  8
0
  6
CONTINUOUS
 10
2.702040
 20
1.822040
  0
VERTEX
  8
0
  6
CONTINUOUS
 10
2.994200
 20
1.989680
  0
SEQEND
  8
0
  0
SOLID
  8
0
 62
    15
 10
2.702040
 20
1.822040
 11
3.369080
 21
1.455520
 12
2.541000
 22
1.761760
 13
3.208040
 23
1.395680
  0
POLYLINE
  8
0
  6
CONTINUOUS
 66
     1
 40
0.000000
 41
0.000000
  0
VERTEX
  8
0
  6
CONTINUOUS
 10
2.702040
 20
1.822040
  0
VERTEX
  8
0
  6
CONTINUOUS
 10
3.369080
 20
1.455520
  0
VERTEX
  8
0
  6
CONTINUOUS
 10
3.208040
 20
1.395680
  0
VERTEX
  8
0
  6
CONTINUOUS
 10
2.541000
 20
1.761760
  0
VERTEX
  8
0
  6
CONTINUOUS
 10
2.702040
 20
1.822040
  0
SEQEND
  8
0
  0
SOLID
  8
0
 62
    15
 10
2.541000
 20
1.761760
 11
3.208040
 21
1.395680
 12
2.369400
 22
1.720840
 13
3.036880
 23
1.354320
  0
POLYLINE
  8
0
  6
CONTINUOUS
 66
     1
 40
0.000000
 41
0.000000
  0
VERTEX
  8
0
  6
CONTINUOUS
 10
2.541000
 20
1.761760
  0
VERTEX
  8
0
  6
CONTINUOUS
 10
3.208040
 20
1.395680
  0
VERTEX
  8
0
  6
CONTINUOUS
 10
3.036880
 20
1.354320
  0
VERTEX
  8
0
  6
CONTINUOUS
 10
2.369400
 20
1.720840
  0
VERTEX
  8
0
  6
CONTINUOUS
 10
2.541000
 20
1.761760
  0
SEQEND
  8
0
  0
POLYLINE
  8
0
  6
CONTINUOUS
 66
     1
 40
0.000000
 41
0.000000
  0
VERTEX
  8
0
  6
CONTINUOUS
 10
2.369400
 20
1.720840
  0
VERTEX
  8
0
  6
CONTINUOUS
 10
2.357080
 20
1.085480
  0
VERTEX
  8
0
  6
CONTINUOUS
 10
1.889800
 20
1.092960
  0
VERTEX
  8
0
  6
CONTINUOUS
 10
1.893320
 20
1.888480
  0
VERTEX
  8
0
  6
CONTINUOUS
 10
1.905200
 20
1.902560
  0
VERTEX
  8
0
  6
CONTINUOUS
 10
5.159000
 20
6.044280
  0
VERTEX
  8
0
  6
CONTINUOUS
 10
5.739360
 20
6.055280
  0
VERTEX
  8
0
  6
CONTINUOUS
 10
5.749920
 20
5.400560
  0
VERTEX
  8
0
  6
CONTINUOUS
 10
5.522880
 20
5.301120
  0
VERTEX
  8
0
  6
CONTINUOUS
 10
5.318280
 20
5.191560
  0
VERTEX
  8
0
  6
CONTINUOUS
 10
5.134360
 20
5.073640
  0
VERTEX
  8
0
  6
CONTINUOUS
 10
4.970240
 20
4.948680
  0
VERTEX
  8
0
  6
CONTINUOUS
 10
4.694800
 20
4.682920
  0
VERTEX
  8
0
  6
CONTINUOUS
 10
4.480080
 20
4.406600
  0
VERTEX
  8
0
  6
CONTINUOUS
 10
4.315520
 20
4.131160
  0
VERTEX
  8
0
  6
CONTINUOUS
 10
4.190120
 20
3.868480
  0
VERTEX
  8
0
  6
CONTINUOUS
 10
4.092000
 20
3.630440
  0
VERTEX
  8
0
  6
CONTINUOUS
 10
4.010600
 20
3.428920
  0
VERTEX
  8
0
  6
CONTINUOUS
 10
3.919520
 20
3.224760
  0
VERTEX
  8
0
  6
CONTINUOUS
 10
3.799840
 20
2.983200
  0
VERTEX
  8
0
  6
CONTINUOUS
 10
3.649360
 20
2.721400
  0
VERTEX
  8
0
  6
CONTINUOUS
 10
3.466320
 20
2.456960
  0
VERTEX
  8
0
  6
CONTINUOUS
 10
3.248520
 20
2.207480
  0
VERTEX
  8
0
  6
CONTINUOUS
 10
2.994200
 20
1.989680
  0
VERTEX
  8
0
  6
CONTINUOUS
 10
2.702040
 20
1.822040
  0
VERTEX
  8
0
  6
CONTINUOUS
 10
2.541000
 20
1.761760
  0
VERTEX
  8
0
  6
CONTINUOUS
 10
2.369400
 20
1.720840
  0
SEQEND
  8
0
  0
TEXT
  8
0
 10
3.700840
 20
0.922240
 40
0.138316
  1
BA  356
 41
1.000000
  7
SN0
 71
     0
 72
     5
 11
4.291968
 21
0.922240
  0
TEXT
  8
0
 10
3.545080
 20
0.730400
 40
0.138316
  1
7/8" x 6-1/4"
 41
1.000000
  7
SN0
 71
     0
 72
     5
 11
4.447448
 21
0.730400
  0
ENDSEC
  0
EOF
