  0
SECTION
  2
HEADER
  9
$ACADVER
  1
AC1006
  9
$EXTMIN
 10
4.946040
 20
0.355080
  9
$EXTMAX
 10
7.640600
 20
3.221240
  9
$LTSCALE
 40
0.044000
  9
$PDMODE
 70
    35
  9
$PDSIZE
 40
0.035200
  0
ENDSEC
  0
SECTION
  2
TABLES
  0
TABLE
  2
LTYPE
 70
     9
  0
LTYPE
  2
CONTINUOUS
 70
    64
  3
Solid line
 72
    65
 73
     0
 40
0.000000
  0
LTYPE
  2
DASHED
 70
    64
  3
__ __ __ __ __ __ __ __ __ __ __ __ __ __ __
 72
    65
 73
     2
 40
0.000330
 49
0.000220
 49
-0.000110
  0
LTYPE
  2
HIDDEN
 70
    64
  3
 _ _ _ _ _ _ _ _ _ _ _ _ _ _ _ _ _ _ _ _ _ _
 72
    65
 73
     2
 40
0.000165
 49
0.000110
 49
-0.000055
  0
LTYPE
  2
CENTER
 70
    64
  3
____ _ ____ _ ____ _ ____ _ ____ _ ____ _ ____
 72
    65
 73
     4
 40
0.000880
 49
0.000550
 49
-0.000110
 49
0.000110
 49
-0.000110
  0
LTYPE
  2
PHANTOM
 70
    64
  3
_____ _ _ _____ _ _ _____ _ _ _____ _ _ ____
 72
    65
 73
     6
 40
0.001100
 49
0.000550
 49
-0.000110
 49
0.000110
 49
-0.000110
 49
0.000110
 49
-0.000110
  0
LTYPE
  2
DOT
 70
    64
  3
...............................................
 72
    65
 73
     2
 40
0.000110
 49
0.000000
 49
-0.000110
  0
LTYPE
  2
DASHDOT
 70
    64
  3
__ . __ . __ . __ . __ . __ . __ . __ . __ . __
 72
    65
 73
     4
 40
0.000440
 49
0.000220
 49
-0.000110
 49
0.000000
 49
-0.000110
  0
LTYPE
  2
BORDER
 70
    64
  3
__ __ . __ __ . __ __ . __ __ . __ __ . __ __
 72
    65
 73
     6
 40
0.000770
 49
0.000220
 49
-0.000110
 49
0.000220
 49
-0.000110
 49
0.000000
 49
-0.000110
  0
LTYPE
  2
DIVIDE
 70
    64
  3
__ . . __ . . __ . . __ . . __ . . __ . . __
 72
    65
 73
     6
 40
0.000550
 49
0.000220
 49
-0.000110
 49
0.000000
 49
-0.000110
 49
0.000000
 49
-0.000110
  0
LTYPE
  2
DOTDOT
 70
    64
  3
 . .  . .  . .  . .  . .  . . 
 72
    65
 73
     5
 40
0.000242
 49
-0.000110
 49
0.000000
 49
-0.000110
 49
0.000000
 49
-0.000110
  0
ENDTAB
  0
TABLE
  2
STYLE
 70
     2
  0
STYLE
 70
     0
  2
SN0
 40
0.000000
 41
0.000440
 50
0.000000
 71
     0
 42
0.000000
  3
ROMAND
  0
STYLE
 70
    68
  2
SV0
 40
0.000000
 41
0.000440
 50
0.000000
 71
     0
 42
0.000000
  3
ROMAND
  0
ENDTAB
  0
TABLE
  2
LAYER
 70
     3
  0
LAYER
  2
FOREGROUND
 70
    64
 62
     7
  6
CONTINUOUS
  0
LAYER
  2
BACKGROUND
 70
    65
 62
    -7
  6
CONTINUOUS
  0
LAYER
  2
0
 70
    64
 62
     7
  6
CONTINUOUS
  0
ENDTAB
  0
ENDSEC
  0
SECTION
  2
ENTITIES
  0
POLYLINE
  8
FOREGROUND
  6
CONTINUOUS
 66
     1
 40
0.000000
 41
0.000000
  0
VERTEX
  8
FOREGROUND
  6
CONTINUOUS
 10
0.000000
 20
3.576320
  0
VERTEX
  8
FOREGROUND
  6
CONTINUOUS
 10
8.499920
 20
3.576320
  0
VERTEX
  8
FOREGROUND
  6
CONTINUOUS
 10
8.499920
 20
-7.423680
  0
VERTEX
  8
FOREGROUND
  6
CONTINUOUS
 10
0.000000
 20
-7.423680
  0
VERTEX
  8
FOREGROUND
  6
CONTINUOUS
 10
0.000000
 20
3.576320
  0
SEQEND
  8
0
  0
POLYLINE
  8
FOREGROUND
  6
CONTINUOUS
 66
     1
 40
0.000000
 41
0.000000
  0
VERTEX
  8
FOREGROUND
  6
CONTINUOUS
 10
0.000000
 20
3.576320
  0
VERTEX
  8
FOREGROUND
  6
CONTINUOUS
 10
8.499920
 20
3.576320
  0
VERTEX
  8
FOREGROUND
  6
CONTINUOUS
 10
8.499920
 20
-7.423680
  0
VERTEX
  8
FOREGROUND
  6
CONTINUOUS
 10
0.000000
 20
-7.423680
  0
VERTEX
  8
FOREGROUND
  6
CONTINUOUS
 10
0.000000
 20
3.576320
  0
SEQEND
  8
0
  0
SOLID
  8
0
 62
    15
 10
6.516400
 20
2.123440
 11
7.157480
 21
2.493480
 12
6.508920
 22
2.069760
 13
7.150000
 23
2.439360
  0
POLYLINE
  8
0
  6
CONTINUOUS
 66
     1
 40
0.000000
 41
0.000000
  0
VERTEX
  8
0
  6
CONTINUOUS
 10
6.516400
 20
2.123440
  0
VERTEX
  8
0
  6
CONTINUOUS
 10
7.157480
 20
2.493480
  0
VERTEX
  8
0
  6
CONTINUOUS
 10
7.150000
 20
2.439360
  0
VERTEX
  8
0
  6
CONTINUOUS
 10
6.508920
 20
2.069760
  0
VERTEX
  8
0
  6
CONTINUOUS
 10
6.516400
 20
2.123440
  0
SEQEND
  8
0
  0
SOLID
  8
0
 62
    15
 10
6.193880
 20
2.850760
 11
6.834520
 21
3.220360
 12
6.345680
 22
2.850760
 13
6.986760
 23
3.220360
  0
POLYLINE
  8
0
  6
CONTINUOUS
 66
     1
 40
0.000000
 41
0.000000
  0
VERTEX
  8
0
  6
CONTINUOUS
 10
6.193880
 20
2.850760
  0
VERTEX
  8
0
  6
CONTINUOUS
 10
6.834520
 20
3.220360
  0
VERTEX
  8
0
  6
CONTINUOUS
 10
6.986760
 20
3.220360
  0
VERTEX
  8
0
  6
CONTINUOUS
 10
6.345680
 20
2.850760
  0
VERTEX
  8
0
  6
CONTINUOUS
 10
6.193880
 20
2.850760
  0
SEQEND
  8
0
  0
SOLID
  8
0
 62
    15
 10
6.345680
 20
2.850760
 11
6.986760
 21
3.220360
 12
6.349640
 22
2.812920
 13
6.990280
 23
3.182960
  0
POLYLINE
  8
0
  6
CONTINUOUS
 66
     1
 40
0.000000
 41
0.000000
  0
VERTEX
  8
0
  6
CONTINUOUS
 10
6.345680
 20
2.850760
  0
VERTEX
  8
0
  6
CONTINUOUS
 10
6.986760
 20
3.220360
  0
VERTEX
  8
0
  6
CONTINUOUS
 10
6.990280
 20
3.182960
  0
VERTEX
  8
0
  6
CONTINUOUS
 10
6.349640
 20
2.812920
  0
VERTEX
  8
0
  6
CONTINUOUS
 10
6.345680
 20
2.850760
  0
SEQEND
  8
0
  0
SOLID
  8
0
 62
    15
 10
6.349640
 20
2.812920
 11
6.990280
 21
3.182960
 12
6.359760
 22
2.777280
 13
7.000840
 23
3.146880
  0
POLYLINE
  8
0
  6
CONTINUOUS
 66
     1
 40
0.000000
 41
0.000000
  0
VERTEX
  8
0
  6
CONTINUOUS
 10
6.349640
 20
2.812920
  0
VERTEX
  8
0
  6
CONTINUOUS
 10
6.990280
 20
3.182960
  0
VERTEX
  8
0
  6
CONTINUOUS
 10
7.000840
 20
3.146880
  0
VERTEX
  8
0
  6
CONTINUOUS
 10
6.359760
 20
2.777280
  0
VERTEX
  8
0
  6
CONTINUOUS
 10
6.349640
 20
2.812920
  0
SEQEND
  8
0
  0
SOLID
  8
0
 62
    15
 10
6.359760
 20
2.777280
 11
7.000840
 21
3.146880
 12
6.376040
 22
2.743840
 13
7.016680
 23
3.113880
  0
POLYLINE
  8
0
  6
CONTINUOUS
 66
     1
 40
0.000000
 41
0.000000
  0
VERTEX
  8
0
  6
CONTINUOUS
 10
6.359760
 20
2.777280
  0
VERTEX
  8
0
  6
CONTINUOUS
 10
7.000840
 20
3.146880
  0
VERTEX
  8
0
  6
CONTINUOUS
 10
7.016680
 20
3.113880
  0
VERTEX
  8
0
  6
CONTINUOUS
 10
6.376040
 20
2.743840
  0
VERTEX
  8
0
  6
CONTINUOUS
 10
6.359760
 20
2.777280
  0
SEQEND
  8
0
  0
SOLID
  8
0
 62
    15
 10
6.376040
 20
2.743840
 11
7.016680
 21
3.113880
 12
6.396720
 22
2.714360
 13
7.037360
 23
3.083960
  0
POLYLINE
  8
0
  6
CONTINUOUS
 66
     1
 40
0.000000
 41
0.000000
  0
VERTEX
  8
0
  6
CONTINUOUS
 10
6.376040
 20
2.743840
  0
VERTEX
  8
0
  6
CONTINUOUS
 10
7.016680
 20
3.113880
  0
VERTEX
  8
0
  6
CONTINUOUS
 10
7.037360
 20
3.083960
  0
VERTEX
  8
0
  6
CONTINUOUS
 10
6.396720
 20
2.714360
  0
VERTEX
  8
0
  6
CONTINUOUS
 10
6.376040
 20
2.743840
  0
SEQEND
  8
0
  0
SOLID
  8
0
 62
    15
 10
6.396720
 20
2.714360
 11
7.037360
 21
3.083960
 12
6.420920
 22
2.689280
 13
7.061560
 23
3.059320
  0
POLYLINE
  8
0
  6
CONTINUOUS
 66
     1
 40
0.000000
 41
0.000000
  0
VERTEX
  8
0
  6
CONTINUOUS
 10
6.396720
 20
2.714360
  0
VERTEX
  8
0
  6
CONTINUOUS
 10
7.037360
 20
3.083960
  0
VERTEX
  8
0
  6
CONTINUOUS
 10
7.061560
 20
3.059320
  0
VERTEX
  8
0
  6
CONTINUOUS
 10
6.420920
 20
2.689280
  0
VERTEX
  8
0
  6
CONTINUOUS
 10
6.396720
 20
2.714360
  0
SEQEND
  8
0
  0
SOLID
  8
0
 62
    15
 10
6.420920
 20
2.689280
 11
7.061560
 21
3.059320
 12
6.448200
 22
2.670360
 13
7.088840
 23
3.039960
  0
POLYLINE
  8
0
  6
CONTINUOUS
 66
     1
 40
0.000000
 41
0.000000
  0
VERTEX
  8
0
  6
CONTINUOUS
 10
6.420920
 20
2.689280
  0
VERTEX
  8
0
  6
CONTINUOUS
 10
7.061560
 20
3.059320
  0
VERTEX
  8
0
  6
CONTINUOUS
 10
7.088840
 20
3.039960
  0
VERTEX
  8
0
  6
CONTINUOUS
 10
6.448200
 20
2.670360
  0
VERTEX
  8
0
  6
CONTINUOUS
 10
6.420920
 20
2.689280
  0
SEQEND
  8
0
  0
SOLID
  8
0
 62
    15
 10
6.448200
 20
2.670360
 11
7.088840
 21
3.039960
 12
6.476800
 22
2.658040
 13
7.117440
 23
3.027640
  0
POLYLINE
  8
0
  6
CONTINUOUS
 66
     1
 40
0.000000
 41
0.000000
  0
VERTEX
  8
0
  6
CONTINUOUS
 10
6.448200
 20
2.670360
  0
VERTEX
  8
0
  6
CONTINUOUS
 10
7.088840
 20
3.039960
  0
VERTEX
  8
0
  6
CONTINUOUS
 10
7.117440
 20
3.027640
  0
VERTEX
  8
0
  6
CONTINUOUS
 10
6.476800
 20
2.658040
  0
VERTEX
  8
0
  6
CONTINUOUS
 10
6.448200
 20
2.670360
  0
SEQEND
  8
0
  0
SOLID
  8
0
 62
    15
 10
6.476800
 20
2.658040
 11
7.117440
 21
3.027640
 12
6.506280
 22
2.653640
 13
7.147360
 23
3.023680
  0
POLYLINE
  8
0
  6
CONTINUOUS
 66
     1
 40
0.000000
 41
0.000000
  0
VERTEX
  8
0
  6
CONTINUOUS
 10
6.476800
 20
2.658040
  0
VERTEX
  8
0
  6
CONTINUOUS
 10
7.117440
 20
3.027640
  0
VERTEX
  8
0
  6
CONTINUOUS
 10
7.147360
 20
3.023680
  0
VERTEX
  8
0
  6
CONTINUOUS
 10
6.506280
 20
2.653640
  0
VERTEX
  8
0
  6
CONTINUOUS
 10
6.476800
 20
2.658040
  0
SEQEND
  8
0
  0
SOLID
  8
0
 62
    15
 10
6.506280
 20
2.653640
 11
7.147360
 21
3.023680
 12
6.505400
 22
2.543200
 13
7.146040
 23
2.913240
  0
POLYLINE
  8
0
  6
CONTINUOUS
 66
     1
 40
0.000000
 41
0.000000
  0
VERTEX
  8
0
  6
CONTINUOUS
 10
6.506280
 20
2.653640
  0
VERTEX
  8
0
  6
CONTINUOUS
 10
7.147360
 20
3.023680
  0
VERTEX
  8
0
  6
CONTINUOUS
 10
7.146040
 20
2.913240
  0
VERTEX
  8
0
  6
CONTINUOUS
 10
6.505400
 20
2.543200
  0
VERTEX
  8
0
  6
CONTINUOUS
 10
6.506280
 20
2.653640
  0
SEQEND
  8
0
  0
SOLID
  8
0
 62
    15
 10
6.505400
 20
2.543200
 11
7.146040
 21
2.913240
 12
6.552920
 22
2.537040
 13
7.194000
 23
2.906640
  0
POLYLINE
  8
0
  6
CONTINUOUS
 66
     1
 40
0.000000
 41
0.000000
  0
VERTEX
  8
0
  6
CONTINUOUS
 10
6.505400
 20
2.543200
  0
VERTEX
  8
0
  6
CONTINUOUS
 10
7.146040
 20
2.913240
  0
VERTEX
  8
0
  6
CONTINUOUS
 10
7.194000
 20
2.906640
  0
VERTEX
  8
0
  6
CONTINUOUS
 10
6.552920
 20
2.537040
  0
VERTEX
  8
0
  6
CONTINUOUS
 10
6.505400
 20
2.543200
  0
SEQEND
  8
0
  0
SOLID
  8
0
 62
    15
 10
6.552920
 20
2.537040
 11
7.194000
 21
2.906640
 12
6.594720
 22
2.522960
 13
7.235800
 23
2.892560
  0
POLYLINE
  8
0
  6
CONTINUOUS
 66
     1
 40
0.000000
 41
0.000000
  0
VERTEX
  8
0
  6
CONTINUOUS
 10
6.552920
 20
2.537040
  0
VERTEX
  8
0
  6
CONTINUOUS
 10
7.194000
 20
2.906640
  0
VERTEX
  8
0
  6
CONTINUOUS
 10
7.235800
 20
2.892560
  0
VERTEX
  8
0
  6
CONTINUOUS
 10
6.594720
 20
2.522960
  0
VERTEX
  8
0
  6
CONTINUOUS
 10
6.552920
 20
2.537040
  0
SEQEND
  8
0
  0
SOLID
  8
0
 62
    15
 10
6.594720
 20
2.522960
 11
7.235800
 21
2.892560
 12
6.630360
 22
2.502280
 13
7.271000
 23
2.872320
  0
POLYLINE
  8
0
  6
CONTINUOUS
 66
     1
 40
0.000000
 41
0.000000
  0
VERTEX
  8
0
  6
CONTINUOUS
 10
6.594720
 20
2.522960
  0
VERTEX
  8
0
  6
CONTINUOUS
 10
7.235800
 20
2.892560
  0
VERTEX
  8
0
  6
CONTINUOUS
 10
7.271000
 20
2.872320
  0
VERTEX
  8
0
  6
CONTINUOUS
 10
6.630360
 20
2.502280
  0
VERTEX
  8
0
  6
CONTINUOUS
 10
6.594720
 20
2.522960
  0
SEQEND
  8
0
  0
SOLID
  8
0
 62
    15
 10
6.630360
 20
2.502280
 11
7.271000
 21
2.872320
 12
6.659400
 22
2.475880
 13
7.300040
 23
2.845920
  0
POLYLINE
  8
0
  6
CONTINUOUS
 66
     1
 40
0.000000
 41
0.000000
  0
VERTEX
  8
0
  6
CONTINUOUS
 10
6.630360
 20
2.502280
  0
VERTEX
  8
0
  6
CONTINUOUS
 10
7.271000
 20
2.872320
  0
VERTEX
  8
0
  6
CONTINUOUS
 10
7.300040
 20
2.845920
  0
VERTEX
  8
0
  6
CONTINUOUS
 10
6.659400
 20
2.475880
  0
VERTEX
  8
0
  6
CONTINUOUS
 10
6.630360
 20
2.502280
  0
SEQEND
  8
0
  0
SOLID
  8
0
 62
    15
 10
6.659400
 20
2.475880
 11
7.300040
 21
2.845920
 12
6.682280
 22
2.445520
 13
7.322920
 23
2.815120
  0
POLYLINE
  8
0
  6
CONTINUOUS
 66
     1
 40
0.000000
 41
0.000000
  0
VERTEX
  8
0
  6
CONTINUOUS
 10
6.659400
 20
2.475880
  0
VERTEX
  8
0
  6
CONTINUOUS
 10
7.300040
 20
2.845920
  0
VERTEX
  8
0
  6
CONTINUOUS
 10
7.322920
 20
2.815120
  0
VERTEX
  8
0
  6
CONTINUOUS
 10
6.682280
 20
2.445520
  0
VERTEX
  8
0
  6
CONTINUOUS
 10
6.659400
 20
2.475880
  0
SEQEND
  8
0
  0
SOLID
  8
0
 62
    15
 10
6.682280
 20
2.445520
 11
7.322920
 21
2.815120
 12
6.698560
 22
2.411200
 13
7.339640
 23
2.781240
  0
POLYLINE
  8
0
  6
CONTINUOUS
 66
     1
 40
0.000000
 41
0.000000
  0
VERTEX
  8
0
  6
CONTINUOUS
 10
6.682280
 20
2.445520
  0
VERTEX
  8
0
  6
CONTINUOUS
 10
7.322920
 20
2.815120
  0
VERTEX
  8
0
  6
CONTINUOUS
 10
7.339640
 20
2.781240
  0
VERTEX
  8
0
  6
CONTINUOUS
 10
6.698560
 20
2.411200
  0
VERTEX
  8
0
  6
CONTINUOUS
 10
6.682280
 20
2.445520
  0
SEQEND
  8
0
  0
SOLID
  8
0
 62
    15
 10
6.698560
 20
2.411200
 11
7.339640
 21
2.781240
 12
6.709120
 22
2.375120
 13
7.349760
 23
2.745160
  0
POLYLINE
  8
0
  6
CONTINUOUS
 66
     1
 40
0.000000
 41
0.000000
  0
VERTEX
  8
0
  6
CONTINUOUS
 10
6.698560
 20
2.411200
  0
VERTEX
  8
0
  6
CONTINUOUS
 10
7.339640
 20
2.781240
  0
VERTEX
  8
0
  6
CONTINUOUS
 10
7.349760
 20
2.745160
  0
VERTEX
  8
0
  6
CONTINUOUS
 10
6.709120
 20
2.375120
  0
VERTEX
  8
0
  6
CONTINUOUS
 10
6.698560
 20
2.411200
  0
SEQEND
  8
0
  0
SOLID
  8
0
 62
    15
 10
6.709120
 20
2.375120
 11
7.349760
 21
2.745160
 12
6.713080
 22
2.337720
 13
7.353720
 23
2.707320
  0
POLYLINE
  8
0
  6
CONTINUOUS
 66
     1
 40
0.000000
 41
0.000000
  0
VERTEX
  8
0
  6
CONTINUOUS
 10
6.709120
 20
2.375120
  0
VERTEX
  8
0
  6
CONTINUOUS
 10
7.349760
 20
2.745160
  0
VERTEX
  8
0
  6
CONTINUOUS
 10
7.353720
 20
2.707320
  0
VERTEX
  8
0
  6
CONTINUOUS
 10
6.713080
 20
2.337720
  0
VERTEX
  8
0
  6
CONTINUOUS
 10
6.709120
 20
2.375120
  0
SEQEND
  8
0
  0
SOLID
  8
0
 62
    15
 10
6.713080
 20
2.337720
 11
7.353720
 21
2.707320
 12
6.710440
 22
2.299880
 13
7.351520
 23
2.669920
  0
POLYLINE
  8
0
  6
CONTINUOUS
 66
     1
 40
0.000000
 41
0.000000
  0
VERTEX
  8
0
  6
CONTINUOUS
 10
6.713080
 20
2.337720
  0
VERTEX
  8
0
  6
CONTINUOUS
 10
7.353720
 20
2.707320
  0
VERTEX
  8
0
  6
CONTINUOUS
 10
7.351520
 20
2.669920
  0
VERTEX
  8
0
  6
CONTINUOUS
 10
6.710440
 20
2.299880
  0
VERTEX
  8
0
  6
CONTINUOUS
 10
6.713080
 20
2.337720
  0
SEQEND
  8
0
  0
SOLID
  8
0
 62
    15
 10
6.710440
 20
2.299880
 11
7.351520
 21
2.669920
 12
6.702080
 22
2.263360
 13
7.342720
 23
2.632960
  0
POLYLINE
  8
0
  6
CONTINUOUS
 66
     1
 40
0.000000
 41
0.000000
  0
VERTEX
  8
0
  6
CONTINUOUS
 10
6.710440
 20
2.299880
  0
VERTEX
  8
0
  6
CONTINUOUS
 10
7.351520
 20
2.669920
  0
VERTEX
  8
0
  6
CONTINUOUS
 10
7.342720
 20
2.632960
  0
VERTEX
  8
0
  6
CONTINUOUS
 10
6.702080
 20
2.263360
  0
VERTEX
  8
0
  6
CONTINUOUS
 10
6.710440
 20
2.299880
  0
SEQEND
  8
0
  0
SOLID
  8
0
 62
    15
 10
6.702080
 20
2.263360
 11
7.342720
 21
2.632960
 12
6.686680
 22
2.228600
 13
7.327760
 23
2.598640
  0
POLYLINE
  8
0
  6
CONTINUOUS
 66
     1
 40
0.000000
 41
0.000000
  0
VERTEX
  8
0
  6
CONTINUOUS
 10
6.702080
 20
2.263360
  0
VERTEX
  8
0
  6
CONTINUOUS
 10
7.342720
 20
2.632960
  0
VERTEX
  8
0
  6
CONTINUOUS
 10
7.327760
 20
2.598640
  0
VERTEX
  8
0
  6
CONTINUOUS
 10
6.686680
 20
2.228600
  0
VERTEX
  8
0
  6
CONTINUOUS
 10
6.702080
 20
2.263360
  0
SEQEND
  8
0
  0
SOLID
  8
0
 62
    15
 10
6.686680
 20
2.228600
 11
7.327760
 21
2.598640
 12
6.665560
 22
2.196920
 13
7.306200
 23
2.566960
  0
POLYLINE
  8
0
  6
CONTINUOUS
 66
     1
 40
0.000000
 41
0.000000
  0
VERTEX
  8
0
  6
CONTINUOUS
 10
6.686680
 20
2.228600
  0
VERTEX
  8
0
  6
CONTINUOUS
 10
7.327760
 20
2.598640
  0
VERTEX
  8
0
  6
CONTINUOUS
 10
7.306200
 20
2.566960
  0
VERTEX
  8
0
  6
CONTINUOUS
 10
6.665560
 20
2.196920
  0
VERTEX
  8
0
  6
CONTINUOUS
 10
6.686680
 20
2.228600
  0
SEQEND
  8
0
  0
SOLID
  8
0
 62
    15
 10
6.665560
 20
2.196920
 11
7.306200
 21
2.566960
 12
6.637840
 22
2.169640
 13
7.278480
 23
2.539680
  0
POLYLINE
  8
0
  6
CONTINUOUS
 66
     1
 40
0.000000
 41
0.000000
  0
VERTEX
  8
0
  6
CONTINUOUS
 10
6.665560
 20
2.196920
  0
VERTEX
  8
0
  6
CONTINUOUS
 10
7.306200
 20
2.566960
  0
VERTEX
  8
0
  6
CONTINUOUS
 10
7.278480
 20
2.539680
  0
VERTEX
  8
0
  6
CONTINUOUS
 10
6.637840
 20
2.169640
  0
VERTEX
  8
0
  6
CONTINUOUS
 10
6.665560
 20
2.196920
  0
SEQEND
  8
0
  0
SOLID
  8
0
 62
    15
 10
6.739480
 20
0.988680
 11
7.380560
 21
1.358720
 12
6.739480
 22
0.851840
 13
7.380560
 23
1.221880
  0
POLYLINE
  8
0
  6
CONTINUOUS
 66
     1
 40
0.000000
 41
0.000000
  0
VERTEX
  8
0
  6
CONTINUOUS
 10
6.739480
 20
0.988680
  0
VERTEX
  8
0
  6
CONTINUOUS
 10
7.380560
 20
1.358720
  0
VERTEX
  8
0
  6
CONTINUOUS
 10
7.380560
 20
1.221880
  0
VERTEX
  8
0
  6
CONTINUOUS
 10
6.739480
 20
0.851840
  0
VERTEX
  8
0
  6
CONTINUOUS
 10
6.739480
 20
0.988680
  0
SEQEND
  8
0
  0
SOLID
  8
0
 62
    15
 10
6.637840
 20
2.169640
 11
7.278480
 21
2.539680
 12
6.603960
 22
2.147640
 13
7.244600
 23
2.517240
  0
POLYLINE
  8
0
  6
CONTINUOUS
 66
     1
 40
0.000000
 41
0.000000
  0
VERTEX
  8
0
  6
CONTINUOUS
 10
6.637840
 20
2.169640
  0
VERTEX
  8
0
  6
CONTINUOUS
 10
7.278480
 20
2.539680
  0
VERTEX
  8
0
  6
CONTINUOUS
 10
7.244600
 20
2.517240
  0
VERTEX
  8
0
  6
CONTINUOUS
 10
6.603960
 20
2.147640
  0
VERTEX
  8
0
  6
CONTINUOUS
 10
6.637840
 20
2.169640
  0
SEQEND
  8
0
  0
SOLID
  8
0
 62
    15
 10
6.508920
 20
2.069760
 11
7.150000
 21
2.439360
 12
6.507600
 22
2.018280
 13
7.148240
 23
2.388320
  0
POLYLINE
  8
0
  6
CONTINUOUS
 66
     1
 40
0.000000
 41
0.000000
  0
VERTEX
  8
0
  6
CONTINUOUS
 10
6.508920
 20
2.069760
  0
VERTEX
  8
0
  6
CONTINUOUS
 10
7.150000
 20
2.439360
  0
VERTEX
  8
0
  6
CONTINUOUS
 10
7.148240
 20
2.388320
  0
VERTEX
  8
0
  6
CONTINUOUS
 10
6.507600
 20
2.018280
  0
VERTEX
  8
0
  6
CONTINUOUS
 10
6.508920
 20
2.069760
  0
SEQEND
  8
0
  0
SOLID
  8
0
 62
    15
 10
6.507600
 20
2.018280
 11
7.148240
 21
2.388320
 12
6.511560
 22
1.969880
 13
7.152200
 23
2.339920
  0
POLYLINE
  8
0
  6
CONTINUOUS
 66
     1
 40
0.000000
 41
0.000000
  0
VERTEX
  8
0
  6
CONTINUOUS
 10
6.507600
 20
2.018280
  0
VERTEX
  8
0
  6
CONTINUOUS
 10
7.148240
 20
2.388320
  0
VERTEX
  8
0
  6
CONTINUOUS
 10
7.152200
 20
2.339920
  0
VERTEX
  8
0
  6
CONTINUOUS
 10
6.511560
 20
1.969880
  0
VERTEX
  8
0
  6
CONTINUOUS
 10
6.507600
 20
2.018280
  0
SEQEND
  8
0
  0
SOLID
  8
0
 62
    15
 10
6.511560
 20
1.969880
 11
7.152200
 21
2.339920
 12
6.520800
 22
1.923680
 13
7.161440
 23
2.293720
  0
POLYLINE
  8
0
  6
CONTINUOUS
 66
     1
 40
0.000000
 41
0.000000
  0
VERTEX
  8
0
  6
CONTINUOUS
 10
6.511560
 20
1.969880
  0
VERTEX
  8
0
  6
CONTINUOUS
 10
7.152200
 20
2.339920
  0
VERTEX
  8
0
  6
CONTINUOUS
 10
7.161440
 20
2.293720
  0
VERTEX
  8
0
  6
CONTINUOUS
 10
6.520800
 20
1.923680
  0
VERTEX
  8
0
  6
CONTINUOUS
 10
6.511560
 20
1.969880
  0
SEQEND
  8
0
  0
SOLID
  8
0
 62
    15
 10
6.520800
 20
1.923680
 11
7.161440
 21
2.293720
 12
6.534440
 22
1.880120
 13
7.175080
 23
2.250160
  0
POLYLINE
  8
0
  6
CONTINUOUS
 66
     1
 40
0.000000
 41
0.000000
  0
VERTEX
  8
0
  6
CONTINUOUS
 10
6.520800
 20
1.923680
  0
VERTEX
  8
0
  6
CONTINUOUS
 10
7.161440
 20
2.293720
  0
VERTEX
  8
0
  6
CONTINUOUS
 10
7.175080
 20
2.250160
  0
VERTEX
  8
0
  6
CONTINUOUS
 10
6.534440
 20
1.880120
  0
VERTEX
  8
0
  6
CONTINUOUS
 10
6.520800
 20
1.923680
  0
SEQEND
  8
0
  0
SOLID
  8
0
 62
    15
 10
6.534440
 20
1.880120
 11
7.175080
 21
2.250160
 12
6.552480
 22
1.838320
 13
7.193560
 23
2.208360
  0
POLYLINE
  8
0
  6
CONTINUOUS
 66
     1
 40
0.000000
 41
0.000000
  0
VERTEX
  8
0
  6
CONTINUOUS
 10
6.534440
 20
1.880120
  0
VERTEX
  8
0
  6
CONTINUOUS
 10
7.175080
 20
2.250160
  0
VERTEX
  8
0
  6
CONTINUOUS
 10
7.193560
 20
2.208360
  0
VERTEX
  8
0
  6
CONTINUOUS
 10
6.552480
 20
1.838320
  0
VERTEX
  8
0
  6
CONTINUOUS
 10
6.534440
 20
1.880120
  0
SEQEND
  8
0
  0
SOLID
  8
0
 62
    15
 10
6.552480
 20
1.838320
 11
7.193560
 21
2.208360
 12
6.574480
 22
1.798720
 13
7.215560
 23
2.168760
  0
POLYLINE
  8
0
  6
CONTINUOUS
 66
     1
 40
0.000000
 41
0.000000
  0
VERTEX
  8
0
  6
CONTINUOUS
 10
6.552480
 20
1.838320
  0
VERTEX
  8
0
  6
CONTINUOUS
 10
7.193560
 20
2.208360
  0
VERTEX
  8
0
  6
CONTINUOUS
 10
7.215560
 20
2.168760
  0
VERTEX
  8
0
  6
CONTINUOUS
 10
6.574480
 20
1.798720
  0
VERTEX
  8
0
  6
CONTINUOUS
 10
6.552480
 20
1.838320
  0
SEQEND
  8
0
  0
SOLID
  8
0
 62
    15
 10
6.574480
 20
1.798720
 11
7.215560
 21
2.168760
 12
6.600000
 22
1.760880
 13
7.241080
 23
2.130920
  0
POLYLINE
  8
0
  6
CONTINUOUS
 66
     1
 40
0.000000
 41
0.000000
  0
VERTEX
  8
0
  6
CONTINUOUS
 10
6.574480
 20
1.798720
  0
VERTEX
  8
0
  6
CONTINUOUS
 10
7.215560
 20
2.168760
  0
VERTEX
  8
0
  6
CONTINUOUS
 10
7.241080
 20
2.130920
  0
VERTEX
  8
0
  6
CONTINUOUS
 10
6.600000
 20
1.760880
  0
VERTEX
  8
0
  6
CONTINUOUS
 10
6.574480
 20
1.798720
  0
SEQEND
  8
0
  0
SOLID
  8
0
 62
    15
 10
6.600000
 20
1.760880
 11
7.241080
 21
2.130920
 12
6.659840
 22
1.690040
 13
7.300920
 23
2.060080
  0
POLYLINE
  8
0
  6
CONTINUOUS
 66
     1
 40
0.000000
 41
0.000000
  0
VERTEX
  8
0
  6
CONTINUOUS
 10
6.600000
 20
1.760880
  0
VERTEX
  8
0
  6
CONTINUOUS
 10
7.241080
 20
2.130920
  0
VERTEX
  8
0
  6
CONTINUOUS
 10
7.300920
 20
2.060080
  0
VERTEX
  8
0
  6
CONTINUOUS
 10
6.659840
 20
1.690040
  0
VERTEX
  8
0
  6
CONTINUOUS
 10
6.600000
 20
1.760880
  0
SEQEND
  8
0
  0
SOLID
  8
0
 62
    15
 10
6.659840
 20
1.690040
 11
7.300920
 21
2.060080
 12
6.728920
 22
1.624920
 13
7.369560
 23
1.994520
  0
POLYLINE
  8
0
  6
CONTINUOUS
 66
     1
 40
0.000000
 41
0.000000
  0
VERTEX
  8
0
  6
CONTINUOUS
 10
6.659840
 20
1.690040
  0
VERTEX
  8
0
  6
CONTINUOUS
 10
7.300920
 20
2.060080
  0
VERTEX
  8
0
  6
CONTINUOUS
 10
7.369560
 20
1.994520
  0
VERTEX
  8
0
  6
CONTINUOUS
 10
6.728920
 20
1.624920
  0
VERTEX
  8
0
  6
CONTINUOUS
 10
6.659840
 20
1.690040
  0
SEQEND
  8
0
  0
SOLID
  8
0
 62
    15
 10
6.728920
 20
1.624920
 11
7.369560
 21
1.994520
 12
6.879400
 22
1.505240
 13
7.520480
 23
1.874840
  0
POLYLINE
  8
0
  6
CONTINUOUS
 66
     1
 40
0.000000
 41
0.000000
  0
VERTEX
  8
0
  6
CONTINUOUS
 10
6.728920
 20
1.624920
  0
VERTEX
  8
0
  6
CONTINUOUS
 10
7.369560
 20
1.994520
  0
VERTEX
  8
0
  6
CONTINUOUS
 10
7.520480
 20
1.874840
  0
VERTEX
  8
0
  6
CONTINUOUS
 10
6.879400
 20
1.505240
  0
VERTEX
  8
0
  6
CONTINUOUS
 10
6.728920
 20
1.624920
  0
SEQEND
  8
0
  0
SOLID
  8
0
 62
    15
 10
6.879400
 20
1.505240
 11
7.520480
 21
1.874840
 12
6.914600
 22
1.474440
 13
7.555680
 23
1.844040
  0
POLYLINE
  8
0
  6
CONTINUOUS
 66
     1
 40
0.000000
 41
0.000000
  0
VERTEX
  8
0
  6
CONTINUOUS
 10
6.879400
 20
1.505240
  0
VERTEX
  8
0
  6
CONTINUOUS
 10
7.520480
 20
1.874840
  0
VERTEX
  8
0
  6
CONTINUOUS
 10
7.555680
 20
1.844040
  0
VERTEX
  8
0
  6
CONTINUOUS
 10
6.914600
 20
1.474440
  0
VERTEX
  8
0
  6
CONTINUOUS
 10
6.879400
 20
1.505240
  0
SEQEND
  8
0
  0
SOLID
  8
0
 62
    15
 10
6.914600
 20
1.474440
 11
7.555680
 21
1.844040
 12
6.943640
 22
1.440120
 13
7.584720
 23
1.809720
  0
POLYLINE
  8
0
  6
CONTINUOUS
 66
     1
 40
0.000000
 41
0.000000
  0
VERTEX
  8
0
  6
CONTINUOUS
 10
6.914600
 20
1.474440
  0
VERTEX
  8
0
  6
CONTINUOUS
 10
7.555680
 20
1.844040
  0
VERTEX
  8
0
  6
CONTINUOUS
 10
7.584720
 20
1.809720
  0
VERTEX
  8
0
  6
CONTINUOUS
 10
6.943640
 20
1.440120
  0
VERTEX
  8
0
  6
CONTINUOUS
 10
6.914600
 20
1.474440
  0
SEQEND
  8
0
  0
SOLID
  8
0
 62
    15
 10
6.943640
 20
1.440120
 11
7.584720
 21
1.809720
 12
6.966520
 22
1.402720
 13
7.607600
 23
1.772760
  0
POLYLINE
  8
0
  6
CONTINUOUS
 66
     1
 40
0.000000
 41
0.000000
  0
VERTEX
  8
0
  6
CONTINUOUS
 10
6.943640
 20
1.440120
  0
VERTEX
  8
0
  6
CONTINUOUS
 10
7.584720
 20
1.809720
  0
VERTEX
  8
0
  6
CONTINUOUS
 10
7.607600
 20
1.772760
  0
VERTEX
  8
0
  6
CONTINUOUS
 10
6.966520
 20
1.402720
  0
VERTEX
  8
0
  6
CONTINUOUS
 10
6.943640
 20
1.440120
  0
SEQEND
  8
0
  0
SOLID
  8
0
 62
    15
 10
6.966520
 20
1.402720
 11
7.607600
 21
1.772760
 12
6.983680
 22
1.363560
 13
7.624320
 23
1.733600
  0
POLYLINE
  8
0
  6
CONTINUOUS
 66
     1
 40
0.000000
 41
0.000000
  0
VERTEX
  8
0
  6
CONTINUOUS
 10
6.966520
 20
1.402720
  0
VERTEX
  8
0
  6
CONTINUOUS
 10
7.607600
 20
1.772760
  0
VERTEX
  8
0
  6
CONTINUOUS
 10
7.624320
 20
1.733600
  0
VERTEX
  8
0
  6
CONTINUOUS
 10
6.983680
 20
1.363560
  0
VERTEX
  8
0
  6
CONTINUOUS
 10
6.966520
 20
1.402720
  0
SEQEND
  8
0
  0
SOLID
  8
0
 62
    15
 10
6.983680
 20
1.363560
 11
7.624320
 21
1.733600
 12
6.994680
 22
1.323080
 13
7.635320
 23
1.693120
  0
POLYLINE
  8
0
  6
CONTINUOUS
 66
     1
 40
0.000000
 41
0.000000
  0
VERTEX
  8
0
  6
CONTINUOUS
 10
6.983680
 20
1.363560
  0
VERTEX
  8
0
  6
CONTINUOUS
 10
7.624320
 20
1.733600
  0
VERTEX
  8
0
  6
CONTINUOUS
 10
7.635320
 20
1.693120
  0
VERTEX
  8
0
  6
CONTINUOUS
 10
6.994680
 20
1.323080
  0
VERTEX
  8
0
  6
CONTINUOUS
 10
6.983680
 20
1.363560
  0
SEQEND
  8
0
  0
SOLID
  8
0
 62
    15
 10
6.994680
 20
1.323080
 11
7.635320
 21
1.693120
 12
6.999520
 22
1.281720
 13
7.640600
 23
1.651760
  0
POLYLINE
  8
0
  6
CONTINUOUS
 66
     1
 40
0.000000
 41
0.000000
  0
VERTEX
  8
0
  6
CONTINUOUS
 10
6.994680
 20
1.323080
  0
VERTEX
  8
0
  6
CONTINUOUS
 10
7.635320
 20
1.693120
  0
VERTEX
  8
0
  6
CONTINUOUS
 10
7.640600
 20
1.651760
  0
VERTEX
  8
0
  6
CONTINUOUS
 10
6.999520
 20
1.281720
  0
VERTEX
  8
0
  6
CONTINUOUS
 10
6.994680
 20
1.323080
  0
SEQEND
  8
0
  0
SOLID
  8
0
 62
    15
 10
6.999520
 20
1.281720
 11
7.640600
 21
1.651760
 12
6.998640
 22
1.240360
 13
7.639720
 23
1.610400
  0
POLYLINE
  8
0
  6
CONTINUOUS
 66
     1
 40
0.000000
 41
0.000000
  0
VERTEX
  8
0
  6
CONTINUOUS
 10
6.999520
 20
1.281720
  0
VERTEX
  8
0
  6
CONTINUOUS
 10
7.640600
 20
1.651760
  0
VERTEX
  8
0
  6
CONTINUOUS
 10
7.639720
 20
1.610400
  0
VERTEX
  8
0
  6
CONTINUOUS
 10
6.998640
 20
1.240360
  0
VERTEX
  8
0
  6
CONTINUOUS
 10
6.999520
 20
1.281720
  0
SEQEND
  8
0
  0
SOLID
  8
0
 62
    15
 10
6.998640
 20
1.240360
 11
7.639720
 21
1.610400
 12
6.992480
 22
1.199880
 13
7.633120
 23
1.569920
  0
POLYLINE
  8
0
  6
CONTINUOUS
 66
     1
 40
0.000000
 41
0.000000
  0
VERTEX
  8
0
  6
CONTINUOUS
 10
6.998640
 20
1.240360
  0
VERTEX
  8
0
  6
CONTINUOUS
 10
7.639720
 20
1.610400
  0
VERTEX
  8
0
  6
CONTINUOUS
 10
7.633120
 20
1.569920
  0
VERTEX
  8
0
  6
CONTINUOUS
 10
6.992480
 20
1.199880
  0
VERTEX
  8
0
  6
CONTINUOUS
 10
6.998640
 20
1.240360
  0
SEQEND
  8
0
  0
SOLID
  8
0
 62
    15
 10
6.992480
 20
1.199880
 11
7.633120
 21
1.569920
 12
6.980160
 22
1.161160
 13
7.621240
 23
1.530760
  0
POLYLINE
  8
0
  6
CONTINUOUS
 66
     1
 40
0.000000
 41
0.000000
  0
VERTEX
  8
0
  6
CONTINUOUS
 10
6.992480
 20
1.199880
  0
VERTEX
  8
0
  6
CONTINUOUS
 10
7.633120
 20
1.569920
  0
VERTEX
  8
0
  6
CONTINUOUS
 10
7.621240
 20
1.530760
  0
VERTEX
  8
0
  6
CONTINUOUS
 10
6.980160
 20
1.161160
  0
VERTEX
  8
0
  6
CONTINUOUS
 10
6.992480
 20
1.199880
  0
SEQEND
  8
0
  0
SOLID
  8
0
 62
    15
 10
6.980160
 20
1.161160
 11
7.621240
 21
1.530760
 12
6.962560
 22
1.124200
 13
7.603200
 23
1.494240
  0
POLYLINE
  8
0
  6
CONTINUOUS
 66
     1
 40
0.000000
 41
0.000000
  0
VERTEX
  8
0
  6
CONTINUOUS
 10
6.980160
 20
1.161160
  0
VERTEX
  8
0
  6
CONTINUOUS
 10
7.621240
 20
1.530760
  0
VERTEX
  8
0
  6
CONTINUOUS
 10
7.603200
 20
1.494240
  0
VERTEX
  8
0
  6
CONTINUOUS
 10
6.962560
 20
1.124200
  0
VERTEX
  8
0
  6
CONTINUOUS
 10
6.980160
 20
1.161160
  0
SEQEND
  8
0
  0
SOLID
  8
0
 62
    15
 10
6.962560
 20
1.124200
 11
7.603200
 21
1.494240
 12
6.939240
 22
1.090320
 13
7.580320
 23
1.459920
  0
POLYLINE
  8
0
  6
CONTINUOUS
 66
     1
 40
0.000000
 41
0.000000
  0
VERTEX
  8
0
  6
CONTINUOUS
 10
6.962560
 20
1.124200
  0
VERTEX
  8
0
  6
CONTINUOUS
 10
7.603200
 20
1.494240
  0
VERTEX
  8
0
  6
CONTINUOUS
 10
7.580320
 20
1.459920
  0
VERTEX
  8
0
  6
CONTINUOUS
 10
6.939240
 20
1.090320
  0
VERTEX
  8
0
  6
CONTINUOUS
 10
6.962560
 20
1.124200
  0
SEQEND
  8
0
  0
SOLID
  8
0
 62
    15
 10
6.939240
 20
1.090320
 11
7.580320
 21
1.459920
 12
6.910640
 22
1.059960
 13
7.551720
 23
1.429560
  0
POLYLINE
  8
0
  6
CONTINUOUS
 66
     1
 40
0.000000
 41
0.000000
  0
VERTEX
  8
0
  6
CONTINUOUS
 10
6.939240
 20
1.090320
  0
VERTEX
  8
0
  6
CONTINUOUS
 10
7.580320
 20
1.459920
  0
VERTEX
  8
0
  6
CONTINUOUS
 10
7.551720
 20
1.429560
  0
VERTEX
  8
0
  6
CONTINUOUS
 10
6.910640
 20
1.059960
  0
VERTEX
  8
0
  6
CONTINUOUS
 10
6.939240
 20
1.090320
  0
SEQEND
  8
0
  0
SOLID
  8
0
 62
    15
 10
6.910640
 20
1.059960
 11
7.551720
 21
1.429560
 12
6.876760
 22
1.034000
 13
7.517400
 23
1.403600
  0
POLYLINE
  8
0
  6
CONTINUOUS
 66
     1
 40
0.000000
 41
0.000000
  0
VERTEX
  8
0
  6
CONTINUOUS
 10
6.910640
 20
1.059960
  0
VERTEX
  8
0
  6
CONTINUOUS
 10
7.551720
 20
1.429560
  0
VERTEX
  8
0
  6
CONTINUOUS
 10
7.517400
 20
1.403600
  0
VERTEX
  8
0
  6
CONTINUOUS
 10
6.876760
 20
1.034000
  0
VERTEX
  8
0
  6
CONTINUOUS
 10
6.910640
 20
1.059960
  0
SEQEND
  8
0
  0
POLYLINE
  8
0
  6
CONTINUOUS
 66
     1
 40
0.000000
 41
0.000000
  0
VERTEX
  8
0
  6
CONTINUOUS
 10
6.739480
 20
0.988680
  0
VERTEX
  8
0
  6
CONTINUOUS
 10
6.739480
 20
0.851840
  0
VERTEX
  8
0
  6
CONTINUOUS
 10
6.193880
 20
0.851840
  0
VERTEX
  8
0
  6
CONTINUOUS
 10
6.193880
 20
2.850760
  0
VERTEX
  8
0
  6
CONTINUOUS
 10
6.345680
 20
2.850760
  0
VERTEX
  8
0
  6
CONTINUOUS
 10
6.349640
 20
2.812920
  0
VERTEX
  8
0
  6
CONTINUOUS
 10
6.359760
 20
2.777280
  0
VERTEX
  8
0
  6
CONTINUOUS
 10
6.376040
 20
2.743840
  0
VERTEX
  8
0
  6
CONTINUOUS
 10
6.396720
 20
2.714360
  0
VERTEX
  8
0
  6
CONTINUOUS
 10
6.420920
 20
2.689280
  0
VERTEX
  8
0
  6
CONTINUOUS
 10
6.448200
 20
2.670360
  0
VERTEX
  8
0
  6
CONTINUOUS
 10
6.476800
 20
2.658040
  0
VERTEX
  8
0
  6
CONTINUOUS
 10
6.506280
 20
2.653640
  0
VERTEX
  8
0
  6
CONTINUOUS
 10
6.505400
 20
2.543200
  0
VERTEX
  8
0
  6
CONTINUOUS
 10
6.552920
 20
2.537040
  0
VERTEX
  8
0
  6
CONTINUOUS
 10
6.594720
 20
2.522960
  0
VERTEX
  8
0
  6
CONTINUOUS
 10
6.630360
 20
2.502280
  0
VERTEX
  8
0
  6
CONTINUOUS
 10
6.659400
 20
2.475880
  0
VERTEX
  8
0
  6
CONTINUOUS
 10
6.682280
 20
2.445520
  0
VERTEX
  8
0
  6
CONTINUOUS
 10
6.698560
 20
2.411200
  0
VERTEX
  8
0
  6
CONTINUOUS
 10
6.709120
 20
2.375120
  0
VERTEX
  8
0
  6
CONTINUOUS
 10
6.713080
 20
2.337720
  0
VERTEX
  8
0
  6
CONTINUOUS
 10
6.710440
 20
2.299880
  0
VERTEX
  8
0
  6
CONTINUOUS
 10
6.702080
 20
2.263360
  0
VERTEX
  8
0
  6
CONTINUOUS
 10
6.686680
 20
2.228600
  0
VERTEX
  8
0
  6
CONTINUOUS
 10
6.665560
 20
2.196920
  0
VERTEX
  8
0
  6
CONTINUOUS
 10
6.637840
 20
2.169640
  0
VERTEX
  8
0
  6
CONTINUOUS
 10
6.603960
 20
2.147640
  0
VERTEX
  8
0
  6
CONTINUOUS
 10
6.563480
 20
2.131800
  0
VERTEX
  8
0
  6
CONTINUOUS
 10
6.516400
 20
2.123440
  0
VERTEX
  8
0
  6
CONTINUOUS
 10
6.508920
 20
2.069760
  0
VERTEX
  8
0
  6
CONTINUOUS
 10
6.507600
 20
2.018280
  0
VERTEX
  8
0
  6
CONTINUOUS
 10
6.511560
 20
1.969880
  0
VERTEX
  8
0
  6
CONTINUOUS
 10
6.520800
 20
1.923680
  0
VERTEX
  8
0
  6
CONTINUOUS
 10
6.534440
 20
1.880120
  0
VERTEX
  8
0
  6
CONTINUOUS
 10
6.552480
 20
1.838320
  0
VERTEX
  8
0
  6
CONTINUOUS
 10
6.574480
 20
1.798720
  0
VERTEX
  8
0
  6
CONTINUOUS
 10
6.600000
 20
1.760880
  0
VERTEX
  8
0
  6
CONTINUOUS
 10
6.659840
 20
1.690040
  0
VERTEX
  8
0
  6
CONTINUOUS
 10
6.728920
 20
1.624920
  0
VERTEX
  8
0
  6
CONTINUOUS
 10
6.879400
 20
1.505240
  0
VERTEX
  8
0
  6
CONTINUOUS
 10
6.914600
 20
1.474440
  0
VERTEX
  8
0
  6
CONTINUOUS
 10
6.943640
 20
1.440120
  0
VERTEX
  8
0
  6
CONTINUOUS
 10
6.966520
 20
1.402720
  0
VERTEX
  8
0
  6
CONTINUOUS
 10
6.983680
 20
1.363560
  0
VERTEX
  8
0
  6
CONTINUOUS
 10
6.994680
 20
1.323080
  0
VERTEX
  8
0
  6
CONTINUOUS
 10
6.999520
 20
1.281720
  0
VERTEX
  8
0
  6
CONTINUOUS
 10
6.998640
 20
1.240360
  0
VERTEX
  8
0
  6
CONTINUOUS
 10
6.992480
 20
1.199880
  0
VERTEX
  8
0
  6
CONTINUOUS
 10
6.980160
 20
1.161160
  0
VERTEX
  8
0
  6
CONTINUOUS
 10
6.962560
 20
1.124200
  0
VERTEX
  8
0
  6
CONTINUOUS
 10
6.939240
 20
1.090320
  0
VERTEX
  8
0
  6
CONTINUOUS
 10
6.910640
 20
1.059960
  0
VERTEX
  8
0
  6
CONTINUOUS
 10
6.876760
 20
1.034000
  0
VERTEX
  8
0
  6
CONTINUOUS
 10
6.837600
 20
1.012880
  0
VERTEX
  8
0
  6
CONTINUOUS
 10
6.793160
 20
0.997480
  0
VERTEX
  8
0
  6
CONTINUOUS
 10
6.739480
 20
0.988680
  0
SEQEND
  8
0
  0
TEXT
  8
0
 10
6.622440
 20
0.590040
 40
0.138070
  1
BA  355
 41
1.000000
  7
SN0
 71
     0
 72
     5
 11
7.212009
 21
0.590040
  0
TEXT
  8
0
 10
6.609680
 20
0.398640
 40
0.138070
  1
3/4" x 2"
 41
1.000000
  7
SN0
 71
     0
 72
     5
 11
7.224185
 21
0.398640
  0
POLYLINE
  8
0
  6
CONTINUOUS
 66
     1
 40
0.014080
 41
0.014080
  0
VERTEX
  8
0
  6
CONTINUOUS
 10
5.503520
 20
1.260160
  0
VERTEX
  8
0
  6
CONTINUOUS
 10
5.529040
 20
1.263680
  0
VERTEX
  8
0
  6
CONTINUOUS
 10
5.553240
 20
1.268960
  0
VERTEX
  8
0
  6
CONTINUOUS
 10
5.597240
 20
1.284360
  0
VERTEX
  8
0
  6
CONTINUOUS
 10
5.617920
 20
1.294040
  0
VERTEX
  8
0
  6
CONTINUOUS
 10
5.654440
 20
1.317800
  0
VERTEX
  8
0
  6
CONTINUOUS
 10
5.685680
 20
1.345960
  0
VERTEX
  8
0
  6
CONTINUOUS
 10
5.711640
 20
1.378520
  0
VERTEX
  8
0
  6
CONTINUOUS
 10
5.731880
 20
1.413720
  0
VERTEX
  8
0
  6
CONTINUOUS
 10
5.740240
 20
1.432640
  0
VERTEX
  8
0
  6
CONTINUOUS
 10
5.752120
 20
1.471800
  0
VERTEX
  8
0
  6
CONTINUOUS
 10
5.758720
 20
1.512280
  0
VERTEX
  8
0
  6
CONTINUOUS
 10
5.759600
 20
1.553640
  0
VERTEX
  8
0
  6
CONTINUOUS
 10
5.754320
 20
1.595000
  0
VERTEX
  8
0
  6
CONTINUOUS
 10
5.743320
 20
1.635480
  0
VERTEX
  8
0
  6
CONTINUOUS
 10
5.735840
 20
1.655280
  0
VERTEX
  8
0
  6
CONTINUOUS
 10
5.716040
 20
1.693560
  0
VERTEX
  8
0
  6
CONTINUOUS
 10
5.690080
 20
1.729200
  0
VERTEX
  8
0
  6
CONTINUOUS
 10
5.657960
 20
1.761760
  0
VERTEX
  8
0
  6
CONTINUOUS
 10
5.525520
 20
1.865160
  0
VERTEX
  8
0
  6
CONTINUOUS
 10
5.453360
 20
1.928520
  0
VERTEX
  8
0
  6
CONTINUOUS
 10
5.404080
 20
1.979120
  0
VERTEX
  8
0
  6
CONTINUOUS
 10
5.360080
 20
2.032800
  0
VERTEX
  8
0
  6
CONTINUOUS
 10
5.334560
 20
2.070640
  0
VERTEX
  8
0
  6
CONTINUOUS
 10
5.312560
 20
2.110240
  0
VERTEX
  8
0
  6
CONTINUOUS
 10
5.294520
 20
2.151600
  0
VERTEX
  8
0
  6
CONTINUOUS
 10
5.280440
 20
2.195600
  0
VERTEX
  8
0
  6
CONTINUOUS
 10
5.271200
 20
2.241360
  0
VERTEX
  8
0
  6
CONTINUOUS
 10
5.267240
 20
2.290200
  0
VERTEX
  8
0
  6
CONTINUOUS
 10
5.269000
 20
2.341240
  0
VERTEX
  8
0
  6
CONTINUOUS
 10
5.276480
 20
2.394920
  0
VERTEX
  8
0
  6
CONTINUOUS
 10
5.300680
 20
2.398000
  0
VERTEX
  8
0
  6
CONTINUOUS
 10
5.323120
 20
2.403280
  0
VERTEX
  8
0
  6
CONTINUOUS
 10
5.344240
 20
2.410320
  0
VERTEX
  8
0
  6
CONTINUOUS
 10
5.381640
 20
2.429240
  0
VERTEX
  8
0
  6
CONTINUOUS
 10
5.397920
 20
2.441120
  0
VERTEX
  8
0
  6
CONTINUOUS
 10
5.425640
 20
2.468400
  0
VERTEX
  8
0
  6
CONTINUOUS
 10
5.437080
 20
2.483800
  0
VERTEX
  8
0
  6
CONTINUOUS
 10
5.455120
 20
2.517240
  0
VERTEX
  8
0
  6
CONTINUOUS
 10
5.467000
 20
2.552880
  0
VERTEX
  8
0
  6
CONTINUOUS
 10
5.470520
 20
2.571800
  0
VERTEX
  8
0
  6
CONTINUOUS
 10
5.472720
 20
2.609200
  0
VERTEX
  8
0
  6
CONTINUOUS
 10
5.471840
 20
2.628120
  0
VERTEX
  8
0
  6
CONTINUOUS
 10
5.464360
 20
2.665080
  0
VERTEX
  8
0
  6
CONTINUOUS
 10
5.458640
 20
2.683120
  0
VERTEX
  8
0
  6
CONTINUOUS
 10
5.451160
 20
2.700280
  0
VERTEX
  8
0
  6
CONTINUOUS
 10
5.431360
 20
2.732840
  0
VERTEX
  8
0
  6
CONTINUOUS
 10
5.405400
 20
2.761440
  0
VERTEX
  8
0
  6
CONTINUOUS
 10
5.373280
 20
2.784760
  0
VERTEX
  8
0
  6
CONTINUOUS
 10
5.354800
 20
2.794440
  0
VERTEX
  8
0
  6
CONTINUOUS
 10
5.334560
 20
2.802360
  0
VERTEX
  8
0
  6
CONTINUOUS
 10
5.301560
 20
2.810720
  0
VERTEX
  8
0
  6
CONTINUOUS
 10
5.265040
 20
2.814680
  0
VERTEX
  8
0
  6
CONTINUOUS
 10
5.266360
 20
2.925120
  0
VERTEX
  8
0
  6
CONTINUOUS
 10
5.251400
 20
2.926440
  0
VERTEX
  8
0
  6
CONTINUOUS
 10
5.236880
 20
2.929520
  0
VERTEX
  8
0
  6
CONTINUOUS
 10
5.221920
 20
2.934800
  0
VERTEX
  8
0
  6
CONTINUOUS
 10
5.194200
 20
2.950640
  0
VERTEX
  8
0
  6
CONTINUOUS
 10
5.180560
 20
2.960760
  0
VERTEX
  8
0
  6
CONTINUOUS
 10
5.156360
 20
2.985840
  0
VERTEX
  8
0
  6
CONTINUOUS
 10
5.145360
 20
2.999920
  0
VERTEX
  8
0
  6
CONTINUOUS
 10
5.126880
 20
3.031600
  0
VERTEX
  8
0
  6
CONTINUOUS
 10
5.113680
 20
3.066360
  0
VERTEX
  8
0
  6
CONTINUOUS
 10
5.109280
 20
3.084840
  0
VERTEX
  8
0
  6
CONTINUOUS
 10
5.106640
 20
3.103320
  0
VERTEX
  8
0
  6
CONTINUOUS
 10
5.105760
 20
3.122240
  0
VERTEX
  8
0
  6
CONTINUOUS
 10
4.953520
 20
3.122240
  0
VERTEX
  8
0
  6
CONTINUOUS
 10
4.953520
 20
1.123760
  0
VERTEX
  8
0
  6
CONTINUOUS
 10
5.499560
 20
1.123760
  0
VERTEX
  8
0
  6
CONTINUOUS
 10
5.499560
 20
1.260160
  0
VERTEX
  8
0
  6
CONTINUOUS
 10
5.503520
 20
1.260160
  0
SEQEND
  8
0
  0
ENDSEC
  0
EOF
