  0
SECTION
  2
HEADER
  9
$ACADVER
  1
AC1006
  9
$EXTMIN
 10
3.204960
 20
4.719880
  9
$EXTMAX
 10
5.294520
 20
6.279680
  9
$LTSCALE
 40
0.044000
  9
$PDMODE
 70
    35
  9
$PDSIZE
 40
0.035200
  0
ENDSEC
  0
SECTION
  2
TABLES
  0
TABLE
  2
LTYPE
 70
     9
  0
LTYPE
  2
CONTINUOUS
 70
    64
  3
Solid line
 72
    65
 73
     0
 40
0.000000
  0
LTYPE
  2
DASHED
 70
    64
  3
__ __ __ __ __ __ __ __ __ __ __ __ __ __ __
 72
    65
 73
     2
 40
0.000330
 49
0.000220
 49
-0.000110
  0
LTYPE
  2
HIDDEN
 70
    64
  3
 _ _ _ _ _ _ _ _ _ _ _ _ _ _ _ _ _ _ _ _ _ _
 72
    65
 73
     2
 40
0.000165
 49
0.000110
 49
-0.000055
  0
LTYPE
  2
CENTER
 70
    64
  3
____ _ ____ _ ____ _ ____ _ ____ _ ____ _ ____
 72
    65
 73
     4
 40
0.000880
 49
0.000550
 49
-0.000110
 49
0.000110
 49
-0.000110
  0
LTYPE
  2
PHANTOM
 70
    64
  3
_____ _ _ _____ _ _ _____ _ _ _____ _ _ ____
 72
    65
 73
     6
 40
0.001100
 49
0.000550
 49
-0.000110
 49
0.000110
 49
-0.000110
 49
0.000110
 49
-0.000110
  0
LTYPE
  2
DOT
 70
    64
  3
...............................................
 72
    65
 73
     2
 40
0.000110
 49
0.000000
 49
-0.000110
  0
LTYPE
  2
DASHDOT
 70
    64
  3
__ . __ . __ . __ . __ . __ . __ . __ . __ . __
 72
    65
 73
     4
 40
0.000440
 49
0.000220
 49
-0.000110
 49
0.000000
 49
-0.000110
  0
LTYPE
  2
BORDER
 70
    64
  3
__ __ . __ __ . __ __ . __ __ . __ __ . __ __
 72
    65
 73
     6
 40
0.000770
 49
0.000220
 49
-0.000110
 49
0.000220
 49
-0.000110
 49
0.000000
 49
-0.000110
  0
LTYPE
  2
DIVIDE
 70
    64
  3
__ . . __ . . __ . . __ . . __ . . __ . . __
 72
    65
 73
     6
 40
0.000550
 49
0.000220
 49
-0.000110
 49
0.000000
 49
-0.000110
 49
0.000000
 49
-0.000110
  0
LTYPE
  2
DOTDOT
 70
    64
  3
 . .  . .  . .  . .  . .  . . 
 72
    65
 73
     5
 40
0.000242
 49
-0.000110
 49
0.000000
 49
-0.000110
 49
0.000000
 49
-0.000110
  0
ENDTAB
  0
TABLE
  2
STYLE
 70
     2
  0
STYLE
 70
     0
  2
SN0
 40
0.000000
 41
0.000440
 50
0.000000
 71
     0
 42
0.000000
  3
ROMAND
  0
STYLE
 70
    68
  2
SV0
 40
0.000000
 41
0.000440
 50
0.000000
 71
     0
 42
0.000000
  3
ROMAND
  0
ENDTAB
  0
TABLE
  2
LAYER
 70
     3
  0
LAYER
  2
FOREGROUND
 70
    64
 62
     7
  6
CONTINUOUS
  0
LAYER
  2
BACKGROUND
 70
    65
 62
    -7
  6
CONTINUOUS
  0
LAYER
  2
0
 70
    64
 62
     7
  6
CONTINUOUS
  0
ENDTAB
  0
ENDSEC
  0
SECTION
  2
ENTITIES
  0
POLYLINE
  8
FOREGROUND
  6
CONTINUOUS
 66
     1
 40
0.000000
 41
0.000000
  0
VERTEX
  8
FOREGROUND
  6
CONTINUOUS
 10
0.000000
 20
10.999560
  0
VERTEX
  8
FOREGROUND
  6
CONTINUOUS
 10
8.499920
 20
10.999560
  0
VERTEX
  8
FOREGROUND
  6
CONTINUOUS
 10
8.499920
 20
-0.000440
  0
VERTEX
  8
FOREGROUND
  6
CONTINUOUS
 10
0.000000
 20
-0.000440
  0
VERTEX
  8
FOREGROUND
  6
CONTINUOUS
 10
0.000000
 20
10.999560
  0
SEQEND
  8
0
  0
POLYLINE
  8
FOREGROUND
  6
CONTINUOUS
 66
     1
 40
0.000000
 41
0.000000
  0
VERTEX
  8
FOREGROUND
  6
CONTINUOUS
 10
0.000000
 20
10.999560
  0
VERTEX
  8
FOREGROUND
  6
CONTINUOUS
 10
8.499920
 20
10.999560
  0
VERTEX
  8
FOREGROUND
  6
CONTINUOUS
 10
8.499920
 20
-0.000440
  0
VERTEX
  8
FOREGROUND
  6
CONTINUOUS
 10
0.000000
 20
-0.000440
  0
VERTEX
  8
FOREGROUND
  6
CONTINUOUS
 10
0.000000
 20
10.999560
  0
SEQEND
  8
0
  0
SOLID
  8
0
 62
    15
 10
3.730760
 20
5.344240
 11
3.727240
 21
6.095760
 12
3.742200
 22
5.327080
 13
3.738240
 23
6.078600
  0
POLYLINE
  8
0
  6
CONTINUOUS
 66
     1
 40
0.000000
 41
0.000000
  0
VERTEX
  8
0
  6
CONTINUOUS
 10
3.730760
 20
5.344240
  0
VERTEX
  8
0
  6
CONTINUOUS
 10
3.727240
 20
6.095760
  0
VERTEX
  8
0
  6
CONTINUOUS
 10
3.738240
 20
6.078600
  0
VERTEX
  8
0
  6
CONTINUOUS
 10
3.742200
 20
5.327080
  0
VERTEX
  8
0
  6
CONTINUOUS
 10
3.730760
 20
5.344240
  0
SEQEND
  8
0
  0
SOLID
  8
0
 62
    15
 10
3.552120
 20
5.440160
 11
3.548160
 21
6.191680
 12
3.561800
 22
5.438840
 13
3.558280
 23
6.190360
  0
POLYLINE
  8
0
  6
CONTINUOUS
 66
     1
 40
0.000000
 41
0.000000
  0
VERTEX
  8
0
  6
CONTINUOUS
 10
3.552120
 20
5.440160
  0
VERTEX
  8
0
  6
CONTINUOUS
 10
3.548160
 20
6.191680
  0
VERTEX
  8
0
  6
CONTINUOUS
 10
3.558280
 20
6.190360
  0
VERTEX
  8
0
  6
CONTINUOUS
 10
3.561800
 20
5.438840
  0
VERTEX
  8
0
  6
CONTINUOUS
 10
3.552120
 20
5.440160
  0
SEQEND
  8
0
  0
SOLID
  8
0
 62
    15
 10
3.437280
 20
5.527280
 11
3.433760
 21
6.278800
 12
3.552120
 22
5.527280
 13
3.548160
 23
6.278800
  0
POLYLINE
  8
0
  6
CONTINUOUS
 66
     1
 40
0.000000
 41
0.000000
  0
VERTEX
  8
0
  6
CONTINUOUS
 10
3.437280
 20
5.527280
  0
VERTEX
  8
0
  6
CONTINUOUS
 10
3.433760
 20
6.278800
  0
VERTEX
  8
0
  6
CONTINUOUS
 10
3.548160
 20
6.278800
  0
VERTEX
  8
0
  6
CONTINUOUS
 10
3.552120
 20
5.527280
  0
VERTEX
  8
0
  6
CONTINUOUS
 10
3.437280
 20
5.527280
  0
SEQEND
  8
0
  0
SOLID
  8
0
 62
    15
 10
3.561800
 20
5.438840
 11
3.558280
 21
6.190360
 12
3.572360
 22
5.437080
 13
3.568840
 23
6.189040
  0
POLYLINE
  8
0
  6
CONTINUOUS
 66
     1
 40
0.000000
 41
0.000000
  0
VERTEX
  8
0
  6
CONTINUOUS
 10
3.561800
 20
5.438840
  0
VERTEX
  8
0
  6
CONTINUOUS
 10
3.558280
 20
6.190360
  0
VERTEX
  8
0
  6
CONTINUOUS
 10
3.568840
 20
6.189040
  0
VERTEX
  8
0
  6
CONTINUOUS
 10
3.572360
 20
5.437080
  0
VERTEX
  8
0
  6
CONTINUOUS
 10
3.561800
 20
5.438840
  0
SEQEND
  8
0
  0
SOLID
  8
0
 62
    15
 10
3.572360
 20
5.437080
 11
3.568840
 21
6.189040
 12
3.594800
 22
5.433120
 13
3.591280
 23
6.184640
  0
POLYLINE
  8
0
  6
CONTINUOUS
 66
     1
 40
0.000000
 41
0.000000
  0
VERTEX
  8
0
  6
CONTINUOUS
 10
3.572360
 20
5.437080
  0
VERTEX
  8
0
  6
CONTINUOUS
 10
3.568840
 20
6.189040
  0
VERTEX
  8
0
  6
CONTINUOUS
 10
3.591280
 20
6.184640
  0
VERTEX
  8
0
  6
CONTINUOUS
 10
3.594800
 20
5.433120
  0
VERTEX
  8
0
  6
CONTINUOUS
 10
3.572360
 20
5.437080
  0
SEQEND
  8
0
  0
SOLID
  8
0
 62
    15
 10
3.594800
 20
5.433120
 11
3.591280
 21
6.184640
 12
3.619000
 22
5.426960
 13
3.615480
 23
6.178480
  0
POLYLINE
  8
0
  6
CONTINUOUS
 66
     1
 40
0.000000
 41
0.000000
  0
VERTEX
  8
0
  6
CONTINUOUS
 10
3.594800
 20
5.433120
  0
VERTEX
  8
0
  6
CONTINUOUS
 10
3.591280
 20
6.184640
  0
VERTEX
  8
0
  6
CONTINUOUS
 10
3.615480
 20
6.178480
  0
VERTEX
  8
0
  6
CONTINUOUS
 10
3.619000
 20
5.426960
  0
VERTEX
  8
0
  6
CONTINUOUS
 10
3.594800
 20
5.433120
  0
SEQEND
  8
0
  0
SOLID
  8
0
 62
    15
 10
3.619000
 20
5.426960
 11
3.615480
 21
6.178480
 12
3.644520
 22
5.417280
 13
3.640560
 23
6.169240
  0
POLYLINE
  8
0
  6
CONTINUOUS
 66
     1
 40
0.000000
 41
0.000000
  0
VERTEX
  8
0
  6
CONTINUOUS
 10
3.619000
 20
5.426960
  0
VERTEX
  8
0
  6
CONTINUOUS
 10
3.615480
 20
6.178480
  0
VERTEX
  8
0
  6
CONTINUOUS
 10
3.640560
 20
6.169240
  0
VERTEX
  8
0
  6
CONTINUOUS
 10
3.644520
 20
5.417280
  0
VERTEX
  8
0
  6
CONTINUOUS
 10
3.619000
 20
5.426960
  0
SEQEND
  8
0
  0
SOLID
  8
0
 62
    15
 10
3.644520
 20
5.417280
 11
3.640560
 21
6.169240
 12
3.669600
 22
5.403640
 13
3.666080
 23
6.155160
  0
POLYLINE
  8
0
  6
CONTINUOUS
 66
     1
 40
0.000000
 41
0.000000
  0
VERTEX
  8
0
  6
CONTINUOUS
 10
3.644520
 20
5.417280
  0
VERTEX
  8
0
  6
CONTINUOUS
 10
3.640560
 20
6.169240
  0
VERTEX
  8
0
  6
CONTINUOUS
 10
3.666080
 20
6.155160
  0
VERTEX
  8
0
  6
CONTINUOUS
 10
3.669600
 20
5.403640
  0
VERTEX
  8
0
  6
CONTINUOUS
 10
3.644520
 20
5.417280
  0
SEQEND
  8
0
  0
SOLID
  8
0
 62
    15
 10
3.669600
 20
5.403640
 11
3.666080
 21
6.155160
 12
3.695120
 22
5.384720
 13
3.691160
 23
6.136240
  0
POLYLINE
  8
0
  6
CONTINUOUS
 66
     1
 40
0.000000
 41
0.000000
  0
VERTEX
  8
0
  6
CONTINUOUS
 10
3.669600
 20
5.403640
  0
VERTEX
  8
0
  6
CONTINUOUS
 10
3.666080
 20
6.155160
  0
VERTEX
  8
0
  6
CONTINUOUS
 10
3.691160
 20
6.136240
  0
VERTEX
  8
0
  6
CONTINUOUS
 10
3.695120
 20
5.384720
  0
VERTEX
  8
0
  6
CONTINUOUS
 10
3.669600
 20
5.403640
  0
SEQEND
  8
0
  0
SOLID
  8
0
 62
    15
 10
3.695120
 20
5.384720
 11
3.691160
 21
6.136240
 12
3.707440
 22
5.372840
 13
3.703480
 23
6.124800
  0
POLYLINE
  8
0
  6
CONTINUOUS
 66
     1
 40
0.000000
 41
0.000000
  0
VERTEX
  8
0
  6
CONTINUOUS
 10
3.695120
 20
5.384720
  0
VERTEX
  8
0
  6
CONTINUOUS
 10
3.691160
 20
6.136240
  0
VERTEX
  8
0
  6
CONTINUOUS
 10
3.703480
 20
6.124800
  0
VERTEX
  8
0
  6
CONTINUOUS
 10
3.707440
 20
5.372840
  0
VERTEX
  8
0
  6
CONTINUOUS
 10
3.695120
 20
5.384720
  0
SEQEND
  8
0
  0
SOLID
  8
0
 62
    15
 10
3.707440
 20
5.372840
 11
3.703480
 21
6.124800
 12
3.719320
 22
5.359640
 13
3.715800
 23
6.111160
  0
POLYLINE
  8
0
  6
CONTINUOUS
 66
     1
 40
0.000000
 41
0.000000
  0
VERTEX
  8
0
  6
CONTINUOUS
 10
3.707440
 20
5.372840
  0
VERTEX
  8
0
  6
CONTINUOUS
 10
3.703480
 20
6.124800
  0
VERTEX
  8
0
  6
CONTINUOUS
 10
3.715800
 20
6.111160
  0
VERTEX
  8
0
  6
CONTINUOUS
 10
3.719320
 20
5.359640
  0
VERTEX
  8
0
  6
CONTINUOUS
 10
3.707440
 20
5.372840
  0
SEQEND
  8
0
  0
SOLID
  8
0
 62
    15
 10
3.719320
 20
5.359640
 11
3.715800
 21
6.111160
 12
3.730760
 22
5.344240
 13
3.727240
 23
6.095760
  0
POLYLINE
  8
0
  6
CONTINUOUS
 66
     1
 40
0.000000
 41
0.000000
  0
VERTEX
  8
0
  6
CONTINUOUS
 10
3.719320
 20
5.359640
  0
VERTEX
  8
0
  6
CONTINUOUS
 10
3.715800
 20
6.111160
  0
VERTEX
  8
0
  6
CONTINUOUS
 10
3.727240
 20
6.095760
  0
VERTEX
  8
0
  6
CONTINUOUS
 10
3.730760
 20
5.344240
  0
VERTEX
  8
0
  6
CONTINUOUS
 10
3.719320
 20
5.359640
  0
SEQEND
  8
0
  0
SOLID
  8
0
 62
    15
 10
3.437280
 20
5.187600
 11
3.433760
 21
5.939560
 12
3.437280
 22
5.527280
 13
3.433760
 23
6.278800
  0
POLYLINE
  8
0
  6
CONTINUOUS
 66
     1
 40
0.000000
 41
0.000000
  0
VERTEX
  8
0
  6
CONTINUOUS
 10
3.437280
 20
5.187600
  0
VERTEX
  8
0
  6
CONTINUOUS
 10
3.433760
 20
5.939560
  0
VERTEX
  8
0
  6
CONTINUOUS
 10
3.433760
 20
6.278800
  0
VERTEX
  8
0
  6
CONTINUOUS
 10
3.437280
 20
5.527280
  0
VERTEX
  8
0
  6
CONTINUOUS
 10
3.437280
 20
5.187600
  0
SEQEND
  8
0
  0
SOLID
  8
0
 62
    15
 10
3.742200
 20
5.327080
 11
3.738240
 21
6.078600
 12
3.753640
 22
5.309920
 13
3.749680
 23
6.061440
  0
POLYLINE
  8
0
  6
CONTINUOUS
 66
     1
 40
0.000000
 41
0.000000
  0
VERTEX
  8
0
  6
CONTINUOUS
 10
3.742200
 20
5.327080
  0
VERTEX
  8
0
  6
CONTINUOUS
 10
3.738240
 20
6.078600
  0
VERTEX
  8
0
  6
CONTINUOUS
 10
3.749680
 20
6.061440
  0
VERTEX
  8
0
  6
CONTINUOUS
 10
3.753640
 20
5.309920
  0
VERTEX
  8
0
  6
CONTINUOUS
 10
3.742200
 20
5.327080
  0
SEQEND
  8
0
  0
SOLID
  8
0
 62
    15
 10
3.753640
 20
5.309920
 11
3.749680
 21
6.061440
 12
3.765960
 22
5.294080
 13
3.762440
 23
6.046040
  0
POLYLINE
  8
0
  6
CONTINUOUS
 66
     1
 40
0.000000
 41
0.000000
  0
VERTEX
  8
0
  6
CONTINUOUS
 10
3.753640
 20
5.309920
  0
VERTEX
  8
0
  6
CONTINUOUS
 10
3.749680
 20
6.061440
  0
VERTEX
  8
0
  6
CONTINUOUS
 10
3.762440
 20
6.046040
  0
VERTEX
  8
0
  6
CONTINUOUS
 10
3.765960
 20
5.294080
  0
VERTEX
  8
0
  6
CONTINUOUS
 10
3.753640
 20
5.309920
  0
SEQEND
  8
0
  0
SOLID
  8
0
 62
    15
 10
3.765960
 20
5.294080
 11
3.762440
 21
6.046040
 12
3.779160
 22
5.280440
 13
3.775640
 23
6.031960
  0
POLYLINE
  8
0
  6
CONTINUOUS
 66
     1
 40
0.000000
 41
0.000000
  0
VERTEX
  8
0
  6
CONTINUOUS
 10
3.765960
 20
5.294080
  0
VERTEX
  8
0
  6
CONTINUOUS
 10
3.762440
 20
6.046040
  0
VERTEX
  8
0
  6
CONTINUOUS
 10
3.775640
 20
6.031960
  0
VERTEX
  8
0
  6
CONTINUOUS
 10
3.779160
 20
5.280440
  0
VERTEX
  8
0
  6
CONTINUOUS
 10
3.765960
 20
5.294080
  0
SEQEND
  8
0
  0
SOLID
  8
0
 62
    15
 10
3.779160
 20
5.280440
 11
3.775640
 21
6.031960
 12
3.792800
 22
5.268120
 13
3.789280
 23
6.019640
  0
POLYLINE
  8
0
  6
CONTINUOUS
 66
     1
 40
0.000000
 41
0.000000
  0
VERTEX
  8
0
  6
CONTINUOUS
 10
3.779160
 20
5.280440
  0
VERTEX
  8
0
  6
CONTINUOUS
 10
3.775640
 20
6.031960
  0
VERTEX
  8
0
  6
CONTINUOUS
 10
3.789280
 20
6.019640
  0
VERTEX
  8
0
  6
CONTINUOUS
 10
3.792800
 20
5.268120
  0
VERTEX
  8
0
  6
CONTINUOUS
 10
3.779160
 20
5.280440
  0
SEQEND
  8
0
  0
SOLID
  8
0
 62
    15
 10
3.792800
 20
5.268120
 11
3.789280
 21
6.019640
 12
3.820960
 22
5.247880
 13
3.817000
 23
5.999840
  0
POLYLINE
  8
0
  6
CONTINUOUS
 66
     1
 40
0.000000
 41
0.000000
  0
VERTEX
  8
0
  6
CONTINUOUS
 10
3.792800
 20
5.268120
  0
VERTEX
  8
0
  6
CONTINUOUS
 10
3.789280
 20
6.019640
  0
VERTEX
  8
0
  6
CONTINUOUS
 10
3.817000
 20
5.999840
  0
VERTEX
  8
0
  6
CONTINUOUS
 10
3.820960
 20
5.247880
  0
VERTEX
  8
0
  6
CONTINUOUS
 10
3.792800
 20
5.268120
  0
SEQEND
  8
0
  0
SOLID
  8
0
 62
    15
 10
3.820960
 20
5.247880
 11
3.817000
 21
5.999840
 12
3.848240
 22
5.233360
 13
3.844720
 23
5.984880
  0
POLYLINE
  8
0
  6
CONTINUOUS
 66
     1
 40
0.000000
 41
0.000000
  0
VERTEX
  8
0
  6
CONTINUOUS
 10
3.820960
 20
5.247880
  0
VERTEX
  8
0
  6
CONTINUOUS
 10
3.817000
 20
5.999840
  0
VERTEX
  8
0
  6
CONTINUOUS
 10
3.844720
 20
5.984880
  0
VERTEX
  8
0
  6
CONTINUOUS
 10
3.848240
 20
5.233360
  0
VERTEX
  8
0
  6
CONTINUOUS
 10
3.820960
 20
5.247880
  0
SEQEND
  8
0
  0
SOLID
  8
0
 62
    15
 10
3.848240
 20
5.233360
 11
3.844720
 21
5.984880
 12
3.873320
 22
5.222800
 13
3.869800
 23
5.974760
  0
POLYLINE
  8
0
  6
CONTINUOUS
 66
     1
 40
0.000000
 41
0.000000
  0
VERTEX
  8
0
  6
CONTINUOUS
 10
3.848240
 20
5.233360
  0
VERTEX
  8
0
  6
CONTINUOUS
 10
3.844720
 20
5.984880
  0
VERTEX
  8
0
  6
CONTINUOUS
 10
3.869800
 20
5.974760
  0
VERTEX
  8
0
  6
CONTINUOUS
 10
3.873320
 20
5.222800
  0
VERTEX
  8
0
  6
CONTINUOUS
 10
3.848240
 20
5.233360
  0
SEQEND
  8
0
  0
SOLID
  8
0
 62
    15
 10
3.873320
 20
5.222800
 11
3.869800
 21
5.974760
 12
3.894000
 22
5.216640
 13
3.890480
 23
5.968160
  0
POLYLINE
  8
0
  6
CONTINUOUS
 66
     1
 40
0.000000
 41
0.000000
  0
VERTEX
  8
0
  6
CONTINUOUS
 10
3.873320
 20
5.222800
  0
VERTEX
  8
0
  6
CONTINUOUS
 10
3.869800
 20
5.974760
  0
VERTEX
  8
0
  6
CONTINUOUS
 10
3.890480
 20
5.968160
  0
VERTEX
  8
0
  6
CONTINUOUS
 10
3.894000
 20
5.216640
  0
VERTEX
  8
0
  6
CONTINUOUS
 10
3.873320
 20
5.222800
  0
SEQEND
  8
0
  0
SOLID
  8
0
 62
    15
 10
3.894000
 20
5.216640
 11
3.890480
 21
5.968160
 12
3.902360
 22
5.214440
 13
3.898840
 23
5.966400
  0
POLYLINE
  8
0
  6
CONTINUOUS
 66
     1
 40
0.000000
 41
0.000000
  0
VERTEX
  8
0
  6
CONTINUOUS
 10
3.894000
 20
5.216640
  0
VERTEX
  8
0
  6
CONTINUOUS
 10
3.890480
 20
5.968160
  0
VERTEX
  8
0
  6
CONTINUOUS
 10
3.898840
 20
5.966400
  0
VERTEX
  8
0
  6
CONTINUOUS
 10
3.902360
 20
5.214440
  0
VERTEX
  8
0
  6
CONTINUOUS
 10
3.894000
 20
5.216640
  0
SEQEND
  8
0
  0
SOLID
  8
0
 62
    15
 10
3.902360
 20
5.214440
 11
3.898840
 21
5.966400
 12
3.908960
 22
5.213120
 13
3.905440
 23
5.965080
  0
POLYLINE
  8
0
  6
CONTINUOUS
 66
     1
 40
0.000000
 41
0.000000
  0
VERTEX
  8
0
  6
CONTINUOUS
 10
3.902360
 20
5.214440
  0
VERTEX
  8
0
  6
CONTINUOUS
 10
3.898840
 20
5.966400
  0
VERTEX
  8
0
  6
CONTINUOUS
 10
3.905440
 20
5.965080
  0
VERTEX
  8
0
  6
CONTINUOUS
 10
3.908960
 20
5.213120
  0
VERTEX
  8
0
  6
CONTINUOUS
 10
3.902360
 20
5.214440
  0
SEQEND
  8
0
  0
SOLID
  8
0
 62
    15
 10
3.908960
 20
5.213120
 11
3.905440
 21
5.965080
 12
3.913800
 22
5.212680
 13
3.910280
 23
5.964200
  0
POLYLINE
  8
0
  6
CONTINUOUS
 66
     1
 40
0.000000
 41
0.000000
  0
VERTEX
  8
0
  6
CONTINUOUS
 10
3.908960
 20
5.213120
  0
VERTEX
  8
0
  6
CONTINUOUS
 10
3.905440
 20
5.965080
  0
VERTEX
  8
0
  6
CONTINUOUS
 10
3.910280
 20
5.964200
  0
VERTEX
  8
0
  6
CONTINUOUS
 10
3.913800
 20
5.212680
  0
VERTEX
  8
0
  6
CONTINUOUS
 10
3.908960
 20
5.213120
  0
SEQEND
  8
0
  0
SOLID
  8
0
 62
     7
 10
3.913800
 20
5.212680
 11
3.910280
 21
5.964200
 12
3.916440
 22
5.212240
 13
3.912480
 23
5.964200
  0
POLYLINE
  8
0
  6
CONTINUOUS
 66
     1
 40
0.000000
 41
0.000000
  0
VERTEX
  8
0
  6
CONTINUOUS
 10
3.913800
 20
5.212680
  0
VERTEX
  8
0
  6
CONTINUOUS
 10
3.910280
 20
5.964200
  0
VERTEX
  8
0
  6
CONTINUOUS
 10
3.912480
 20
5.964200
  0
VERTEX
  8
0
  6
CONTINUOUS
 10
3.916440
 20
5.212240
  0
VERTEX
  8
0
  6
CONTINUOUS
 10
3.913800
 20
5.212680
  0
SEQEND
  8
0
  0
POLYLINE
  8
0
  6
CONTINUOUS
 66
     1
 40
0.000000
 41
0.000000
  0
VERTEX
  8
0
  6
CONTINUOUS
 10
3.916440
 20
5.212240
  0
VERTEX
  8
0
  6
CONTINUOUS
 10
3.916440
 20
5.187600
  0
VERTEX
  8
0
  6
CONTINUOUS
 10
3.437280
 20
5.187600
  0
VERTEX
  8
0
  6
CONTINUOUS
 10
3.437280
 20
5.527280
  0
VERTEX
  8
0
  6
CONTINUOUS
 10
3.552120
 20
5.527280
  0
VERTEX
  8
0
  6
CONTINUOUS
 10
3.552120
 20
5.440160
  0
VERTEX
  8
0
  6
CONTINUOUS
 10
3.561800
 20
5.438840
  0
VERTEX
  8
0
  6
CONTINUOUS
 10
3.572360
 20
5.437080
  0
VERTEX
  8
0
  6
CONTINUOUS
 10
3.594800
 20
5.433120
  0
VERTEX
  8
0
  6
CONTINUOUS
 10
3.619000
 20
5.426960
  0
VERTEX
  8
0
  6
CONTINUOUS
 10
3.644520
 20
5.417280
  0
VERTEX
  8
0
  6
CONTINUOUS
 10
3.669600
 20
5.403640
  0
VERTEX
  8
0
  6
CONTINUOUS
 10
3.695120
 20
5.384720
  0
VERTEX
  8
0
  6
CONTINUOUS
 10
3.707440
 20
5.372840
  0
VERTEX
  8
0
  6
CONTINUOUS
 10
3.719320
 20
5.359640
  0
VERTEX
  8
0
  6
CONTINUOUS
 10
3.730760
 20
5.344240
  0
VERTEX
  8
0
  6
CONTINUOUS
 10
3.742200
 20
5.327080
  0
VERTEX
  8
0
  6
CONTINUOUS
 10
3.753640
 20
5.309920
  0
VERTEX
  8
0
  6
CONTINUOUS
 10
3.765960
 20
5.294080
  0
VERTEX
  8
0
  6
CONTINUOUS
 10
3.779160
 20
5.280440
  0
VERTEX
  8
0
  6
CONTINUOUS
 10
3.792800
 20
5.268120
  0
VERTEX
  8
0
  6
CONTINUOUS
 10
3.820960
 20
5.247880
  0
VERTEX
  8
0
  6
CONTINUOUS
 10
3.848240
 20
5.233360
  0
VERTEX
  8
0
  6
CONTINUOUS
 10
3.873320
 20
5.222800
  0
VERTEX
  8
0
  6
CONTINUOUS
 10
3.894000
 20
5.216640
  0
VERTEX
  8
0
  6
CONTINUOUS
 10
3.902360
 20
5.214440
  0
VERTEX
  8
0
  6
CONTINUOUS
 10
3.908960
 20
5.213120
  0
VERTEX
  8
0
  6
CONTINUOUS
 10
3.913800
 20
5.212680
  0
VERTEX
  8
0
  6
CONTINUOUS
 10
3.916440
 20
5.212240
  0
SEQEND
  8
0
  0
TEXT
  8
0
 10
3.378760
 20
4.954840
 40
0.138108
  1
BA  354
 41
1.000000
  7
SN0
 71
     0
 72
     5
 11
3.968643
 21
4.954840
  0
TEXT
  8
0
 10
3.296480
 20
4.763440
 40
0.138108
  1
3/8" x 1/2"
 41
1.000000
  7
SN0
 71
     0
 72
     5
 11
4.049035
 21
4.763440
  0
POLYLINE
  8
0
  6
CONTINUOUS
 66
     1
 40
0.014080
 41
0.014080
  0
VERTEX
  8
0
  6
CONTINUOUS
 10
4.850560
 20
5.932960
  0
VERTEX
  8
0
  6
CONTINUOUS
 10
4.850560
 20
5.908320
  0
VERTEX
  8
0
  6
CONTINUOUS
 10
4.371840
 20
5.908320
  0
VERTEX
  8
0
  6
CONTINUOUS
 10
4.371840
 20
6.248000
  0
VERTEX
  8
0
  6
CONTINUOUS
 10
4.486240
 20
6.248000
  0
VERTEX
  8
0
  6
CONTINUOUS
 10
4.486240
 20
6.160880
  0
VERTEX
  8
0
  6
CONTINUOUS
 10
4.496360
 20
6.159560
  0
VERTEX
  8
0
  6
CONTINUOUS
 10
4.506480
 20
6.157800
  0
VERTEX
  8
0
  6
CONTINUOUS
 10
4.517920
 20
6.156040
  0
VERTEX
  8
0
  6
CONTINUOUS
 10
4.529360
 20
6.153840
  0
VERTEX
  8
0
  6
CONTINUOUS
 10
4.541240
 20
6.151200
  0
VERTEX
  8
0
  6
CONTINUOUS
 10
4.553560
 20
6.147680
  0
VERTEX
  8
0
  6
CONTINUOUS
 10
4.566320
 20
6.143280
  0
VERTEX
  8
0
  6
CONTINUOUS
 10
4.579080
 20
6.138000
  0
VERTEX
  8
0
  6
CONTINUOUS
 10
4.591840
 20
6.131840
  0
VERTEX
  8
0
  6
CONTINUOUS
 10
4.604600
 20
6.124360
  0
VERTEX
  8
0
  6
CONTINUOUS
 10
4.616920
 20
6.115560
  0
VERTEX
  8
0
  6
CONTINUOUS
 10
4.629680
 20
6.105440
  0
VERTEX
  8
0
  6
CONTINUOUS
 10
4.642000
 20
6.093560
  0
VERTEX
  8
0
  6
CONTINUOUS
 10
4.653880
 20
6.080360
  0
VERTEX
  8
0
  6
CONTINUOUS
 10
4.665760
 20
6.064960
  0
VERTEX
  8
0
  6
CONTINUOUS
 10
4.676760
 20
6.047800
  0
VERTEX
  8
0
  6
CONTINUOUS
 10
4.688200
 20
6.030640
  0
VERTEX
  8
0
  6
CONTINUOUS
 10
4.700520
 20
6.014800
  0
VERTEX
  8
0
  6
CONTINUOUS
 10
4.713720
 20
6.001160
  0
VERTEX
  8
0
  6
CONTINUOUS
 10
4.727360
 20
5.988840
  0
VERTEX
  8
0
  6
CONTINUOUS
 10
4.741440
 20
5.978280
  0
VERTEX
  8
0
  6
CONTINUOUS
 10
4.755520
 20
5.968600
  0
VERTEX
  8
0
  6
CONTINUOUS
 10
4.769160
 20
5.960680
  0
VERTEX
  8
0
  6
CONTINUOUS
 10
4.782800
 20
5.954080
  0
VERTEX
  8
0
  6
CONTINUOUS
 10
4.795560
 20
5.948360
  0
VERTEX
  8
0
  6
CONTINUOUS
 10
4.807880
 20
5.943520
  0
VERTEX
  8
0
  6
CONTINUOUS
 10
4.818880
 20
5.940000
  0
VERTEX
  8
0
  6
CONTINUOUS
 10
4.828560
 20
5.937360
  0
VERTEX
  8
0
  6
CONTINUOUS
 10
4.836920
 20
5.935160
  0
VERTEX
  8
0
  6
CONTINUOUS
 10
4.843520
 20
5.933840
  0
VERTEX
  8
0
  6
CONTINUOUS
 10
4.847920
 20
5.933400
  0
VERTEX
  8
0
  6
CONTINUOUS
 10
4.850560
 20
5.932960
  0
SEQEND
  8
0
  0
TEXT
  8
0
 10
4.528920
 20
5.673800
 40
0.138108
  1
BA  354
 41
1.000000
  7
SN0
 71
     0
 72
     5
 11
5.118803
 21
5.673800
  0
TEXT
  8
0
 10
4.446640
 20
5.482400
 40
0.138108
  1
3/8" x 1/2"
 41
1.000000
  7
SN0
 71
     0
 72
     5
 11
5.199195
 21
5.482400
  0
ENDSEC
  0
EOF
