  0
SECTION
  2
HEADER
  9
$ACADVER
  1
AC1006
  9
$EXTMIN
 10
3.004320
 20
0.428560
  9
$EXTMAX
 10
6.835840
 20
2.708640
  9
$LTSCALE
 40
0.044000
  9
$PDMODE
 70
    35
  9
$PDSIZE
 40
0.035200
  0
ENDSEC
  0
SECTION
  2
TABLES
  0
TABLE
  2
LTYPE
 70
     9
  0
LTYPE
  2
CONTINUOUS
 70
    64
  3
Solid line
 72
    65
 73
     0
 40
0.000000
  0
LTYPE
  2
DASHED
 70
    64
  3
__ __ __ __ __ __ __ __ __ __ __ __ __ __ __
 72
    65
 73
     2
 40
0.000330
 49
0.000220
 49
-0.000110
  0
LTYPE
  2
HIDDEN
 70
    64
  3
 _ _ _ _ _ _ _ _ _ _ _ _ _ _ _ _ _ _ _ _ _ _
 72
    65
 73
     2
 40
0.000165
 49
0.000110
 49
-0.000055
  0
LTYPE
  2
CENTER
 70
    64
  3
____ _ ____ _ ____ _ ____ _ ____ _ ____ _ ____
 72
    65
 73
     4
 40
0.000880
 49
0.000550
 49
-0.000110
 49
0.000110
 49
-0.000110
  0
LTYPE
  2
PHANTOM
 70
    64
  3
_____ _ _ _____ _ _ _____ _ _ _____ _ _ ____
 72
    65
 73
     6
 40
0.001100
 49
0.000550
 49
-0.000110
 49
0.000110
 49
-0.000110
 49
0.000110
 49
-0.000110
  0
LTYPE
  2
DOT
 70
    64
  3
...............................................
 72
    65
 73
     2
 40
0.000110
 49
0.000000
 49
-0.000110
  0
LTYPE
  2
DASHDOT
 70
    64
  3
__ . __ . __ . __ . __ . __ . __ . __ . __ . __
 72
    65
 73
     4
 40
0.000440
 49
0.000220
 49
-0.000110
 49
0.000000
 49
-0.000110
  0
LTYPE
  2
BORDER
 70
    64
  3
__ __ . __ __ . __ __ . __ __ . __ __ . __ __
 72
    65
 73
     6
 40
0.000770
 49
0.000220
 49
-0.000110
 49
0.000220
 49
-0.000110
 49
0.000000
 49
-0.000110
  0
LTYPE
  2
DIVIDE
 70
    64
  3
__ . . __ . . __ . . __ . . __ . . __ . . __
 72
    65
 73
     6
 40
0.000550
 49
0.000220
 49
-0.000110
 49
0.000000
 49
-0.000110
 49
0.000000
 49
-0.000110
  0
LTYPE
  2
DOTDOT
 70
    64
  3
 . .  . .  . .  . .  . .  . . 
 72
    65
 73
     5
 40
0.000242
 49
-0.000110
 49
0.000000
 49
-0.000110
 49
0.000000
 49
-0.000110
  0
ENDTAB
  0
TABLE
  2
STYLE
 70
     2
  0
STYLE
 70
     0
  2
SN0
 40
0.000000
 41
0.000440
 50
0.000000
 71
     0
 42
0.000000
  3
ROMAND
  0
STYLE
 70
    68
  2
SV0
 40
0.000000
 41
0.000440
 50
0.000000
 71
     0
 42
0.000000
  3
ROMAND
  0
ENDTAB
  0
TABLE
  2
LAYER
 70
     3
  0
LAYER
  2
FOREGROUND
 70
    64
 62
     7
  6
CONTINUOUS
  0
LAYER
  2
BACKGROUND
 70
    65
 62
    -7
  6
CONTINUOUS
  0
LAYER
  2
0
 70
    64
 62
     7
  6
CONTINUOUS
  0
ENDTAB
  0
ENDSEC
  0
SECTION
  2
ENTITIES
  0
POLYLINE
  8
FOREGROUND
  6
CONTINUOUS
 66
     1
 40
0.000000
 41
0.000000
  0
VERTEX
  8
FOREGROUND
  6
CONTINUOUS
 10
0.000000
 20
3.137200
  0
VERTEX
  8
FOREGROUND
  6
CONTINUOUS
 10
8.499920
 20
3.137200
  0
VERTEX
  8
FOREGROUND
  6
CONTINUOUS
 10
8.499920
 20
-7.862800
  0
VERTEX
  8
FOREGROUND
  6
CONTINUOUS
 10
0.000000
 20
-7.862800
  0
VERTEX
  8
FOREGROUND
  6
CONTINUOUS
 10
0.000000
 20
3.137200
  0
SEQEND
  8
0
  0
POLYLINE
  8
FOREGROUND
  6
CONTINUOUS
 66
     1
 40
0.000000
 41
0.000000
  0
VERTEX
  8
FOREGROUND
  6
CONTINUOUS
 10
0.000000
 20
3.137200
  0
VERTEX
  8
FOREGROUND
  6
CONTINUOUS
 10
8.499920
 20
3.137200
  0
VERTEX
  8
FOREGROUND
  6
CONTINUOUS
 10
8.499920
 20
-7.862800
  0
VERTEX
  8
FOREGROUND
  6
CONTINUOUS
 10
0.000000
 20
-7.862800
  0
VERTEX
  8
FOREGROUND
  6
CONTINUOUS
 10
0.000000
 20
3.137200
  0
SEQEND
  8
0
  0
POLYLINE
  8
0
  6
CONTINUOUS
 66
     1
 40
0.014080
 41
0.014080
  0
VERTEX
  8
0
  6
CONTINUOUS
 10
5.973000
 20
1.188440
  0
VERTEX
  8
0
  6
CONTINUOUS
 10
6.692840
 20
2.196920
  0
VERTEX
  8
0
  6
CONTINUOUS
 10
6.828800
 20
2.196920
  0
VERTEX
  8
0
  6
CONTINUOUS
 10
6.828800
 20
2.701160
  0
VERTEX
  8
0
  6
CONTINUOUS
 10
5.701080
 20
2.701160
  0
VERTEX
  8
0
  6
CONTINUOUS
 10
5.701080
 20
0.927520
  0
VERTEX
  8
0
  6
CONTINUOUS
 10
5.973000
 20
0.927520
  0
VERTEX
  8
0
  6
CONTINUOUS
 10
5.973000
 20
1.188440
  0
SEQEND
  8
0
  0
SOLID
  8
0
 62
    15
 10
4.132480
 20
2.632080
 11
4.777080
 21
2.258080
 12
4.132480
 22
2.127840
 13
4.777080
 23
1.753840
  0
POLYLINE
  8
0
  6
CONTINUOUS
 66
     1
 40
0.000000
 41
0.000000
  0
VERTEX
  8
0
  6
CONTINUOUS
 10
4.132480
 20
2.632080
  0
VERTEX
  8
0
  6
CONTINUOUS
 10
4.777080
 20
2.258080
  0
VERTEX
  8
0
  6
CONTINUOUS
 10
4.777080
 20
1.753840
  0
VERTEX
  8
0
  6
CONTINUOUS
 10
4.132480
 20
2.127840
  0
VERTEX
  8
0
  6
CONTINUOUS
 10
4.132480
 20
2.632080
  0
SEQEND
  8
0
  0
SOLID
  8
0
 62
    15
 10
4.132480
 20
2.127840
 11
4.777080
 21
1.753840
 12
3.996520
 22
2.127840
 13
4.641120
 23
1.753840
  0
POLYLINE
  8
0
  6
CONTINUOUS
 66
     1
 40
0.000000
 41
0.000000
  0
VERTEX
  8
0
  6
CONTINUOUS
 10
4.132480
 20
2.127840
  0
VERTEX
  8
0
  6
CONTINUOUS
 10
4.777080
 20
1.753840
  0
VERTEX
  8
0
  6
CONTINUOUS
 10
4.641120
 20
1.753840
  0
VERTEX
  8
0
  6
CONTINUOUS
 10
3.996520
 20
2.127840
  0
VERTEX
  8
0
  6
CONTINUOUS
 10
4.132480
 20
2.127840
  0
SEQEND
  8
0
  0
SOLID
  8
0
 62
    15
 10
3.996520
 20
2.127840
 11
4.641120
 21
1.753840
 12
3.277120
 22
1.119360
 13
3.921280
 23
0.745360
  0
POLYLINE
  8
0
  6
CONTINUOUS
 66
     1
 40
0.000000
 41
0.000000
  0
VERTEX
  8
0
  6
CONTINUOUS
 10
3.996520
 20
2.127840
  0
VERTEX
  8
0
  6
CONTINUOUS
 10
4.641120
 20
1.753840
  0
VERTEX
  8
0
  6
CONTINUOUS
 10
3.921280
 20
0.745360
  0
VERTEX
  8
0
  6
CONTINUOUS
 10
3.277120
 20
1.119360
  0
VERTEX
  8
0
  6
CONTINUOUS
 10
3.996520
 20
2.127840
  0
SEQEND
  8
0
  0
SOLID
  8
0
 62
    15
 10
3.277120
 20
1.119360
 11
3.921280
 21
0.745360
 12
3.277120
 22
0.858880
 13
3.921280
 23
0.484440
  0
POLYLINE
  8
0
  6
CONTINUOUS
 66
     1
 40
0.000000
 41
0.000000
  0
VERTEX
  8
0
  6
CONTINUOUS
 10
3.277120
 20
1.119360
  0
VERTEX
  8
0
  6
CONTINUOUS
 10
3.921280
 20
0.745360
  0
VERTEX
  8
0
  6
CONTINUOUS
 10
3.921280
 20
0.484440
  0
VERTEX
  8
0
  6
CONTINUOUS
 10
3.277120
 20
0.858880
  0
VERTEX
  8
0
  6
CONTINUOUS
 10
3.277120
 20
1.119360
  0
SEQEND
  8
0
  0
SOLID
  8
0
 62
    15
 10
3.277120
 20
0.858880
 11
3.921280
 21
0.484440
 12
3.005200
 22
0.858880
 13
3.649360
 23
0.484440
  0
POLYLINE
  8
0
  6
CONTINUOUS
 66
     1
 40
0.000000
 41
0.000000
  0
VERTEX
  8
0
  6
CONTINUOUS
 10
3.277120
 20
0.858880
  0
VERTEX
  8
0
  6
CONTINUOUS
 10
3.921280
 20
0.484440
  0
VERTEX
  8
0
  6
CONTINUOUS
 10
3.649360
 20
0.484440
  0
VERTEX
  8
0
  6
CONTINUOUS
 10
3.005200
 20
0.858880
  0
VERTEX
  8
0
  6
CONTINUOUS
 10
3.277120
 20
0.858880
  0
SEQEND
  8
0
  0
POLYLINE
  8
0
  6
CONTINUOUS
 66
     1
 40
0.000000
 41
0.000000
  0
VERTEX
  8
0
  6
CONTINUOUS
 10
3.277120
 20
0.858880
  0
VERTEX
  8
0
  6
CONTINUOUS
 10
3.005200
 20
0.858880
  0
VERTEX
  8
0
  6
CONTINUOUS
 10
3.005200
 20
2.632080
  0
VERTEX
  8
0
  6
CONTINUOUS
 10
4.132480
 20
2.632080
  0
VERTEX
  8
0
  6
CONTINUOUS
 10
4.132480
 20
2.127840
  0
VERTEX
  8
0
  6
CONTINUOUS
 10
3.996520
 20
2.127840
  0
VERTEX
  8
0
  6
CONTINUOUS
 10
3.277120
 20
1.119360
  0
VERTEX
  8
0
  6
CONTINUOUS
 10
3.277120
 20
0.858880
  0
SEQEND
  8
0
  0
TEXT
  8
0
 10
4.329600
 20
0.664400
 40
0.138211
  1
BA  351
 41
1.000000
  7
SN0
 71
     0
 72
     5
 11
4.919463
 21
0.664400
  0
TEXT
  8
0
 10
4.099920
 20
0.473000
 40
0.138211
  1
1-1/8" x 1-3/4"
 41
1.000000
  7
SN0
 71
     0
 72
     5
 11
5.146500
 21
0.473000
  0
ENDSEC
  0
EOF
