  0
SECTION
  2
HEADER
  9
$ACADVER
  1
AC1006
  9
$EXTMIN
 10
4.262720
 20
0.466400
  9
$EXTMAX
 10
7.816600
 20
3.100240
  9
$LTSCALE
 40
0.044000
  9
$PDMODE
 70
    35
  9
$PDSIZE
 40
0.035200
  0
ENDSEC
  0
SECTION
  2
TABLES
  0
TABLE
  2
LTYPE
 70
     9
  0
LTYPE
  2
CONTINUOUS
 70
    64
  3
Solid line
 72
    65
 73
     0
 40
0.000000
  0
LTYPE
  2
DASHED
 70
    64
  3
__ __ __ __ __ __ __ __ __ __ __ __ __ __ __
 72
    65
 73
     2
 40
0.000330
 49
0.000220
 49
-0.000110
  0
LTYPE
  2
HIDDEN
 70
    64
  3
 _ _ _ _ _ _ _ _ _ _ _ _ _ _ _ _ _ _ _ _ _ _
 72
    65
 73
     2
 40
0.000165
 49
0.000110
 49
-0.000055
  0
LTYPE
  2
CENTER
 70
    64
  3
____ _ ____ _ ____ _ ____ _ ____ _ ____ _ ____
 72
    65
 73
     4
 40
0.000880
 49
0.000550
 49
-0.000110
 49
0.000110
 49
-0.000110
  0
LTYPE
  2
PHANTOM
 70
    64
  3
_____ _ _ _____ _ _ _____ _ _ _____ _ _ ____
 72
    65
 73
     6
 40
0.001100
 49
0.000550
 49
-0.000110
 49
0.000110
 49
-0.000110
 49
0.000110
 49
-0.000110
  0
LTYPE
  2
DOT
 70
    64
  3
...............................................
 72
    65
 73
     2
 40
0.000110
 49
0.000000
 49
-0.000110
  0
LTYPE
  2
DASHDOT
 70
    64
  3
__ . __ . __ . __ . __ . __ . __ . __ . __ . __
 72
    65
 73
     4
 40
0.000440
 49
0.000220
 49
-0.000110
 49
0.000000
 49
-0.000110
  0
LTYPE
  2
BORDER
 70
    64
  3
__ __ . __ __ . __ __ . __ __ . __ __ . __ __
 72
    65
 73
     6
 40
0.000770
 49
0.000220
 49
-0.000110
 49
0.000220
 49
-0.000110
 49
0.000000
 49
-0.000110
  0
LTYPE
  2
DIVIDE
 70
    64
  3
__ . . __ . . __ . . __ . . __ . . __ . . __
 72
    65
 73
     6
 40
0.000550
 49
0.000220
 49
-0.000110
 49
0.000000
 49
-0.000110
 49
0.000000
 49
-0.000110
  0
LTYPE
  2
DOTDOT
 70
    64
  3
 . .  . .  . .  . .  . .  . . 
 72
    65
 73
     5
 40
0.000242
 49
-0.000110
 49
0.000000
 49
-0.000110
 49
0.000000
 49
-0.000110
  0
ENDTAB
  0
TABLE
  2
STYLE
 70
     2
  0
STYLE
 70
     0
  2
SN0
 40
0.000000
 41
0.000440
 50
0.000000
 71
     0
 42
0.000000
  3
ROMAND
  0
STYLE
 70
    68
  2
SV0
 40
0.000000
 41
0.000440
 50
0.000000
 71
     0
 42
0.000000
  3
ROMAND
  0
ENDTAB
  0
TABLE
  2
LAYER
 70
     3
  0
LAYER
  2
FOREGROUND
 70
    64
 62
     7
  6
CONTINUOUS
  0
LAYER
  2
BACKGROUND
 70
    65
 62
    -7
  6
CONTINUOUS
  0
LAYER
  2
0
 70
    64
 62
     7
  6
CONTINUOUS
  0
ENDTAB
  0
ENDSEC
  0
SECTION
  2
ENTITIES
  0
POLYLINE
  8
FOREGROUND
  6
CONTINUOUS
 66
     1
 40
0.000000
 41
0.000000
  0
VERTEX
  8
FOREGROUND
  6
CONTINUOUS
 10
0.000000
 20
3.566640
  0
VERTEX
  8
FOREGROUND
  6
CONTINUOUS
 10
8.499920
 20
3.566640
  0
VERTEX
  8
FOREGROUND
  6
CONTINUOUS
 10
8.499920
 20
-7.433360
  0
VERTEX
  8
FOREGROUND
  6
CONTINUOUS
 10
0.000000
 20
-7.433360
  0
VERTEX
  8
FOREGROUND
  6
CONTINUOUS
 10
0.000000
 20
3.566640
  0
SEQEND
  8
0
  0
POLYLINE
  8
FOREGROUND
  6
CONTINUOUS
 66
     1
 40
0.000000
 41
0.000000
  0
VERTEX
  8
FOREGROUND
  6
CONTINUOUS
 10
0.000000
 20
3.566640
  0
VERTEX
  8
FOREGROUND
  6
CONTINUOUS
 10
8.499920
 20
3.566640
  0
VERTEX
  8
FOREGROUND
  6
CONTINUOUS
 10
8.499920
 20
-7.433360
  0
VERTEX
  8
FOREGROUND
  6
CONTINUOUS
 10
0.000000
 20
-7.433360
  0
VERTEX
  8
FOREGROUND
  6
CONTINUOUS
 10
0.000000
 20
3.566640
  0
SEQEND
  8
0
  0
POLYLINE
  8
0
  6
CONTINUOUS
 66
     1
 40
0.014080
 41
0.014080
  0
VERTEX
  8
0
  6
CONTINUOUS
 10
6.048680
 20
2.340360
  0
VERTEX
  8
0
  6
CONTINUOUS
 10
6.048680
 20
2.725800
  0
VERTEX
  8
0
  6
CONTINUOUS
 10
5.619240
 20
2.725800
  0
VERTEX
  8
0
  6
CONTINUOUS
 10
5.619680
 20
2.740320
  0
VERTEX
  8
0
  6
CONTINUOUS
 10
5.620560
 20
2.754840
  0
VERTEX
  8
0
  6
CONTINUOUS
 10
5.621880
 20
2.768920
  0
VERTEX
  8
0
  6
CONTINUOUS
 10
5.624080
 20
2.782560
  0
VERTEX
  8
0
  6
CONTINUOUS
 10
5.626720
 20
2.796200
  0
VERTEX
  8
0
  6
CONTINUOUS
 10
5.629800
 20
2.808960
  0
VERTEX
  8
0
  6
CONTINUOUS
 10
5.633760
 20
2.821720
  0
VERTEX
  8
0
  6
CONTINUOUS
 10
5.638160
 20
2.834040
  0
VERTEX
  8
0
  6
CONTINUOUS
 10
5.642560
 20
2.845480
  0
VERTEX
  8
0
  6
CONTINUOUS
 10
5.647840
 20
2.856920
  0
VERTEX
  8
0
  6
CONTINUOUS
 10
5.660160
 20
2.878920
  0
VERTEX
  8
0
  6
CONTINUOUS
 10
5.673800
 20
2.898720
  0
VERTEX
  8
0
  6
CONTINUOUS
 10
5.689640
 20
2.916760
  0
VERTEX
  8
0
  6
CONTINUOUS
 10
5.706800
 20
2.933040
  0
VERTEX
  8
0
  6
CONTINUOUS
 10
5.716040
 20
2.940520
  0
VERTEX
  8
0
  6
CONTINUOUS
 10
5.725720
 20
2.947120
  0
VERTEX
  8
0
  6
CONTINUOUS
 10
5.735840
 20
2.953720
  0
VERTEX
  8
0
  6
CONTINUOUS
 10
5.746400
 20
2.959440
  0
VERTEX
  8
0
  6
CONTINUOUS
 10
5.756960
 20
2.964720
  0
VERTEX
  8
0
  6
CONTINUOUS
 10
5.767960
 20
2.969560
  0
VERTEX
  8
0
  6
CONTINUOUS
 10
5.779400
 20
2.973960
  0
VERTEX
  8
0
  6
CONTINUOUS
 10
5.791280
 20
2.977920
  0
VERTEX
  8
0
  6
CONTINUOUS
 10
5.803600
 20
2.981000
  0
VERTEX
  8
0
  6
CONTINUOUS
 10
5.815920
 20
2.983640
  0
VERTEX
  8
0
  6
CONTINUOUS
 10
5.828240
 20
2.985840
  0
VERTEX
  8
0
  6
CONTINUOUS
 10
5.841440
 20
2.987160
  0
VERTEX
  8
0
  6
CONTINUOUS
 10
5.854640
 20
2.988040
  0
VERTEX
  8
0
  6
CONTINUOUS
 10
5.867840
 20
2.988480
  0
VERTEX
  8
0
  6
CONTINUOUS
 10
5.867840
 20
3.092760
  0
VERTEX
  8
0
  6
CONTINUOUS
 10
6.858720
 20
3.092760
  0
VERTEX
  8
0
  6
CONTINUOUS
 10
6.858720
 20
2.340360
  0
VERTEX
  8
0
  6
CONTINUOUS
 10
6.049120
 20
2.340360
  0
SEQEND
  8
0
  0
POLYLINE
  8
0
  6
CONTINUOUS
 66
     1
 40
0.014080
 41
0.014080
  0
VERTEX
  8
0
  6
CONTINUOUS
 10
6.051760
 20
2.344760
  0
VERTEX
  8
0
  6
CONTINUOUS
 10
6.051760
 20
2.730200
  0
VERTEX
  8
0
  6
CONTINUOUS
 10
5.622320
 20
2.730200
  0
VERTEX
  8
0
  6
CONTINUOUS
 10
5.622760
 20
2.744720
  0
VERTEX
  8
0
  6
CONTINUOUS
 10
5.623640
 20
2.759240
  0
VERTEX
  8
0
  6
CONTINUOUS
 10
5.624960
 20
2.773320
  0
VERTEX
  8
0
  6
CONTINUOUS
 10
5.627160
 20
2.786960
  0
VERTEX
  8
0
  6
CONTINUOUS
 10
5.629800
 20
2.800160
  0
VERTEX
  8
0
  6
CONTINUOUS
 10
5.632880
 20
2.813360
  0
VERTEX
  8
0
  6
CONTINUOUS
 10
5.636400
 20
2.825680
  0
VERTEX
  8
0
  6
CONTINUOUS
 10
5.640800
 20
2.838000
  0
VERTEX
  8
0
  6
CONTINUOUS
 10
5.645640
 20
2.849880
  0
VERTEX
  8
0
  6
CONTINUOUS
 10
5.650920
 20
2.861320
  0
VERTEX
  8
0
  6
CONTINUOUS
 10
5.656640
 20
2.872320
  0
VERTEX
  8
0
  6
CONTINUOUS
 10
5.662800
 20
2.882880
  0
VERTEX
  8
0
  6
CONTINUOUS
 10
5.676440
 20
2.902680
  0
VERTEX
  8
0
  6
CONTINUOUS
 10
5.692280
 20
2.920720
  0
VERTEX
  8
0
  6
CONTINUOUS
 10
5.709440
 20
2.937000
  0
VERTEX
  8
0
  6
CONTINUOUS
 10
5.718680
 20
2.944480
  0
VERTEX
  8
0
  6
CONTINUOUS
 10
5.728360
 20
2.951080
  0
VERTEX
  8
0
  6
CONTINUOUS
 10
5.738480
 20
2.957680
  0
VERTEX
  8
0
  6
CONTINUOUS
 10
5.749040
 20
2.963400
  0
VERTEX
  8
0
  6
CONTINUOUS
 10
5.759600
 20
2.968680
  0
VERTEX
  8
0
  6
CONTINUOUS
 10
5.771040
 20
2.973520
  0
VERTEX
  8
0
  6
CONTINUOUS
 10
5.782040
 20
2.977920
  0
VERTEX
  8
0
  6
CONTINUOUS
 10
5.793920
 20
2.981880
  0
VERTEX
  8
0
  6
CONTINUOUS
 10
5.806240
 20
2.984960
  0
VERTEX
  8
0
  6
CONTINUOUS
 10
5.818560
 20
2.987600
  0
VERTEX
  8
0
  6
CONTINUOUS
 10
5.830880
 20
2.989800
  0
VERTEX
  8
0
  6
CONTINUOUS
 10
5.844080
 20
2.991120
  0
VERTEX
  8
0
  6
CONTINUOUS
 10
5.857280
 20
2.992000
  0
VERTEX
  8
0
  6
CONTINUOUS
 10
5.870480
 20
2.992440
  0
VERTEX
  8
0
  6
CONTINUOUS
 10
5.870040
 20
2.992440
  0
VERTEX
  8
0
  6
CONTINUOUS
 10
5.870040
 20
3.092760
  0
VERTEX
  8
0
  6
CONTINUOUS
 10
5.865640
 20
3.092760
  0
VERTEX
  8
0
  6
CONTINUOUS
 10
5.868720
 20
3.092760
  0
VERTEX
  8
0
  6
CONTINUOUS
 10
4.877400
 20
3.092760
  0
VERTEX
  8
0
  6
CONTINUOUS
 10
4.877400
 20
2.340800
  0
VERTEX
  8
0
  6
CONTINUOUS
 10
6.050880
 20
2.340800
  0
VERTEX
  8
0
  6
CONTINUOUS
 10
6.051760
 20
2.344760
  0
SEQEND
  8
0
  0
SOLID
  8
0
 62
     7
 10
5.073200
 20
1.132560
 11
5.710320
 21
1.504360
 12
5.073200
 22
0.747120
 13
5.710320
 23
1.118920
  0
POLYLINE
  8
0
  6
CONTINUOUS
 66
     1
 40
0.000000
 41
0.000000
  0
VERTEX
  8
0
  6
CONTINUOUS
 10
5.073200
 20
1.132560
  0
VERTEX
  8
0
  6
CONTINUOUS
 10
5.710320
 20
1.504360
  0
VERTEX
  8
0
  6
CONTINUOUS
 10
5.710320
 20
1.118920
  0
VERTEX
  8
0
  6
CONTINUOUS
 10
5.073200
 20
0.747120
  0
VERTEX
  8
0
  6
CONTINUOUS
 10
5.073200
 20
1.132560
  0
SEQEND
  8
0
  0
SOLID
  8
0
 62
     7
 10
5.254040
 20
1.499080
 11
5.891160
 21
1.871320
 12
5.254040
 22
1.395240
 13
5.891160
 23
1.767040
  0
POLYLINE
  8
0
  6
CONTINUOUS
 66
     1
 40
0.000000
 41
0.000000
  0
VERTEX
  8
0
  6
CONTINUOUS
 10
5.254040
 20
1.499080
  0
VERTEX
  8
0
  6
CONTINUOUS
 10
5.891160
 20
1.871320
  0
VERTEX
  8
0
  6
CONTINUOUS
 10
5.891160
 20
1.767040
  0
VERTEX
  8
0
  6
CONTINUOUS
 10
5.254040
 20
1.395240
  0
VERTEX
  8
0
  6
CONTINUOUS
 10
5.254040
 20
1.499080
  0
SEQEND
  8
0
  0
SOLID
  8
0
 62
    15
 10
5.254040
 20
1.395240
 11
5.891160
 21
1.767040
 12
5.306400
 22
1.390400
 13
5.943080
 23
1.762200
  0
POLYLINE
  8
0
  6
CONTINUOUS
 66
     1
 40
0.000000
 41
0.000000
  0
VERTEX
  8
0
  6
CONTINUOUS
 10
5.254040
 20
1.395240
  0
VERTEX
  8
0
  6
CONTINUOUS
 10
5.891160
 20
1.767040
  0
VERTEX
  8
0
  6
CONTINUOUS
 10
5.943080
 20
1.762200
  0
VERTEX
  8
0
  6
CONTINUOUS
 10
5.306400
 20
1.390400
  0
VERTEX
  8
0
  6
CONTINUOUS
 10
5.254040
 20
1.395240
  0
SEQEND
  8
0
  0
SOLID
  8
0
 62
    15
 10
5.306400
 20
1.390400
 11
5.943080
 21
1.762200
 12
5.353920
 22
1.376320
 13
5.990600
 23
1.748120
  0
POLYLINE
  8
0
  6
CONTINUOUS
 66
     1
 40
0.000000
 41
0.000000
  0
VERTEX
  8
0
  6
CONTINUOUS
 10
5.306400
 20
1.390400
  0
VERTEX
  8
0
  6
CONTINUOUS
 10
5.943080
 20
1.762200
  0
VERTEX
  8
0
  6
CONTINUOUS
 10
5.990600
 20
1.748120
  0
VERTEX
  8
0
  6
CONTINUOUS
 10
5.353920
 20
1.376320
  0
VERTEX
  8
0
  6
CONTINUOUS
 10
5.306400
 20
1.390400
  0
SEQEND
  8
0
  0
SOLID
  8
0
 62
     7
 10
5.353920
 20
1.376320
 11
5.990600
 21
1.748120
 12
5.396160
 22
1.353880
 13
6.033280
 23
1.725680
  0
POLYLINE
  8
0
  6
CONTINUOUS
 66
     1
 40
0.000000
 41
0.000000
  0
VERTEX
  8
0
  6
CONTINUOUS
 10
5.353920
 20
1.376320
  0
VERTEX
  8
0
  6
CONTINUOUS
 10
5.990600
 20
1.748120
  0
VERTEX
  8
0
  6
CONTINUOUS
 10
6.033280
 20
1.725680
  0
VERTEX
  8
0
  6
CONTINUOUS
 10
5.396160
 20
1.353880
  0
VERTEX
  8
0
  6
CONTINUOUS
 10
5.353920
 20
1.376320
  0
SEQEND
  8
0
  0
SOLID
  8
0
 62
    15
 10
4.263600
 20
1.499080
 11
4.900720
 21
1.871320
 12
5.254040
 22
1.499080
 13
5.891160
 23
1.871320
  0
POLYLINE
  8
0
  6
CONTINUOUS
 66
     1
 40
0.000000
 41
0.000000
  0
VERTEX
  8
0
  6
CONTINUOUS
 10
4.263600
 20
1.499080
  0
VERTEX
  8
0
  6
CONTINUOUS
 10
4.900720
 20
1.871320
  0
VERTEX
  8
0
  6
CONTINUOUS
 10
5.891160
 20
1.871320
  0
VERTEX
  8
0
  6
CONTINUOUS
 10
5.254040
 20
1.499080
  0
VERTEX
  8
0
  6
CONTINUOUS
 10
4.263600
 20
1.499080
  0
SEQEND
  8
0
  0
SOLID
  8
0
 62
     7
 10
5.432680
 20
1.323080
 11
6.069360
 21
1.695320
 12
5.462160
 22
1.285240
 13
6.098840
 23
1.657040
  0
POLYLINE
  8
0
  6
CONTINUOUS
 66
     1
 40
0.000000
 41
0.000000
  0
VERTEX
  8
0
  6
CONTINUOUS
 10
5.432680
 20
1.323080
  0
VERTEX
  8
0
  6
CONTINUOUS
 10
6.069360
 20
1.695320
  0
VERTEX
  8
0
  6
CONTINUOUS
 10
6.098840
 20
1.657040
  0
VERTEX
  8
0
  6
CONTINUOUS
 10
5.462160
 20
1.285240
  0
VERTEX
  8
0
  6
CONTINUOUS
 10
5.432680
 20
1.323080
  0
SEQEND
  8
0
  0
SOLID
  8
0
 62
     7
 10
5.462160
 20
1.285240
 11
6.098840
 21
1.657040
 12
5.484160
 22
1.240360
 13
6.121280
 23
1.612160
  0
POLYLINE
  8
0
  6
CONTINUOUS
 66
     1
 40
0.000000
 41
0.000000
  0
VERTEX
  8
0
  6
CONTINUOUS
 10
5.462160
 20
1.285240
  0
VERTEX
  8
0
  6
CONTINUOUS
 10
6.098840
 20
1.657040
  0
VERTEX
  8
0
  6
CONTINUOUS
 10
6.121280
 20
1.612160
  0
VERTEX
  8
0
  6
CONTINUOUS
 10
5.484160
 20
1.240360
  0
VERTEX
  8
0
  6
CONTINUOUS
 10
5.462160
 20
1.285240
  0
SEQEND
  8
0
  0
SOLID
  8
0
 62
     7
 10
5.484160
 20
1.240360
 11
6.121280
 21
1.612160
 12
5.497800
 22
1.189320
 13
6.134920
 23
1.561120
  0
POLYLINE
  8
0
  6
CONTINUOUS
 66
     1
 40
0.000000
 41
0.000000
  0
VERTEX
  8
0
  6
CONTINUOUS
 10
5.484160
 20
1.240360
  0
VERTEX
  8
0
  6
CONTINUOUS
 10
6.121280
 20
1.612160
  0
VERTEX
  8
0
  6
CONTINUOUS
 10
6.134920
 20
1.561120
  0
VERTEX
  8
0
  6
CONTINUOUS
 10
5.497800
 20
1.189320
  0
VERTEX
  8
0
  6
CONTINUOUS
 10
5.484160
 20
1.240360
  0
SEQEND
  8
0
  0
SOLID
  8
0
 62
     7
 10
5.497800
 20
1.189320
 11
6.134920
 21
1.561120
 12
5.502640
 22
1.132560
 13
6.139760
 23
1.504360
  0
POLYLINE
  8
0
  6
CONTINUOUS
 66
     1
 40
0.000000
 41
0.000000
  0
VERTEX
  8
0
  6
CONTINUOUS
 10
5.497800
 20
1.189320
  0
VERTEX
  8
0
  6
CONTINUOUS
 10
6.134920
 20
1.561120
  0
VERTEX
  8
0
  6
CONTINUOUS
 10
6.139760
 20
1.504360
  0
VERTEX
  8
0
  6
CONTINUOUS
 10
5.502640
 20
1.132560
  0
VERTEX
  8
0
  6
CONTINUOUS
 10
5.497800
 20
1.189320
  0
SEQEND
  8
0
  0
SOLID
  8
0
 62
     7
 10
5.396160
 20
1.353880
 11
6.033280
 21
1.725680
 12
5.432680
 22
1.323080
 13
6.069360
 23
1.695320
  0
POLYLINE
  8
0
  6
CONTINUOUS
 66
     1
 40
0.000000
 41
0.000000
  0
VERTEX
  8
0
  6
CONTINUOUS
 10
5.396160
 20
1.353880
  0
VERTEX
  8
0
  6
CONTINUOUS
 10
6.033280
 20
1.725680
  0
VERTEX
  8
0
  6
CONTINUOUS
 10
6.069360
 20
1.695320
  0
VERTEX
  8
0
  6
CONTINUOUS
 10
5.432680
 20
1.323080
  0
VERTEX
  8
0
  6
CONTINUOUS
 10
5.396160
 20
1.353880
  0
SEQEND
  8
0
  0
POLYLINE
  8
0
  6
CONTINUOUS
 66
     1
 40
0.000000
 41
0.000000
  0
VERTEX
  8
0
  6
CONTINUOUS
 10
5.072760
 20
0.747120
  0
VERTEX
  8
0
  6
CONTINUOUS
 10
4.263600
 20
0.747120
  0
VERTEX
  8
0
  6
CONTINUOUS
 10
4.263600
 20
1.499080
  0
VERTEX
  8
0
  6
CONTINUOUS
 10
5.254040
 20
1.499080
  0
VERTEX
  8
0
  6
CONTINUOUS
 10
5.254040
 20
1.395240
  0
VERTEX
  8
0
  6
CONTINUOUS
 10
5.306400
 20
1.390400
  0
VERTEX
  8
0
  6
CONTINUOUS
 10
5.353920
 20
1.376320
  0
VERTEX
  8
0
  6
CONTINUOUS
 10
5.396160
 20
1.353880
  0
VERTEX
  8
0
  6
CONTINUOUS
 10
5.432680
 20
1.323080
  0
VERTEX
  8
0
  6
CONTINUOUS
 10
5.462160
 20
1.285240
  0
VERTEX
  8
0
  6
CONTINUOUS
 10
5.484160
 20
1.240360
  0
VERTEX
  8
0
  6
CONTINUOUS
 10
5.497800
 20
1.189320
  0
VERTEX
  8
0
  6
CONTINUOUS
 10
5.502640
 20
1.132560
  0
VERTEX
  8
0
  6
CONTINUOUS
 10
5.073200
 20
1.132560
  0
VERTEX
  8
0
  6
CONTINUOUS
 10
5.073200
 20
0.747120
  0
VERTEX
  8
0
  6
CONTINUOUS
 10
5.072760
 20
0.747120
  0
SEQEND
  8
0
  0
SOLID
  8
0
 62
    15
 10
6.190800
 20
1.398320
 11
6.823080
 21
1.760880
 12
6.191240
 22
1.398320
 13
6.823520
 23
1.760880
  0
POLYLINE
  8
0
  6
CONTINUOUS
 66
     1
 40
0.000000
 41
0.000000
  0
VERTEX
  8
0
  6
CONTINUOUS
 10
6.190800
 20
1.398320
  0
VERTEX
  8
0
  6
CONTINUOUS
 10
6.823080
 20
1.760880
  0
VERTEX
  8
0
  6
CONTINUOUS
 10
6.823520
 20
1.760880
  0
VERTEX
  8
0
  6
CONTINUOUS
 10
6.191240
 20
1.398320
  0
VERTEX
  8
0
  6
CONTINUOUS
 10
6.190800
 20
1.398320
  0
SEQEND
  8
0
  0
SOLID
  8
0
 62
    15
 10
6.191240
 20
1.498640
 11
6.823520
 21
1.861200
 12
6.196080
 22
1.498640
 13
6.827920
 23
1.861200
  0
POLYLINE
  8
0
  6
CONTINUOUS
 66
     1
 40
0.000000
 41
0.000000
  0
VERTEX
  8
0
  6
CONTINUOUS
 10
6.191240
 20
1.498640
  0
VERTEX
  8
0
  6
CONTINUOUS
 10
6.823520
 20
1.861200
  0
VERTEX
  8
0
  6
CONTINUOUS
 10
6.827920
 20
1.861200
  0
VERTEX
  8
0
  6
CONTINUOUS
 10
6.196080
 20
1.498640
  0
VERTEX
  8
0
  6
CONTINUOUS
 10
6.191240
 20
1.498640
  0
SEQEND
  8
0
  0
SOLID
  8
0
 62
    15
 10
6.009520
 20
1.136080
 11
6.641800
 21
1.498640
 12
6.438960
 22
1.136080
 13
7.071240
 23
1.498640
  0
POLYLINE
  8
0
  6
CONTINUOUS
 66
     1
 40
0.000000
 41
0.000000
  0
VERTEX
  8
0
  6
CONTINUOUS
 10
6.009520
 20
1.136080
  0
VERTEX
  8
0
  6
CONTINUOUS
 10
6.641800
 20
1.498640
  0
VERTEX
  8
0
  6
CONTINUOUS
 10
7.071240
 20
1.498640
  0
VERTEX
  8
0
  6
CONTINUOUS
 10
6.438960
 20
1.136080
  0
VERTEX
  8
0
  6
CONTINUOUS
 10
6.009520
 20
1.136080
  0
SEQEND
  8
0
  0
SOLID
  8
0
 62
    15
 10
7.184320
 20
1.498640
 11
7.816160
 21
1.861200
 12
7.184320
 22
0.746680
 13
7.816160
 23
1.109240
  0
POLYLINE
  8
0
  6
CONTINUOUS
 66
     1
 40
0.000000
 41
0.000000
  0
VERTEX
  8
0
  6
CONTINUOUS
 10
7.184320
 20
1.498640
  0
VERTEX
  8
0
  6
CONTINUOUS
 10
7.816160
 20
1.861200
  0
VERTEX
  8
0
  6
CONTINUOUS
 10
7.816160
 20
1.109240
  0
VERTEX
  8
0
  6
CONTINUOUS
 10
7.184320
 20
0.746680
  0
VERTEX
  8
0
  6
CONTINUOUS
 10
7.184320
 20
1.498640
  0
SEQEND
  8
0
  0
SOLID
  8
0
 62
    15
 10
6.192560
 20
1.498640
 11
6.824840
 21
1.861200
 12
7.184320
 22
1.498640
 13
7.816160
 23
1.861200
  0
POLYLINE
  8
0
  6
CONTINUOUS
 66
     1
 40
0.000000
 41
0.000000
  0
VERTEX
  8
0
  6
CONTINUOUS
 10
6.192560
 20
1.498640
  0
VERTEX
  8
0
  6
CONTINUOUS
 10
6.824840
 20
1.861200
  0
VERTEX
  8
0
  6
CONTINUOUS
 10
7.816160
 20
1.861200
  0
VERTEX
  8
0
  6
CONTINUOUS
 10
7.184320
 20
1.498640
  0
VERTEX
  8
0
  6
CONTINUOUS
 10
6.192560
 20
1.498640
  0
SEQEND
  8
0
  0
POLYLINE
  8
0
  6
CONTINUOUS
 66
     1
 40
0.000000
 41
0.000000
  0
VERTEX
  8
0
  6
CONTINUOUS
 10
6.009520
 20
0.750640
  0
VERTEX
  8
0
  6
CONTINUOUS
 10
6.009520
 20
1.136080
  0
VERTEX
  8
0
  6
CONTINUOUS
 10
6.438960
 20
1.136080
  0
VERTEX
  8
0
  6
CONTINUOUS
 10
6.434560
 20
1.192840
  0
VERTEX
  8
0
  6
CONTINUOUS
 10
6.420480
 20
1.243880
  0
VERTEX
  8
0
  6
CONTINUOUS
 10
6.398480
 20
1.288760
  0
VERTEX
  8
0
  6
CONTINUOUS
 10
6.369000
 20
1.326600
  0
VERTEX
  8
0
  6
CONTINUOUS
 10
6.332920
 20
1.356960
  0
VERTEX
  8
0
  6
CONTINUOUS
 10
6.290680
 20
1.379840
  0
VERTEX
  8
0
  6
CONTINUOUS
 10
6.243160
 20
1.393480
  0
VERTEX
  8
0
  6
CONTINUOUS
 10
6.190800
 20
1.398320
  0
VERTEX
  8
0
  6
CONTINUOUS
 10
6.191240
 20
1.398320
  0
VERTEX
  8
0
  6
CONTINUOUS
 10
6.191240
 20
1.498640
  0
VERTEX
  8
0
  6
CONTINUOUS
 10
6.196080
 20
1.498640
  0
VERTEX
  8
0
  6
CONTINUOUS
 10
6.192560
 20
1.498640
  0
VERTEX
  8
0
  6
CONTINUOUS
 10
7.184320
 20
1.498640
  0
VERTEX
  8
0
  6
CONTINUOUS
 10
7.184320
 20
0.746680
  0
VERTEX
  8
0
  6
CONTINUOUS
 10
6.010840
 20
0.746680
  0
VERTEX
  8
0
  6
CONTINUOUS
 10
6.009520
 20
0.750640
  0
SEQEND
  8
0
  0
TEXT
  8
0
 10
5.520240
 20
0.508200
 40
0.138132
  1
BA  350A & B 3/4"
 41
1.000000
  7
SN0
 71
     0
 72
     5
 11
6.869115
 21
0.508200
  0
TEXT
  8
0
 10
4.348080
 20
0.820600
 40
0.138132
  1
A
 41
1.000000
  7
SN0
 71
     0
 72
     5
 11
4.459139
 21
0.820600
  0
TEXT
  8
0
 10
6.086520
 20
0.810920
 40
0.138132
  1
B
 41
1.000000
  7
SN0
 71
     0
 72
     5
 11
6.197579
 21
0.810920
  0
ENDSEC
  0
EOF
