  0
SECTION
  2
HEADER
  9
$ACADVER
  1
AC1006
  9
$EXTMIN
 10
2.000680
 20
0.708840
  9
$EXTMAX
 10
6.646640
 20
3.881240
  9
$LTSCALE
 40
0.044000
  9
$PDMODE
 70
    35
  9
$PDSIZE
 40
0.035200
  0
ENDSEC
  0
SECTION
  2
TABLES
  0
TABLE
  2
LTYPE
 70
     9
  0
LTYPE
  2
CONTINUOUS
 70
    64
  3
Solid line
 72
    65
 73
     0
 40
0.000000
  0
LTYPE
  2
DASHED
 70
    64
  3
__ __ __ __ __ __ __ __ __ __ __ __ __ __ __
 72
    65
 73
     2
 40
0.000330
 49
0.000220
 49
-0.000110
  0
LTYPE
  2
HIDDEN
 70
    64
  3
 _ _ _ _ _ _ _ _ _ _ _ _ _ _ _ _ _ _ _ _ _ _
 72
    65
 73
     2
 40
0.000165
 49
0.000110
 49
-0.000055
  0
LTYPE
  2
CENTER
 70
    64
  3
____ _ ____ _ ____ _ ____ _ ____ _ ____ _ ____
 72
    65
 73
     4
 40
0.000880
 49
0.000550
 49
-0.000110
 49
0.000110
 49
-0.000110
  0
LTYPE
  2
PHANTOM
 70
    64
  3
_____ _ _ _____ _ _ _____ _ _ _____ _ _ ____
 72
    65
 73
     6
 40
0.001100
 49
0.000550
 49
-0.000110
 49
0.000110
 49
-0.000110
 49
0.000110
 49
-0.000110
  0
LTYPE
  2
DOT
 70
    64
  3
...............................................
 72
    65
 73
     2
 40
0.000110
 49
0.000000
 49
-0.000110
  0
LTYPE
  2
DASHDOT
 70
    64
  3
__ . __ . __ . __ . __ . __ . __ . __ . __ . __
 72
    65
 73
     4
 40
0.000440
 49
0.000220
 49
-0.000110
 49
0.000000
 49
-0.000110
  0
LTYPE
  2
BORDER
 70
    64
  3
__ __ . __ __ . __ __ . __ __ . __ __ . __ __
 72
    65
 73
     6
 40
0.000770
 49
0.000220
 49
-0.000110
 49
0.000220
 49
-0.000110
 49
0.000000
 49
-0.000110
  0
LTYPE
  2
DIVIDE
 70
    64
  3
__ . . __ . . __ . . __ . . __ . . __ . . __
 72
    65
 73
     6
 40
0.000550
 49
0.000220
 49
-0.000110
 49
0.000000
 49
-0.000110
 49
0.000000
 49
-0.000110
  0
LTYPE
  2
DOTDOT
 70
    64
  3
 . .  . .  . .  . .  . .  . . 
 72
    65
 73
     5
 40
0.000242
 49
-0.000110
 49
0.000000
 49
-0.000110
 49
0.000000
 49
-0.000110
  0
ENDTAB
  0
TABLE
  2
STYLE
 70
     2
  0
STYLE
 70
     0
  2
SN0
 40
0.000000
 41
0.000440
 50
0.000000
 71
     0
 42
0.000000
  3
ROMAND
  0
STYLE
 70
    68
  2
SV0
 40
0.000000
 41
0.000440
 50
0.000000
 71
     0
 42
0.000000
  3
ROMAND
  0
ENDTAB
  0
TABLE
  2
LAYER
 70
     3
  0
LAYER
  2
FOREGROUND
 70
    64
 62
     7
  6
CONTINUOUS
  0
LAYER
  2
BACKGROUND
 70
    65
 62
    -7
  6
CONTINUOUS
  0
LAYER
  2
0
 70
    64
 62
     7
  6
CONTINUOUS
  0
ENDTAB
  0
ENDSEC
  0
SECTION
  2
ENTITIES
  0
POLYLINE
  8
FOREGROUND
  6
CONTINUOUS
 66
     1
 40
0.000000
 41
0.000000
  0
VERTEX
  8
FOREGROUND
  6
CONTINUOUS
 10
0.000000
 20
4.590080
  0
VERTEX
  8
FOREGROUND
  6
CONTINUOUS
 10
8.499920
 20
4.590080
  0
VERTEX
  8
FOREGROUND
  6
CONTINUOUS
 10
8.499920
 20
-6.409920
  0
VERTEX
  8
FOREGROUND
  6
CONTINUOUS
 10
0.000000
 20
-6.409920
  0
VERTEX
  8
FOREGROUND
  6
CONTINUOUS
 10
0.000000
 20
4.590080
  0
SEQEND
  8
0
  0
POLYLINE
  8
FOREGROUND
  6
CONTINUOUS
 66
     1
 40
0.000000
 41
0.000000
  0
VERTEX
  8
FOREGROUND
  6
CONTINUOUS
 10
0.000000
 20
4.590080
  0
VERTEX
  8
FOREGROUND
  6
CONTINUOUS
 10
8.499920
 20
4.590080
  0
VERTEX
  8
FOREGROUND
  6
CONTINUOUS
 10
8.499920
 20
-6.409920
  0
VERTEX
  8
FOREGROUND
  6
CONTINUOUS
 10
0.000000
 20
-6.409920
  0
VERTEX
  8
FOREGROUND
  6
CONTINUOUS
 10
0.000000
 20
4.590080
  0
SEQEND
  8
0
  0
POLYLINE
  8
0
  6
CONTINUOUS
 66
     1
 40
0.014080
 41
0.014080
  0
VERTEX
  8
0
  6
CONTINUOUS
 10
6.491760
 20
3.875520
  0
VERTEX
  8
0
  6
CONTINUOUS
 10
6.491760
 20
3.142040
  0
VERTEX
  8
0
  6
CONTINUOUS
 10
6.487800
 20
3.142480
  0
VERTEX
  8
0
  6
CONTINUOUS
 10
2.008160
 20
3.142480
  0
VERTEX
  8
0
  6
CONTINUOUS
 10
2.008160
 20
3.872440
  0
VERTEX
  8
0
  6
CONTINUOUS
 10
2.723600
 20
3.872440
  0
VERTEX
  8
0
  6
CONTINUOUS
 10
2.739880
 20
3.871560
  0
VERTEX
  8
0
  6
CONTINUOUS
 10
2.755280
 20
3.869360
  0
VERTEX
  8
0
  6
CONTINUOUS
 10
2.769360
 20
3.865840
  0
VERTEX
  8
0
  6
CONTINUOUS
 10
2.782560
 20
3.861000
  0
VERTEX
  8
0
  6
CONTINUOUS
 10
2.794440
 20
3.855280
  0
VERTEX
  8
0
  6
CONTINUOUS
 10
2.805440
 20
3.848240
  0
VERTEX
  8
0
  6
CONTINUOUS
 10
2.815120
 20
3.840760
  0
VERTEX
  8
0
  6
CONTINUOUS
 10
2.823920
 20
3.831960
  0
VERTEX
  8
0
  6
CONTINUOUS
 10
2.831400
 20
3.823160
  0
VERTEX
  8
0
  6
CONTINUOUS
 10
2.838000
 20
3.813480
  0
VERTEX
  8
0
  6
CONTINUOUS
 10
2.843720
 20
3.803360
  0
VERTEX
  8
0
  6
CONTINUOUS
 10
2.848120
 20
3.793240
  0
VERTEX
  8
0
  6
CONTINUOUS
 10
2.851640
 20
3.782680
  0
VERTEX
  8
0
  6
CONTINUOUS
 10
2.854280
 20
3.772560
  0
VERTEX
  8
0
  6
CONTINUOUS
 10
2.855600
 20
3.762000
  0
VERTEX
  8
0
  6
CONTINUOUS
 10
2.856040
 20
3.751880
  0
VERTEX
  8
0
  6
CONTINUOUS
 10
2.853840
 20
3.750560
  0
VERTEX
  8
0
  6
CONTINUOUS
 10
4.778840
 20
3.750560
  0
VERTEX
  8
0
  6
CONTINUOUS
 10
5.642560
 20
3.750560
  0
VERTEX
  8
0
  6
CONTINUOUS
 10
5.643000
 20
3.760680
  0
VERTEX
  8
0
  6
CONTINUOUS
 10
5.644320
 20
3.771240
  0
VERTEX
  8
0
  6
CONTINUOUS
 10
5.646520
 20
3.781800
  0
VERTEX
  8
0
  6
CONTINUOUS
 10
5.650040
 20
3.792360
  0
VERTEX
  8
0
  6
CONTINUOUS
 10
5.654000
 20
3.802480
  0
VERTEX
  8
0
  6
CONTINUOUS
 10
5.659280
 20
3.812600
  0
VERTEX
  8
0
  6
CONTINUOUS
 10
5.665880
 20
3.822720
  0
VERTEX
  8
0
  6
CONTINUOUS
 10
5.672920
 20
3.831960
  0
VERTEX
  8
0
  6
CONTINUOUS
 10
5.681280
 20
3.840760
  0
VERTEX
  8
0
  6
CONTINUOUS
 10
5.690960
 20
3.848680
  0
VERTEX
  8
0
  6
CONTINUOUS
 10
5.701520
 20
3.855720
  0
VERTEX
  8
0
  6
CONTINUOUS
 10
5.712960
 20
3.861440
  0
VERTEX
  8
0
  6
CONTINUOUS
 10
5.725720
 20
3.866720
  0
VERTEX
  8
0
  6
CONTINUOUS
 10
5.739800
 20
3.870240
  0
VERTEX
  8
0
  6
CONTINUOUS
 10
5.755200
 20
3.872440
  0
VERTEX
  8
0
  6
CONTINUOUS
 10
5.771480
 20
3.873320
  0
VERTEX
  8
0
  6
CONTINUOUS
 10
6.486920
 20
3.873320
  0
VERTEX
  8
0
  6
CONTINUOUS
 10
6.491760
 20
3.875520
  0
SEQEND
  8
0
  0
SOLID
  8
0
 62
    15
 10
3.007840
 20
1.834800
 11
3.008280
 21
2.559040
 12
5.796560
 22
1.834800
 13
5.797000
 23
2.559040
  0
POLYLINE
  8
0
  6
CONTINUOUS
 66
     1
 40
0.000000
 41
0.000000
  0
VERTEX
  8
0
  6
CONTINUOUS
 10
3.007840
 20
1.834800
  0
VERTEX
  8
0
  6
CONTINUOUS
 10
3.008280
 20
2.559040
  0
VERTEX
  8
0
  6
CONTINUOUS
 10
5.797000
 20
2.559040
  0
VERTEX
  8
0
  6
CONTINUOUS
 10
5.796560
 20
1.834800
  0
VERTEX
  8
0
  6
CONTINUOUS
 10
3.007840
 20
1.834800
  0
SEQEND
  8
0
  0
SOLID
  8
0
 62
    15
 10
2.162160
 20
1.956680
 11
2.162600
 21
2.681360
 12
2.877600
 22
1.956680
 13
2.878040
 23
2.681360
  0
POLYLINE
  8
0
  6
CONTINUOUS
 66
     1
 40
0.000000
 41
0.000000
  0
VERTEX
  8
0
  6
CONTINUOUS
 10
2.162160
 20
1.956680
  0
VERTEX
  8
0
  6
CONTINUOUS
 10
2.162600
 20
2.681360
  0
VERTEX
  8
0
  6
CONTINUOUS
 10
2.878040
 20
2.681360
  0
VERTEX
  8
0
  6
CONTINUOUS
 10
2.877600
 20
1.956680
  0
VERTEX
  8
0
  6
CONTINUOUS
 10
2.162160
 20
1.956680
  0
SEQEND
  8
0
  0
SOLID
  8
0
 62
    15
 10
2.877600
 20
1.956680
 11
2.878040
 21
2.681360
 12
2.909280
 22
1.953600
 13
2.909720
 23
2.678280
  0
POLYLINE
  8
0
  6
CONTINUOUS
 66
     1
 40
0.000000
 41
0.000000
  0
VERTEX
  8
0
  6
CONTINUOUS
 10
2.877600
 20
1.956680
  0
VERTEX
  8
0
  6
CONTINUOUS
 10
2.878040
 20
2.681360
  0
VERTEX
  8
0
  6
CONTINUOUS
 10
2.909720
 20
2.678280
  0
VERTEX
  8
0
  6
CONTINUOUS
 10
2.909280
 20
1.953600
  0
VERTEX
  8
0
  6
CONTINUOUS
 10
2.877600
 20
1.956680
  0
SEQEND
  8
0
  0
SOLID
  8
0
 62
    15
 10
2.909280
 20
1.953600
 11
2.909720
 21
2.678280
 12
2.936560
 22
1.945240
 13
2.937000
 23
2.669920
  0
POLYLINE
  8
0
  6
CONTINUOUS
 66
     1
 40
0.000000
 41
0.000000
  0
VERTEX
  8
0
  6
CONTINUOUS
 10
2.909280
 20
1.953600
  0
VERTEX
  8
0
  6
CONTINUOUS
 10
2.909720
 20
2.678280
  0
VERTEX
  8
0
  6
CONTINUOUS
 10
2.937000
 20
2.669920
  0
VERTEX
  8
0
  6
CONTINUOUS
 10
2.936560
 20
1.945240
  0
VERTEX
  8
0
  6
CONTINUOUS
 10
2.909280
 20
1.953600
  0
SEQEND
  8
0
  0
SOLID
  8
0
 62
    15
 10
2.936560
 20
1.945240
 11
2.937000
 21
2.669920
 12
2.959440
 22
1.932480
 13
2.959880
 23
2.657160
  0
POLYLINE
  8
0
  6
CONTINUOUS
 66
     1
 40
0.000000
 41
0.000000
  0
VERTEX
  8
0
  6
CONTINUOUS
 10
2.936560
 20
1.945240
  0
VERTEX
  8
0
  6
CONTINUOUS
 10
2.937000
 20
2.669920
  0
VERTEX
  8
0
  6
CONTINUOUS
 10
2.959880
 20
2.657160
  0
VERTEX
  8
0
  6
CONTINUOUS
 10
2.959440
 20
1.932480
  0
VERTEX
  8
0
  6
CONTINUOUS
 10
2.936560
 20
1.945240
  0
SEQEND
  8
0
  0
SOLID
  8
0
 62
    15
 10
2.959440
 20
1.932480
 11
2.959880
 21
2.657160
 12
2.977920
 22
1.916200
 13
2.978360
 23
2.640880
  0
POLYLINE
  8
0
  6
CONTINUOUS
 66
     1
 40
0.000000
 41
0.000000
  0
VERTEX
  8
0
  6
CONTINUOUS
 10
2.959440
 20
1.932480
  0
VERTEX
  8
0
  6
CONTINUOUS
 10
2.959880
 20
2.657160
  0
VERTEX
  8
0
  6
CONTINUOUS
 10
2.978360
 20
2.640880
  0
VERTEX
  8
0
  6
CONTINUOUS
 10
2.977920
 20
1.916200
  0
VERTEX
  8
0
  6
CONTINUOUS
 10
2.959440
 20
1.932480
  0
SEQEND
  8
0
  0
SOLID
  8
0
 62
    15
 10
2.977920
 20
1.916200
 11
2.978360
 21
2.640880
 12
2.992000
 22
1.897720
 13
2.992440
 23
2.622400
  0
POLYLINE
  8
0
  6
CONTINUOUS
 66
     1
 40
0.000000
 41
0.000000
  0
VERTEX
  8
0
  6
CONTINUOUS
 10
2.977920
 20
1.916200
  0
VERTEX
  8
0
  6
CONTINUOUS
 10
2.978360
 20
2.640880
  0
VERTEX
  8
0
  6
CONTINUOUS
 10
2.992440
 20
2.622400
  0
VERTEX
  8
0
  6
CONTINUOUS
 10
2.992000
 20
1.897720
  0
VERTEX
  8
0
  6
CONTINUOUS
 10
2.977920
 20
1.916200
  0
SEQEND
  8
0
  0
SOLID
  8
0
 62
    15
 10
2.992000
 20
1.897720
 11
2.992440
 21
2.622400
 12
3.002120
 22
1.877480
 13
3.002560
 23
2.601720
  0
POLYLINE
  8
0
  6
CONTINUOUS
 66
     1
 40
0.000000
 41
0.000000
  0
VERTEX
  8
0
  6
CONTINUOUS
 10
2.992000
 20
1.897720
  0
VERTEX
  8
0
  6
CONTINUOUS
 10
2.992440
 20
2.622400
  0
VERTEX
  8
0
  6
CONTINUOUS
 10
3.002560
 20
2.601720
  0
VERTEX
  8
0
  6
CONTINUOUS
 10
3.002120
 20
1.877480
  0
VERTEX
  8
0
  6
CONTINUOUS
 10
2.992000
 20
1.897720
  0
SEQEND
  8
0
  0
SOLID
  8
0
 62
    15
 10
3.002120
 20
1.877480
 11
3.002560
 21
2.601720
 12
3.008280
 22
1.856360
 13
3.008720
 23
2.581040
  0
POLYLINE
  8
0
  6
CONTINUOUS
 66
     1
 40
0.000000
 41
0.000000
  0
VERTEX
  8
0
  6
CONTINUOUS
 10
3.002120
 20
1.877480
  0
VERTEX
  8
0
  6
CONTINUOUS
 10
3.002560
 20
2.601720
  0
VERTEX
  8
0
  6
CONTINUOUS
 10
3.008720
 20
2.581040
  0
VERTEX
  8
0
  6
CONTINUOUS
 10
3.008280
 20
1.856360
  0
VERTEX
  8
0
  6
CONTINUOUS
 10
3.002120
 20
1.877480
  0
SEQEND
  8
0
  0
SOLID
  8
0
 62
    15
 10
3.008280
 20
1.856360
 11
3.008720
 21
2.581040
 12
3.010040
 22
1.836120
 13
3.010480
 23
2.560360
  0
POLYLINE
  8
0
  6
CONTINUOUS
 66
     1
 40
0.000000
 41
0.000000
  0
VERTEX
  8
0
  6
CONTINUOUS
 10
3.008280
 20
1.856360
  0
VERTEX
  8
0
  6
CONTINUOUS
 10
3.008720
 20
2.581040
  0
VERTEX
  8
0
  6
CONTINUOUS
 10
3.010480
 20
2.560360
  0
VERTEX
  8
0
  6
CONTINUOUS
 10
3.010040
 20
1.836120
  0
VERTEX
  8
0
  6
CONTINUOUS
 10
3.008280
 20
1.856360
  0
SEQEND
  8
0
  0
SOLID
  8
0
 62
    15
 10
6.645760
 20
1.959760
 11
6.646200
 21
2.684000
 12
6.645760
 22
1.226280
 13
6.646200
 23
1.950960
  0
POLYLINE
  8
0
  6
CONTINUOUS
 66
     1
 40
0.000000
 41
0.000000
  0
VERTEX
  8
0
  6
CONTINUOUS
 10
6.645760
 20
1.959760
  0
VERTEX
  8
0
  6
CONTINUOUS
 10
6.646200
 20
2.684000
  0
VERTEX
  8
0
  6
CONTINUOUS
 10
6.646200
 20
1.950960
  0
VERTEX
  8
0
  6
CONTINUOUS
 10
6.645760
 20
1.226280
  0
VERTEX
  8
0
  6
CONTINUOUS
 10
6.645760
 20
1.959760
  0
SEQEND
  8
0
  0
SOLID
  8
0
 62
    15
 10
5.796560
 20
1.834800
 11
5.797000
 21
2.559040
 12
5.798320
 22
1.855480
 13
5.798760
 23
2.579720
  0
POLYLINE
  8
0
  6
CONTINUOUS
 66
     1
 40
0.000000
 41
0.000000
  0
VERTEX
  8
0
  6
CONTINUOUS
 10
5.796560
 20
1.834800
  0
VERTEX
  8
0
  6
CONTINUOUS
 10
5.797000
 20
2.559040
  0
VERTEX
  8
0
  6
CONTINUOUS
 10
5.798760
 20
2.579720
  0
VERTEX
  8
0
  6
CONTINUOUS
 10
5.798320
 20
1.855480
  0
VERTEX
  8
0
  6
CONTINUOUS
 10
5.796560
 20
1.834800
  0
SEQEND
  8
0
  0
SOLID
  8
0
 62
    15
 10
5.798320
 20
1.855480
 11
5.798760
 21
2.579720
 12
5.804040
 22
1.876160
 13
5.804480
 23
2.600840
  0
POLYLINE
  8
0
  6
CONTINUOUS
 66
     1
 40
0.000000
 41
0.000000
  0
VERTEX
  8
0
  6
CONTINUOUS
 10
5.798320
 20
1.855480
  0
VERTEX
  8
0
  6
CONTINUOUS
 10
5.798760
 20
2.579720
  0
VERTEX
  8
0
  6
CONTINUOUS
 10
5.804480
 20
2.600840
  0
VERTEX
  8
0
  6
CONTINUOUS
 10
5.804040
 20
1.876160
  0
VERTEX
  8
0
  6
CONTINUOUS
 10
5.798320
 20
1.855480
  0
SEQEND
  8
0
  0
SOLID
  8
0
 62
    15
 10
5.804040
 20
1.876160
 11
5.804480
 21
2.600840
 12
5.813280
 22
1.896840
 13
5.813720
 23
2.621520
  0
POLYLINE
  8
0
  6
CONTINUOUS
 66
     1
 40
0.000000
 41
0.000000
  0
VERTEX
  8
0
  6
CONTINUOUS
 10
5.804040
 20
1.876160
  0
VERTEX
  8
0
  6
CONTINUOUS
 10
5.804480
 20
2.600840
  0
VERTEX
  8
0
  6
CONTINUOUS
 10
5.813720
 20
2.621520
  0
VERTEX
  8
0
  6
CONTINUOUS
 10
5.813280
 20
1.896840
  0
VERTEX
  8
0
  6
CONTINUOUS
 10
5.804040
 20
1.876160
  0
SEQEND
  8
0
  0
SOLID
  8
0
 62
    15
 10
5.813280
 20
1.896840
 11
5.813720
 21
2.621520
 12
5.826920
 22
1.916200
 13
5.827360
 23
2.640880
  0
POLYLINE
  8
0
  6
CONTINUOUS
 66
     1
 40
0.000000
 41
0.000000
  0
VERTEX
  8
0
  6
CONTINUOUS
 10
5.813280
 20
1.896840
  0
VERTEX
  8
0
  6
CONTINUOUS
 10
5.813720
 20
2.621520
  0
VERTEX
  8
0
  6
CONTINUOUS
 10
5.827360
 20
2.640880
  0
VERTEX
  8
0
  6
CONTINUOUS
 10
5.826920
 20
1.916200
  0
VERTEX
  8
0
  6
CONTINUOUS
 10
5.813280
 20
1.896840
  0
SEQEND
  8
0
  0
SOLID
  8
0
 62
    15
 10
5.826920
 20
1.916200
 11
5.827360
 21
2.640880
 12
5.844960
 22
1.932920
 13
5.845400
 23
2.657600
  0
POLYLINE
  8
0
  6
CONTINUOUS
 66
     1
 40
0.000000
 41
0.000000
  0
VERTEX
  8
0
  6
CONTINUOUS
 10
5.826920
 20
1.916200
  0
VERTEX
  8
0
  6
CONTINUOUS
 10
5.827360
 20
2.640880
  0
VERTEX
  8
0
  6
CONTINUOUS
 10
5.845400
 20
2.657600
  0
VERTEX
  8
0
  6
CONTINUOUS
 10
5.844960
 20
1.932920
  0
VERTEX
  8
0
  6
CONTINUOUS
 10
5.826920
 20
1.916200
  0
SEQEND
  8
0
  0
SOLID
  8
0
 62
    15
 10
5.844960
 20
1.932920
 11
5.845400
 21
2.657600
 12
5.866960
 22
1.946120
 13
5.867400
 23
2.670360
  0
POLYLINE
  8
0
  6
CONTINUOUS
 66
     1
 40
0.000000
 41
0.000000
  0
VERTEX
  8
0
  6
CONTINUOUS
 10
5.844960
 20
1.932920
  0
VERTEX
  8
0
  6
CONTINUOUS
 10
5.845400
 20
2.657600
  0
VERTEX
  8
0
  6
CONTINUOUS
 10
5.867400
 20
2.670360
  0
VERTEX
  8
0
  6
CONTINUOUS
 10
5.866960
 20
1.946120
  0
VERTEX
  8
0
  6
CONTINUOUS
 10
5.844960
 20
1.932920
  0
SEQEND
  8
0
  0
SOLID
  8
0
 62
    15
 10
5.866960
 20
1.946120
 11
5.867400
 21
2.670360
 12
5.893800
 22
1.954480
 13
5.894240
 23
2.679160
  0
POLYLINE
  8
0
  6
CONTINUOUS
 66
     1
 40
0.000000
 41
0.000000
  0
VERTEX
  8
0
  6
CONTINUOUS
 10
5.866960
 20
1.946120
  0
VERTEX
  8
0
  6
CONTINUOUS
 10
5.867400
 20
2.670360
  0
VERTEX
  8
0
  6
CONTINUOUS
 10
5.894240
 20
2.679160
  0
VERTEX
  8
0
  6
CONTINUOUS
 10
5.893800
 20
1.954480
  0
VERTEX
  8
0
  6
CONTINUOUS
 10
5.866960
 20
1.946120
  0
SEQEND
  8
0
  0
SOLID
  8
0
 62
    15
 10
5.893800
 20
1.954480
 11
5.894240
 21
2.679160
 12
5.925480
 22
1.957560
 13
5.925920
 23
2.682240
  0
POLYLINE
  8
0
  6
CONTINUOUS
 66
     1
 40
0.000000
 41
0.000000
  0
VERTEX
  8
0
  6
CONTINUOUS
 10
5.893800
 20
1.954480
  0
VERTEX
  8
0
  6
CONTINUOUS
 10
5.894240
 20
2.679160
  0
VERTEX
  8
0
  6
CONTINUOUS
 10
5.925920
 20
2.682240
  0
VERTEX
  8
0
  6
CONTINUOUS
 10
5.925480
 20
1.957560
  0
VERTEX
  8
0
  6
CONTINUOUS
 10
5.893800
 20
1.954480
  0
SEQEND
  8
0
  0
SOLID
  8
0
 62
    15
 10
5.925480
 20
1.957560
 11
5.925920
 21
2.682240
 12
6.640920
 22
1.957560
 13
6.641360
 23
2.682240
  0
POLYLINE
  8
0
  6
CONTINUOUS
 66
     1
 40
0.000000
 41
0.000000
  0
VERTEX
  8
0
  6
CONTINUOUS
 10
5.925480
 20
1.957560
  0
VERTEX
  8
0
  6
CONTINUOUS
 10
5.925920
 20
2.682240
  0
VERTEX
  8
0
  6
CONTINUOUS
 10
6.641360
 20
2.682240
  0
VERTEX
  8
0
  6
CONTINUOUS
 10
6.640920
 20
1.957560
  0
VERTEX
  8
0
  6
CONTINUOUS
 10
5.925480
 20
1.957560
  0
SEQEND
  8
0
  0
SOLID
  8
0
 62
    15
 10
6.640920
 20
1.957560
 11
6.641360
 21
2.682240
 12
6.645760
 22
1.959760
 13
6.646200
 23
2.684000
  0
POLYLINE
  8
0
  6
CONTINUOUS
 66
     1
 40
0.000000
 41
0.000000
  0
VERTEX
  8
0
  6
CONTINUOUS
 10
6.640920
 20
1.957560
  0
VERTEX
  8
0
  6
CONTINUOUS
 10
6.641360
 20
2.682240
  0
VERTEX
  8
0
  6
CONTINUOUS
 10
6.646200
 20
2.684000
  0
VERTEX
  8
0
  6
CONTINUOUS
 10
6.645760
 20
1.959760
  0
VERTEX
  8
0
  6
CONTINUOUS
 10
6.640920
 20
1.957560
  0
SEQEND
  8
0
  0
POLYLINE
  8
0
  6
CONTINUOUS
 66
     1
 40
0.000000
 41
0.000000
  0
VERTEX
  8
0
  6
CONTINUOUS
 10
6.645760
 20
1.959760
  0
VERTEX
  8
0
  6
CONTINUOUS
 10
6.645760
 20
1.226280
  0
VERTEX
  8
0
  6
CONTINUOUS
 10
6.641800
 20
1.226720
  0
VERTEX
  8
0
  6
CONTINUOUS
 10
2.162160
 20
1.226720
  0
VERTEX
  8
0
  6
CONTINUOUS
 10
2.162160
 20
1.956680
  0
VERTEX
  8
0
  6
CONTINUOUS
 10
2.877600
 20
1.956680
  0
VERTEX
  8
0
  6
CONTINUOUS
 10
2.909280
 20
1.953600
  0
VERTEX
  8
0
  6
CONTINUOUS
 10
2.936560
 20
1.945240
  0
VERTEX
  8
0
  6
CONTINUOUS
 10
2.959440
 20
1.932480
  0
VERTEX
  8
0
  6
CONTINUOUS
 10
2.977920
 20
1.916200
  0
VERTEX
  8
0
  6
CONTINUOUS
 10
2.992000
 20
1.897720
  0
VERTEX
  8
0
  6
CONTINUOUS
 10
3.002120
 20
1.877480
  0
VERTEX
  8
0
  6
CONTINUOUS
 10
3.008280
 20
1.856360
  0
VERTEX
  8
0
  6
CONTINUOUS
 10
3.010040
 20
1.836120
  0
VERTEX
  8
0
  6
CONTINUOUS
 10
3.007840
 20
1.834800
  0
VERTEX
  8
0
  6
CONTINUOUS
 10
5.796560
 20
1.834800
  0
VERTEX
  8
0
  6
CONTINUOUS
 10
5.798320
 20
1.855480
  0
VERTEX
  8
0
  6
CONTINUOUS
 10
5.804040
 20
1.876160
  0
VERTEX
  8
0
  6
CONTINUOUS
 10
5.813280
 20
1.896840
  0
VERTEX
  8
0
  6
CONTINUOUS
 10
5.826920
 20
1.916200
  0
VERTEX
  8
0
  6
CONTINUOUS
 10
5.844960
 20
1.932920
  0
VERTEX
  8
0
  6
CONTINUOUS
 10
5.866960
 20
1.946120
  0
VERTEX
  8
0
  6
CONTINUOUS
 10
5.893800
 20
1.954480
  0
VERTEX
  8
0
  6
CONTINUOUS
 10
5.925480
 20
1.957560
  0
VERTEX
  8
0
  6
CONTINUOUS
 10
6.640920
 20
1.957560
  0
VERTEX
  8
0
  6
CONTINUOUS
 10
6.645760
 20
1.959760
  0
SEQEND
  8
0
  0
TEXT
  8
0
 10
4.109600
 20
0.944240
 40
0.137990
  1
BA  349
 41
1.000000
  7
SN0
 71
     0
 72
     5
 11
4.700102
 21
0.944240
  0
TEXT
  8
0
 10
3.953840
 20
0.752400
 40
0.137990
  1
3/4" x 4-1/2"
 41
1.000000
  7
SN0
 71
     0
 72
     5
 11
4.854692
 21
0.752400
  0
ENDSEC
  0
EOF
