  0
SECTION
  2
HEADER
  9
$ACADVER
  1
AC1006
  9
$EXTMIN
 10
1.298880
 20
0.935000
  9
$EXTMAX
 10
7.333480
 20
4.162400
  9
$LTSCALE
 40
0.044000
  9
$PDMODE
 70
    35
  9
$PDSIZE
 40
0.035200
  0
ENDSEC
  0
SECTION
  2
TABLES
  0
TABLE
  2
LTYPE
 70
     9
  0
LTYPE
  2
CONTINUOUS
 70
    64
  3
Solid line
 72
    65
 73
     0
 40
0.000000
  0
LTYPE
  2
DASHED
 70
    64
  3
__ __ __ __ __ __ __ __ __ __ __ __ __ __ __
 72
    65
 73
     2
 40
0.000330
 49
0.000220
 49
-0.000110
  0
LTYPE
  2
HIDDEN
 70
    64
  3
 _ _ _ _ _ _ _ _ _ _ _ _ _ _ _ _ _ _ _ _ _ _
 72
    65
 73
     2
 40
0.000165
 49
0.000110
 49
-0.000055
  0
LTYPE
  2
CENTER
 70
    64
  3
____ _ ____ _ ____ _ ____ _ ____ _ ____ _ ____
 72
    65
 73
     4
 40
0.000880
 49
0.000550
 49
-0.000110
 49
0.000110
 49
-0.000110
  0
LTYPE
  2
PHANTOM
 70
    64
  3
_____ _ _ _____ _ _ _____ _ _ _____ _ _ ____
 72
    65
 73
     6
 40
0.001100
 49
0.000550
 49
-0.000110
 49
0.000110
 49
-0.000110
 49
0.000110
 49
-0.000110
  0
LTYPE
  2
DOT
 70
    64
  3
...............................................
 72
    65
 73
     2
 40
0.000110
 49
0.000000
 49
-0.000110
  0
LTYPE
  2
DASHDOT
 70
    64
  3
__ . __ . __ . __ . __ . __ . __ . __ . __ . __
 72
    65
 73
     4
 40
0.000440
 49
0.000220
 49
-0.000110
 49
0.000000
 49
-0.000110
  0
LTYPE
  2
BORDER
 70
    64
  3
__ __ . __ __ . __ __ . __ __ . __ __ . __ __
 72
    65
 73
     6
 40
0.000770
 49
0.000220
 49
-0.000110
 49
0.000220
 49
-0.000110
 49
0.000000
 49
-0.000110
  0
LTYPE
  2
DIVIDE
 70
    64
  3
__ . . __ . . __ . . __ . . __ . . __ . . __
 72
    65
 73
     6
 40
0.000550
 49
0.000220
 49
-0.000110
 49
0.000000
 49
-0.000110
 49
0.000000
 49
-0.000110
  0
LTYPE
  2
DOTDOT
 70
    64
  3
 . .  . .  . .  . .  . .  . . 
 72
    65
 73
     5
 40
0.000242
 49
-0.000110
 49
0.000000
 49
-0.000110
 49
0.000000
 49
-0.000110
  0
ENDTAB
  0
TABLE
  2
STYLE
 70
     2
  0
STYLE
 70
     0
  2
SN0
 40
0.000000
 41
0.000440
 50
0.000000
 71
     0
 42
0.000000
  3
ROMAND
  0
STYLE
 70
    68
  2
SV0
 40
0.000000
 41
0.000440
 50
0.000000
 71
     0
 42
0.000000
  3
ROMAND
  0
ENDTAB
  0
TABLE
  2
LAYER
 70
     3
  0
LAYER
  2
FOREGROUND
 70
    64
 62
     7
  6
CONTINUOUS
  0
LAYER
  2
BACKGROUND
 70
    65
 62
    -7
  6
CONTINUOUS
  0
LAYER
  2
0
 70
    64
 62
     7
  6
CONTINUOUS
  0
ENDTAB
  0
ENDSEC
  0
SECTION
  2
ENTITIES
  0
POLYLINE
  8
FOREGROUND
  6
CONTINUOUS
 66
     1
 40
0.000000
 41
0.000000
  0
VERTEX
  8
FOREGROUND
  6
CONTINUOUS
 10
0.000000
 20
5.097400
  0
VERTEX
  8
FOREGROUND
  6
CONTINUOUS
 10
8.499920
 20
5.097400
  0
VERTEX
  8
FOREGROUND
  6
CONTINUOUS
 10
8.499920
 20
-5.902600
  0
VERTEX
  8
FOREGROUND
  6
CONTINUOUS
 10
0.000000
 20
-5.902600
  0
VERTEX
  8
FOREGROUND
  6
CONTINUOUS
 10
0.000000
 20
5.097400
  0
SEQEND
  8
0
  0
POLYLINE
  8
FOREGROUND
  6
CONTINUOUS
 66
     1
 40
0.000000
 41
0.000000
  0
VERTEX
  8
FOREGROUND
  6
CONTINUOUS
 10
0.000000
 20
5.097400
  0
VERTEX
  8
FOREGROUND
  6
CONTINUOUS
 10
8.499920
 20
5.097400
  0
VERTEX
  8
FOREGROUND
  6
CONTINUOUS
 10
8.499920
 20
-5.902600
  0
VERTEX
  8
FOREGROUND
  6
CONTINUOUS
 10
0.000000
 20
-5.902600
  0
VERTEX
  8
FOREGROUND
  6
CONTINUOUS
 10
0.000000
 20
5.097400
  0
SEQEND
  8
0
  0
POLYLINE
  8
0
  6
CONTINUOUS
 66
     1
 40
0.014080
 41
0.014080
  0
VERTEX
  8
0
  6
CONTINUOUS
 10
1.311640
 20
4.154920
  0
VERTEX
  8
0
  6
CONTINUOUS
 10
1.820720
 20
4.154920
  0
VERTEX
  8
0
  6
CONTINUOUS
 10
1.901680
 20
4.013240
  0
VERTEX
  8
0
  6
CONTINUOUS
 10
1.950080
 20
4.013240
  0
VERTEX
  8
0
  6
CONTINUOUS
 10
1.971200
 20
4.051080
  0
VERTEX
  8
0
  6
CONTINUOUS
 10
1.993200
 20
4.081440
  0
VERTEX
  8
0
  6
CONTINUOUS
 10
2.016080
 20
4.105200
  0
VERTEX
  8
0
  6
CONTINUOUS
 10
2.039400
 20
4.122360
  0
VERTEX
  8
0
  6
CONTINUOUS
 10
2.063160
 20
4.133360
  0
VERTEX
  8
0
  6
CONTINUOUS
 10
2.075040
 20
4.137320
  0
VERTEX
  8
0
  6
CONTINUOUS
 10
2.098800
 20
4.140840
  0
VERTEX
  8
0
  6
CONTINUOUS
 10
2.122560
 20
4.139960
  0
VERTEX
  8
0
  6
CONTINUOUS
 10
2.145440
 20
4.135560
  0
VERTEX
  8
0
  6
CONTINUOUS
 10
2.178880
 20
4.121920
  0
VERTEX
  8
0
  6
CONTINUOUS
 10
2.200000
 20
4.110040
  0
VERTEX
  8
0
  6
CONTINUOUS
 10
2.219800
 20
4.095960
  0
VERTEX
  8
0
  6
CONTINUOUS
 10
2.254560
 20
4.063400
  0
VERTEX
  8
0
  6
CONTINUOUS
 10
2.281840
 20
4.029520
  0
VERTEX
  8
0
  6
CONTINUOUS
 10
2.308680
 20
3.996960
  0
VERTEX
  8
0
  6
CONTINUOUS
 10
2.343440
 20
3.967040
  0
VERTEX
  8
0
  6
CONTINUOUS
 10
2.385240
 20
3.940640
  0
VERTEX
  8
0
  6
CONTINUOUS
 10
2.432320
 20
3.917760
  0
VERTEX
  8
0
  6
CONTINUOUS
 10
2.484680
 20
3.900600
  0
VERTEX
  8
0
  6
CONTINUOUS
 10
2.512400
 20
3.894000
  0
VERTEX
  8
0
  6
CONTINUOUS
 10
2.541000
 20
3.889160
  0
VERTEX
  8
0
  6
CONTINUOUS
 10
2.570480
 20
3.886080
  0
VERTEX
  8
0
  6
CONTINUOUS
 10
2.600400
 20
3.884760
  0
VERTEX
  8
0
  6
CONTINUOUS
 10
2.630760
 20
3.885640
  0
VERTEX
  8
0
  6
CONTINUOUS
 10
2.661560
 20
3.888280
  0
VERTEX
  8
0
  6
CONTINUOUS
 10
2.661560
 20
3.763320
  0
VERTEX
  8
0
  6
CONTINUOUS
 10
7.308400
 20
3.763320
  0
VERTEX
  8
0
  6
CONTINUOUS
 10
7.308400
 20
3.417920
  0
VERTEX
  8
0
  6
CONTINUOUS
 10
1.306360
 20
3.417920
  0
VERTEX
  8
0
  6
CONTINUOUS
 10
1.306360
 20
4.154920
  0
SEQEND
  8
0
  0
SOLID
  8
0
 62
    15
 10
2.237840
 20
2.109360
 11
2.244440
 21
2.872320
 12
2.272600
 22
2.077240
 13
2.279200
 23
2.840200
  0
POLYLINE
  8
0
  6
CONTINUOUS
 66
     1
 40
0.000000
 41
0.000000
  0
VERTEX
  8
0
  6
CONTINUOUS
 10
2.237840
 20
2.109360
  0
VERTEX
  8
0
  6
CONTINUOUS
 10
2.244440
 20
2.872320
  0
VERTEX
  8
0
  6
CONTINUOUS
 10
2.279200
 20
2.840200
  0
VERTEX
  8
0
  6
CONTINUOUS
 10
2.272600
 20
2.077240
  0
VERTEX
  8
0
  6
CONTINUOUS
 10
2.237840
 20
2.109360
  0
SEQEND
  8
0
  0
SOLID
  8
0
 62
    15
 10
1.838760
 20
2.168320
 11
1.845800
 21
2.931280
 12
1.919720
 22
2.027080
 13
1.926760
 23
2.790040
  0
POLYLINE
  8
0
  6
CONTINUOUS
 66
     1
 40
0.000000
 41
0.000000
  0
VERTEX
  8
0
  6
CONTINUOUS
 10
1.838760
 20
2.168320
  0
VERTEX
  8
0
  6
CONTINUOUS
 10
1.845800
 20
2.931280
  0
VERTEX
  8
0
  6
CONTINUOUS
 10
1.926760
 20
2.790040
  0
VERTEX
  8
0
  6
CONTINUOUS
 10
1.919720
 20
2.027080
  0
VERTEX
  8
0
  6
CONTINUOUS
 10
1.838760
 20
2.168320
  0
SEQEND
  8
0
  0
SOLID
  8
0
 62
    15
 10
1.919720
 20
2.027080
 11
1.926760
 21
2.790040
 12
1.968120
 22
2.027080
 13
1.975160
 23
2.790040
  0
POLYLINE
  8
0
  6
CONTINUOUS
 66
     1
 40
0.000000
 41
0.000000
  0
VERTEX
  8
0
  6
CONTINUOUS
 10
1.919720
 20
2.027080
  0
VERTEX
  8
0
  6
CONTINUOUS
 10
1.926760
 20
2.790040
  0
VERTEX
  8
0
  6
CONTINUOUS
 10
1.975160
 20
2.790040
  0
VERTEX
  8
0
  6
CONTINUOUS
 10
1.968120
 20
2.027080
  0
VERTEX
  8
0
  6
CONTINUOUS
 10
1.919720
 20
2.027080
  0
SEQEND
  8
0
  0
SOLID
  8
0
 62
    15
 10
1.968120
 20
2.027080
 11
1.975160
 21
2.790040
 12
1.989240
 22
2.064920
 13
1.996280
 23
2.827880
  0
POLYLINE
  8
0
  6
CONTINUOUS
 66
     1
 40
0.000000
 41
0.000000
  0
VERTEX
  8
0
  6
CONTINUOUS
 10
1.968120
 20
2.027080
  0
VERTEX
  8
0
  6
CONTINUOUS
 10
1.975160
 20
2.790040
  0
VERTEX
  8
0
  6
CONTINUOUS
 10
1.996280
 20
2.827880
  0
VERTEX
  8
0
  6
CONTINUOUS
 10
1.989240
 20
2.064920
  0
VERTEX
  8
0
  6
CONTINUOUS
 10
1.968120
 20
2.027080
  0
SEQEND
  8
0
  0
SOLID
  8
0
 62
    15
 10
1.989240
 20
2.064920
 11
1.996280
 21
2.827880
 12
2.011240
 22
2.095280
 13
2.018280
 23
2.858240
  0
POLYLINE
  8
0
  6
CONTINUOUS
 66
     1
 40
0.000000
 41
0.000000
  0
VERTEX
  8
0
  6
CONTINUOUS
 10
1.989240
 20
2.064920
  0
VERTEX
  8
0
  6
CONTINUOUS
 10
1.996280
 20
2.827880
  0
VERTEX
  8
0
  6
CONTINUOUS
 10
2.018280
 20
2.858240
  0
VERTEX
  8
0
  6
CONTINUOUS
 10
2.011240
 20
2.095280
  0
VERTEX
  8
0
  6
CONTINUOUS
 10
1.989240
 20
2.064920
  0
SEQEND
  8
0
  0
SOLID
  8
0
 62
    15
 10
2.011240
 20
2.095280
 11
2.018280
 21
2.858240
 12
2.034120
 22
2.118600
 13
2.041160
 23
2.881560
  0
POLYLINE
  8
0
  6
CONTINUOUS
 66
     1
 40
0.000000
 41
0.000000
  0
VERTEX
  8
0
  6
CONTINUOUS
 10
2.011240
 20
2.095280
  0
VERTEX
  8
0
  6
CONTINUOUS
 10
2.018280
 20
2.858240
  0
VERTEX
  8
0
  6
CONTINUOUS
 10
2.041160
 20
2.881560
  0
VERTEX
  8
0
  6
CONTINUOUS
 10
2.034120
 20
2.118600
  0
VERTEX
  8
0
  6
CONTINUOUS
 10
2.011240
 20
2.095280
  0
SEQEND
  8
0
  0
SOLID
  8
0
 62
    15
 10
2.034120
 20
2.118600
 11
2.041160
 21
2.881560
 12
2.057440
 22
2.135760
 13
2.064480
 23
2.898720
  0
POLYLINE
  8
0
  6
CONTINUOUS
 66
     1
 40
0.000000
 41
0.000000
  0
VERTEX
  8
0
  6
CONTINUOUS
 10
2.034120
 20
2.118600
  0
VERTEX
  8
0
  6
CONTINUOUS
 10
2.041160
 20
2.881560
  0
VERTEX
  8
0
  6
CONTINUOUS
 10
2.064480
 20
2.898720
  0
VERTEX
  8
0
  6
CONTINUOUS
 10
2.057440
 20
2.135760
  0
VERTEX
  8
0
  6
CONTINUOUS
 10
2.034120
 20
2.118600
  0
SEQEND
  8
0
  0
SOLID
  8
0
 62
    15
 10
2.057440
 20
2.135760
 11
2.064480
 21
2.898720
 12
2.081200
 22
2.147200
 13
2.088240
 23
2.910160
  0
POLYLINE
  8
0
  6
CONTINUOUS
 66
     1
 40
0.000000
 41
0.000000
  0
VERTEX
  8
0
  6
CONTINUOUS
 10
2.057440
 20
2.135760
  0
VERTEX
  8
0
  6
CONTINUOUS
 10
2.064480
 20
2.898720
  0
VERTEX
  8
0
  6
CONTINUOUS
 10
2.088240
 20
2.910160
  0
VERTEX
  8
0
  6
CONTINUOUS
 10
2.081200
 20
2.147200
  0
VERTEX
  8
0
  6
CONTINUOUS
 10
2.057440
 20
2.135760
  0
SEQEND
  8
0
  0
SOLID
  8
0
 62
    15
 10
2.081200
 20
2.147200
 11
2.088240
 21
2.910160
 12
2.104960
 22
2.153360
 13
2.112000
 23
2.916320
  0
POLYLINE
  8
0
  6
CONTINUOUS
 66
     1
 40
0.000000
 41
0.000000
  0
VERTEX
  8
0
  6
CONTINUOUS
 10
2.081200
 20
2.147200
  0
VERTEX
  8
0
  6
CONTINUOUS
 10
2.088240
 20
2.910160
  0
VERTEX
  8
0
  6
CONTINUOUS
 10
2.112000
 20
2.916320
  0
VERTEX
  8
0
  6
CONTINUOUS
 10
2.104960
 20
2.153360
  0
VERTEX
  8
0
  6
CONTINUOUS
 10
2.081200
 20
2.147200
  0
SEQEND
  8
0
  0
SOLID
  8
0
 62
    15
 10
2.104960
 20
2.153360
 11
2.112000
 21
2.916320
 12
2.128720
 22
2.154680
 13
2.135760
 23
2.917640
  0
POLYLINE
  8
0
  6
CONTINUOUS
 66
     1
 40
0.000000
 41
0.000000
  0
VERTEX
  8
0
  6
CONTINUOUS
 10
2.104960
 20
2.153360
  0
VERTEX
  8
0
  6
CONTINUOUS
 10
2.112000
 20
2.916320
  0
VERTEX
  8
0
  6
CONTINUOUS
 10
2.135760
 20
2.917640
  0
VERTEX
  8
0
  6
CONTINUOUS
 10
2.128720
 20
2.154680
  0
VERTEX
  8
0
  6
CONTINUOUS
 10
2.104960
 20
2.153360
  0
SEQEND
  8
0
  0
SOLID
  8
0
 62
    15
 10
2.128720
 20
2.154680
 11
2.135760
 21
2.917640
 12
2.152040
 22
2.151600
 13
2.159080
 23
2.914560
  0
POLYLINE
  8
0
  6
CONTINUOUS
 66
     1
 40
0.000000
 41
0.000000
  0
VERTEX
  8
0
  6
CONTINUOUS
 10
2.128720
 20
2.154680
  0
VERTEX
  8
0
  6
CONTINUOUS
 10
2.135760
 20
2.917640
  0
VERTEX
  8
0
  6
CONTINUOUS
 10
2.159080
 20
2.914560
  0
VERTEX
  8
0
  6
CONTINUOUS
 10
2.152040
 20
2.151600
  0
VERTEX
  8
0
  6
CONTINUOUS
 10
2.128720
 20
2.154680
  0
SEQEND
  8
0
  0
SOLID
  8
0
 62
    15
 10
2.152040
 20
2.151600
 11
2.159080
 21
2.914560
 12
2.196920
 22
2.135760
 13
2.203960
 23
2.898720
  0
POLYLINE
  8
0
  6
CONTINUOUS
 66
     1
 40
0.000000
 41
0.000000
  0
VERTEX
  8
0
  6
CONTINUOUS
 10
2.152040
 20
2.151600
  0
VERTEX
  8
0
  6
CONTINUOUS
 10
2.159080
 20
2.914560
  0
VERTEX
  8
0
  6
CONTINUOUS
 10
2.203960
 20
2.898720
  0
VERTEX
  8
0
  6
CONTINUOUS
 10
2.196920
 20
2.135760
  0
VERTEX
  8
0
  6
CONTINUOUS
 10
2.152040
 20
2.151600
  0
SEQEND
  8
0
  0
SOLID
  8
0
 62
    15
 10
2.196920
 20
2.135760
 11
2.203960
 21
2.898720
 12
2.237840
 22
2.109360
 13
2.244440
 23
2.872320
  0
POLYLINE
  8
0
  6
CONTINUOUS
 66
     1
 40
0.000000
 41
0.000000
  0
VERTEX
  8
0
  6
CONTINUOUS
 10
2.196920
 20
2.135760
  0
VERTEX
  8
0
  6
CONTINUOUS
 10
2.203960
 20
2.898720
  0
VERTEX
  8
0
  6
CONTINUOUS
 10
2.244440
 20
2.872320
  0
VERTEX
  8
0
  6
CONTINUOUS
 10
2.237840
 20
2.109360
  0
VERTEX
  8
0
  6
CONTINUOUS
 10
2.196920
 20
2.135760
  0
SEQEND
  8
0
  0
SOLID
  8
0
 62
    15
 10
1.329680
 20
2.168320
 11
1.336280
 21
2.931280
 12
1.838760
 22
2.168320
 13
1.845800
 23
2.931280
  0
POLYLINE
  8
0
  6
CONTINUOUS
 66
     1
 40
0.000000
 41
0.000000
  0
VERTEX
  8
0
  6
CONTINUOUS
 10
1.329680
 20
2.168320
  0
VERTEX
  8
0
  6
CONTINUOUS
 10
1.336280
 20
2.931280
  0
VERTEX
  8
0
  6
CONTINUOUS
 10
1.845800
 20
2.931280
  0
VERTEX
  8
0
  6
CONTINUOUS
 10
1.838760
 20
2.168320
  0
VERTEX
  8
0
  6
CONTINUOUS
 10
1.329680
 20
2.168320
  0
SEQEND
  8
0
  0
SOLID
  8
0
 62
    15
 10
2.272600
 20
2.077240
 11
2.279200
 21
2.840200
 12
2.299880
 22
2.043360
 13
2.306480
 23
2.805880
  0
POLYLINE
  8
0
  6
CONTINUOUS
 66
     1
 40
0.000000
 41
0.000000
  0
VERTEX
  8
0
  6
CONTINUOUS
 10
2.272600
 20
2.077240
  0
VERTEX
  8
0
  6
CONTINUOUS
 10
2.279200
 20
2.840200
  0
VERTEX
  8
0
  6
CONTINUOUS
 10
2.306480
 20
2.805880
  0
VERTEX
  8
0
  6
CONTINUOUS
 10
2.299880
 20
2.043360
  0
VERTEX
  8
0
  6
CONTINUOUS
 10
2.272600
 20
2.077240
  0
SEQEND
  8
0
  0
SOLID
  8
0
 62
    15
 10
2.299880
 20
2.043360
 11
2.306480
 21
2.805880
 12
2.326720
 22
2.010800
 13
2.333320
 23
2.773760
  0
POLYLINE
  8
0
  6
CONTINUOUS
 66
     1
 40
0.000000
 41
0.000000
  0
VERTEX
  8
0
  6
CONTINUOUS
 10
2.299880
 20
2.043360
  0
VERTEX
  8
0
  6
CONTINUOUS
 10
2.306480
 20
2.805880
  0
VERTEX
  8
0
  6
CONTINUOUS
 10
2.333320
 20
2.773760
  0
VERTEX
  8
0
  6
CONTINUOUS
 10
2.326720
 20
2.010800
  0
VERTEX
  8
0
  6
CONTINUOUS
 10
2.299880
 20
2.043360
  0
SEQEND
  8
0
  0
SOLID
  8
0
 62
    15
 10
2.326720
 20
2.010800
 11
2.333320
 21
2.773760
 12
2.361480
 22
1.980880
 13
2.368080
 23
2.743840
  0
POLYLINE
  8
0
  6
CONTINUOUS
 66
     1
 40
0.000000
 41
0.000000
  0
VERTEX
  8
0
  6
CONTINUOUS
 10
2.326720
 20
2.010800
  0
VERTEX
  8
0
  6
CONTINUOUS
 10
2.333320
 20
2.773760
  0
VERTEX
  8
0
  6
CONTINUOUS
 10
2.368080
 20
2.743840
  0
VERTEX
  8
0
  6
CONTINUOUS
 10
2.361480
 20
1.980880
  0
VERTEX
  8
0
  6
CONTINUOUS
 10
2.326720
 20
2.010800
  0
SEQEND
  8
0
  0
SOLID
  8
0
 62
    15
 10
2.361480
 20
1.980880
 11
2.368080
 21
2.743840
 12
2.402840
 22
1.954040
 13
2.409880
 23
2.717000
  0
POLYLINE
  8
0
  6
CONTINUOUS
 66
     1
 40
0.000000
 41
0.000000
  0
VERTEX
  8
0
  6
CONTINUOUS
 10
2.361480
 20
1.980880
  0
VERTEX
  8
0
  6
CONTINUOUS
 10
2.368080
 20
2.743840
  0
VERTEX
  8
0
  6
CONTINUOUS
 10
2.409880
 20
2.717000
  0
VERTEX
  8
0
  6
CONTINUOUS
 10
2.402840
 20
1.954040
  0
VERTEX
  8
0
  6
CONTINUOUS
 10
2.361480
 20
1.980880
  0
SEQEND
  8
0
  0
SOLID
  8
0
 62
    15
 10
2.402840
 20
1.954040
 11
2.409880
 21
2.717000
 12
2.450360
 22
1.931600
 13
2.456960
 23
2.694560
  0
POLYLINE
  8
0
  6
CONTINUOUS
 66
     1
 40
0.000000
 41
0.000000
  0
VERTEX
  8
0
  6
CONTINUOUS
 10
2.402840
 20
1.954040
  0
VERTEX
  8
0
  6
CONTINUOUS
 10
2.409880
 20
2.717000
  0
VERTEX
  8
0
  6
CONTINUOUS
 10
2.456960
 20
2.694560
  0
VERTEX
  8
0
  6
CONTINUOUS
 10
2.450360
 20
1.931600
  0
VERTEX
  8
0
  6
CONTINUOUS
 10
2.402840
 20
1.954040
  0
SEQEND
  8
0
  0
SOLID
  8
0
 62
    15
 10
2.450360
 20
1.931600
 11
2.456960
 21
2.694560
 12
2.502720
 22
1.914000
 13
2.509320
 23
2.676960
  0
POLYLINE
  8
0
  6
CONTINUOUS
 66
     1
 40
0.000000
 41
0.000000
  0
VERTEX
  8
0
  6
CONTINUOUS
 10
2.450360
 20
1.931600
  0
VERTEX
  8
0
  6
CONTINUOUS
 10
2.456960
 20
2.694560
  0
VERTEX
  8
0
  6
CONTINUOUS
 10
2.509320
 20
2.676960
  0
VERTEX
  8
0
  6
CONTINUOUS
 10
2.502720
 20
1.914000
  0
VERTEX
  8
0
  6
CONTINUOUS
 10
2.450360
 20
1.931600
  0
SEQEND
  8
0
  0
SOLID
  8
0
 62
    15
 10
2.502720
 20
1.914000
 11
2.509320
 21
2.676960
 12
2.559040
 22
1.903000
 13
2.565640
 23
2.665520
  0
POLYLINE
  8
0
  6
CONTINUOUS
 66
     1
 40
0.000000
 41
0.000000
  0
VERTEX
  8
0
  6
CONTINUOUS
 10
2.502720
 20
1.914000
  0
VERTEX
  8
0
  6
CONTINUOUS
 10
2.509320
 20
2.676960
  0
VERTEX
  8
0
  6
CONTINUOUS
 10
2.565640
 20
2.665520
  0
VERTEX
  8
0
  6
CONTINUOUS
 10
2.559040
 20
1.903000
  0
VERTEX
  8
0
  6
CONTINUOUS
 10
2.502720
 20
1.914000
  0
SEQEND
  8
0
  0
SOLID
  8
0
 62
    15
 10
2.559040
 20
1.903000
 11
2.565640
 21
2.665520
 12
2.618000
 22
1.898160
 13
2.625040
 23
2.661120
  0
POLYLINE
  8
0
  6
CONTINUOUS
 66
     1
 40
0.000000
 41
0.000000
  0
VERTEX
  8
0
  6
CONTINUOUS
 10
2.559040
 20
1.903000
  0
VERTEX
  8
0
  6
CONTINUOUS
 10
2.565640
 20
2.665520
  0
VERTEX
  8
0
  6
CONTINUOUS
 10
2.625040
 20
2.661120
  0
VERTEX
  8
0
  6
CONTINUOUS
 10
2.618000
 20
1.898160
  0
VERTEX
  8
0
  6
CONTINUOUS
 10
2.559040
 20
1.903000
  0
SEQEND
  8
0
  0
SOLID
  8
0
 62
    15
 10
2.618000
 20
1.898160
 11
2.625040
 21
2.661120
 12
2.679600
 22
1.901680
 13
2.686640
 23
2.664640
  0
POLYLINE
  8
0
  6
CONTINUOUS
 66
     1
 40
0.000000
 41
0.000000
  0
VERTEX
  8
0
  6
CONTINUOUS
 10
2.618000
 20
1.898160
  0
VERTEX
  8
0
  6
CONTINUOUS
 10
2.625040
 20
2.661120
  0
VERTEX
  8
0
  6
CONTINUOUS
 10
2.686640
 20
2.664640
  0
VERTEX
  8
0
  6
CONTINUOUS
 10
2.679600
 20
1.901680
  0
VERTEX
  8
0
  6
CONTINUOUS
 10
2.618000
 20
1.898160
  0
SEQEND
  8
0
  0
SOLID
  8
0
 62
    15
 10
2.679600
 20
1.901680
 11
2.686640
 21
2.664640
 12
2.679600
 22
1.776720
 13
2.686640
 23
2.539680
  0
POLYLINE
  8
0
  6
CONTINUOUS
 66
     1
 40
0.000000
 41
0.000000
  0
VERTEX
  8
0
  6
CONTINUOUS
 10
2.679600
 20
1.901680
  0
VERTEX
  8
0
  6
CONTINUOUS
 10
2.686640
 20
2.664640
  0
VERTEX
  8
0
  6
CONTINUOUS
 10
2.686640
 20
2.539680
  0
VERTEX
  8
0
  6
CONTINUOUS
 10
2.679600
 20
1.776720
  0
VERTEX
  8
0
  6
CONTINUOUS
 10
2.679600
 20
1.901680
  0
SEQEND
  8
0
  0
SOLID
  8
0
 62
    15
 10
7.326440
 20
1.776720
 11
7.333040
 21
2.539680
 12
7.326440
 22
1.431320
 13
7.333040
 23
2.194280
  0
POLYLINE
  8
0
  6
CONTINUOUS
 66
     1
 40
0.000000
 41
0.000000
  0
VERTEX
  8
0
  6
CONTINUOUS
 10
7.326440
 20
1.776720
  0
VERTEX
  8
0
  6
CONTINUOUS
 10
7.333040
 20
2.539680
  0
VERTEX
  8
0
  6
CONTINUOUS
 10
7.333040
 20
2.194280
  0
VERTEX
  8
0
  6
CONTINUOUS
 10
7.326440
 20
1.431320
  0
VERTEX
  8
0
  6
CONTINUOUS
 10
7.326440
 20
1.776720
  0
SEQEND
  8
0
  0
SOLID
  8
0
 62
    15
 10
2.679600
 20
1.776720
 11
2.686640
 21
2.539680
 12
7.326440
 22
1.776720
 13
7.333040
 23
2.539680
  0
POLYLINE
  8
0
  6
CONTINUOUS
 66
     1
 40
0.000000
 41
0.000000
  0
VERTEX
  8
0
  6
CONTINUOUS
 10
2.679600
 20
1.776720
  0
VERTEX
  8
0
  6
CONTINUOUS
 10
2.686640
 20
2.539680
  0
VERTEX
  8
0
  6
CONTINUOUS
 10
7.333040
 20
2.539680
  0
VERTEX
  8
0
  6
CONTINUOUS
 10
7.326440
 20
1.776720
  0
VERTEX
  8
0
  6
CONTINUOUS
 10
2.679600
 20
1.776720
  0
SEQEND
  8
0
  0
SOLID
  8
0
 62
    15
 10
1.324400
 20
2.168320
 11
1.331000
 21
2.931280
 12
1.329680
 22
2.168320
 13
1.336280
 23
2.931280
  0
POLYLINE
  8
0
  6
CONTINUOUS
 66
     1
 40
0.000000
 41
0.000000
  0
VERTEX
  8
0
  6
CONTINUOUS
 10
1.324400
 20
2.168320
  0
VERTEX
  8
0
  6
CONTINUOUS
 10
1.331000
 20
2.931280
  0
VERTEX
  8
0
  6
CONTINUOUS
 10
1.336280
 20
2.931280
  0
VERTEX
  8
0
  6
CONTINUOUS
 10
1.329680
 20
2.168320
  0
VERTEX
  8
0
  6
CONTINUOUS
 10
1.324400
 20
2.168320
  0
SEQEND
  8
0
  0
POLYLINE
  8
0
  6
CONTINUOUS
 66
     1
 40
0.000000
 41
0.000000
  0
VERTEX
  8
0
  6
CONTINUOUS
 10
1.329680
 20
2.168320
  0
VERTEX
  8
0
  6
CONTINUOUS
 10
1.838760
 20
2.168320
  0
VERTEX
  8
0
  6
CONTINUOUS
 10
1.919720
 20
2.027080
  0
VERTEX
  8
0
  6
CONTINUOUS
 10
1.968120
 20
2.027080
  0
VERTEX
  8
0
  6
CONTINUOUS
 10
1.989240
 20
2.064920
  0
VERTEX
  8
0
  6
CONTINUOUS
 10
2.011240
 20
2.095280
  0
VERTEX
  8
0
  6
CONTINUOUS
 10
2.034120
 20
2.118600
  0
VERTEX
  8
0
  6
CONTINUOUS
 10
2.057440
 20
2.135760
  0
VERTEX
  8
0
  6
CONTINUOUS
 10
2.081200
 20
2.147200
  0
VERTEX
  8
0
  6
CONTINUOUS
 10
2.104960
 20
2.153360
  0
VERTEX
  8
0
  6
CONTINUOUS
 10
2.128720
 20
2.154680
  0
VERTEX
  8
0
  6
CONTINUOUS
 10
2.152040
 20
2.151600
  0
VERTEX
  8
0
  6
CONTINUOUS
 10
2.196920
 20
2.135760
  0
VERTEX
  8
0
  6
CONTINUOUS
 10
2.237840
 20
2.109360
  0
VERTEX
  8
0
  6
CONTINUOUS
 10
2.272600
 20
2.077240
  0
VERTEX
  8
0
  6
CONTINUOUS
 10
2.299880
 20
2.043360
  0
VERTEX
  8
0
  6
CONTINUOUS
 10
2.326720
 20
2.010800
  0
VERTEX
  8
0
  6
CONTINUOUS
 10
2.361480
 20
1.980880
  0
VERTEX
  8
0
  6
CONTINUOUS
 10
2.402840
 20
1.954040
  0
VERTEX
  8
0
  6
CONTINUOUS
 10
2.450360
 20
1.931600
  0
VERTEX
  8
0
  6
CONTINUOUS
 10
2.502720
 20
1.914000
  0
VERTEX
  8
0
  6
CONTINUOUS
 10
2.559040
 20
1.903000
  0
VERTEX
  8
0
  6
CONTINUOUS
 10
2.618000
 20
1.898160
  0
VERTEX
  8
0
  6
CONTINUOUS
 10
2.679600
 20
1.901680
  0
VERTEX
  8
0
  6
CONTINUOUS
 10
2.679600
 20
1.776720
  0
VERTEX
  8
0
  6
CONTINUOUS
 10
7.326440
 20
1.776720
  0
VERTEX
  8
0
  6
CONTINUOUS
 10
7.326440
 20
1.431320
  0
VERTEX
  8
0
  6
CONTINUOUS
 10
1.324400
 20
1.431320
  0
VERTEX
  8
0
  6
CONTINUOUS
 10
1.324400
 20
2.168320
  0
VERTEX
  8
0
  6
CONTINUOUS
 10
1.329680
 20
2.168320
  0
SEQEND
  8
0
  0
TEXT
  8
0
 10
4.033480
 20
1.170400
 40
0.138298
  1
BA  348
 41
1.000000
  7
SN0
 71
     0
 72
     5
 11
4.623966
 21
1.170400
  0
TEXT
  8
0
 10
4.020720
 20
0.978560
 40
0.138298
  1
3/4" x 6"
 41
1.000000
  7
SN0
 71
     0
 72
     5
 11
4.636249
 21
0.978560
  0
ENDSEC
  0
EOF
