  0
SECTION
  2
HEADER
  9
$ACADVER
  1
AC1006
  9
$EXTMIN
 10
4.669280
 20
0.352880
  9
$EXTMAX
 10
7.092800
 20
3.861440
  9
$LTSCALE
 40
0.044000
  9
$PDMODE
 70
    35
  9
$PDSIZE
 40
0.035200
  0
ENDSEC
  0
SECTION
  2
TABLES
  0
TABLE
  2
LTYPE
 70
     9
  0
LTYPE
  2
CONTINUOUS
 70
    64
  3
Solid line
 72
    65
 73
     0
 40
0.000000
  0
LTYPE
  2
DASHED
 70
    64
  3
__ __ __ __ __ __ __ __ __ __ __ __ __ __ __
 72
    65
 73
     2
 40
0.000330
 49
0.000220
 49
-0.000110
  0
LTYPE
  2
HIDDEN
 70
    64
  3
 _ _ _ _ _ _ _ _ _ _ _ _ _ _ _ _ _ _ _ _ _ _
 72
    65
 73
     2
 40
0.000165
 49
0.000110
 49
-0.000055
  0
LTYPE
  2
CENTER
 70
    64
  3
____ _ ____ _ ____ _ ____ _ ____ _ ____ _ ____
 72
    65
 73
     4
 40
0.000880
 49
0.000550
 49
-0.000110
 49
0.000110
 49
-0.000110
  0
LTYPE
  2
PHANTOM
 70
    64
  3
_____ _ _ _____ _ _ _____ _ _ _____ _ _ ____
 72
    65
 73
     6
 40
0.001100
 49
0.000550
 49
-0.000110
 49
0.000110
 49
-0.000110
 49
0.000110
 49
-0.000110
  0
LTYPE
  2
DOT
 70
    64
  3
...............................................
 72
    65
 73
     2
 40
0.000110
 49
0.000000
 49
-0.000110
  0
LTYPE
  2
DASHDOT
 70
    64
  3
__ . __ . __ . __ . __ . __ . __ . __ . __ . __
 72
    65
 73
     4
 40
0.000440
 49
0.000220
 49
-0.000110
 49
0.000000
 49
-0.000110
  0
LTYPE
  2
BORDER
 70
    64
  3
__ __ . __ __ . __ __ . __ __ . __ __ . __ __
 72
    65
 73
     6
 40
0.000770
 49
0.000220
 49
-0.000110
 49
0.000220
 49
-0.000110
 49
0.000000
 49
-0.000110
  0
LTYPE
  2
DIVIDE
 70
    64
  3
__ . . __ . . __ . . __ . . __ . . __ . . __
 72
    65
 73
     6
 40
0.000550
 49
0.000220
 49
-0.000110
 49
0.000000
 49
-0.000110
 49
0.000000
 49
-0.000110
  0
LTYPE
  2
DOTDOT
 70
    64
  3
 . .  . .  . .  . .  . .  . . 
 72
    65
 73
     5
 40
0.000242
 49
-0.000110
 49
0.000000
 49
-0.000110
 49
0.000000
 49
-0.000110
  0
ENDTAB
  0
TABLE
  2
STYLE
 70
     2
  0
STYLE
 70
     0
  2
SN0
 40
0.000000
 41
0.000440
 50
0.000000
 71
     0
 42
0.000000
  3
ROMAND
  0
STYLE
 70
    68
  2
SV0
 40
0.000000
 41
0.000440
 50
0.000000
 71
     0
 42
0.000000
  3
ROMAND
  0
ENDTAB
  0
TABLE
  2
LAYER
 70
     3
  0
LAYER
  2
FOREGROUND
 70
    64
 62
     7
  6
CONTINUOUS
  0
LAYER
  2
BACKGROUND
 70
    65
 62
    -7
  6
CONTINUOUS
  0
LAYER
  2
0
 70
    64
 62
     7
  6
CONTINUOUS
  0
ENDTAB
  0
ENDSEC
  0
SECTION
  2
ENTITIES
  0
POLYLINE
  8
FOREGROUND
  6
CONTINUOUS
 66
     1
 40
0.000000
 41
0.000000
  0
VERTEX
  8
FOREGROUND
  6
CONTINUOUS
 10
0.000000
 20
4.214320
  0
VERTEX
  8
FOREGROUND
  6
CONTINUOUS
 10
8.499920
 20
4.214320
  0
VERTEX
  8
FOREGROUND
  6
CONTINUOUS
 10
8.499920
 20
-6.785680
  0
VERTEX
  8
FOREGROUND
  6
CONTINUOUS
 10
0.000000
 20
-6.785680
  0
VERTEX
  8
FOREGROUND
  6
CONTINUOUS
 10
0.000000
 20
4.214320
  0
SEQEND
  8
0
  0
POLYLINE
  8
FOREGROUND
  6
CONTINUOUS
 66
     1
 40
0.000000
 41
0.000000
  0
VERTEX
  8
FOREGROUND
  6
CONTINUOUS
 10
0.000000
 20
4.214320
  0
VERTEX
  8
FOREGROUND
  6
CONTINUOUS
 10
8.499920
 20
4.214320
  0
VERTEX
  8
FOREGROUND
  6
CONTINUOUS
 10
8.499920
 20
-6.785680
  0
VERTEX
  8
FOREGROUND
  6
CONTINUOUS
 10
0.000000
 20
-6.785680
  0
VERTEX
  8
FOREGROUND
  6
CONTINUOUS
 10
0.000000
 20
4.214320
  0
SEQEND
  8
0
  0
POLYLINE
  8
0
  6
CONTINUOUS
 66
     1
 40
0.014080
 41
0.014080
  0
VERTEX
  8
0
  6
CONTINUOUS
 10
6.175400
 20
3.104200
  0
VERTEX
  8
0
  6
CONTINUOUS
 10
6.175215
 20
3.122587
  0
VERTEX
  8
0
  6
CONTINUOUS
 10
6.174692
 20
3.140745
  0
VERTEX
  8
0
  6
CONTINUOUS
 10
6.173836
 20
3.158675
  0
VERTEX
  8
0
  6
CONTINUOUS
 10
6.172650
 20
3.176376
  0
VERTEX
  8
0
  6
CONTINUOUS
 10
6.171139
 20
3.193849
  0
VERTEX
  8
0
  6
CONTINUOUS
 10
6.169307
 20
3.211094
  0
VERTEX
  8
0
  6
CONTINUOUS
 10
6.167158
 20
3.228110
  0
VERTEX
  8
0
  6
CONTINUOUS
 10
6.164697
 20
3.244898
  0
VERTEX
  8
0
  6
CONTINUOUS
 10
6.161927
 20
3.261458
  0
VERTEX
  8
0
  6
CONTINUOUS
 10
6.158854
 20
3.277789
  0
VERTEX
  8
0
  6
CONTINUOUS
 10
6.155480
 20
3.293892
  0
VERTEX
  8
0
  6
CONTINUOUS
 10
6.151811
 20
3.309766
  0
VERTEX
  8
0
  6
CONTINUOUS
 10
6.147851
 20
3.325412
  0
VERTEX
  8
0
  6
CONTINUOUS
 10
6.143603
 20
3.340830
  0
VERTEX
  8
0
  6
CONTINUOUS
 10
6.139073
 20
3.356019
  0
VERTEX
  8
0
  6
CONTINUOUS
 10
6.134264
 20
3.370980
  0
VERTEX
  8
0
  6
CONTINUOUS
 10
6.129180
 20
3.385712
  0
VERTEX
  8
0
  6
CONTINUOUS
 10
6.123826
 20
3.400216
  0
VERTEX
  8
0
  6
CONTINUOUS
 10
6.118206
 20
3.414492
  0
VERTEX
  8
0
  6
CONTINUOUS
 10
6.112324
 20
3.428539
  0
VERTEX
  8
0
  6
CONTINUOUS
 10
6.106185
 20
3.442358
  0
VERTEX
  8
0
  6
CONTINUOUS
 10
6.099792
 20
3.455948
  0
VERTEX
  8
0
  6
CONTINUOUS
 10
6.093150
 20
3.469310
  0
VERTEX
  8
0
  6
CONTINUOUS
 10
6.086263
 20
3.482444
  0
VERTEX
  8
0
  6
CONTINUOUS
 10
6.079136
 20
3.495349
  0
VERTEX
  8
0
  6
CONTINUOUS
 10
6.071771
 20
3.508026
  0
VERTEX
  8
0
  6
CONTINUOUS
 10
6.064175
 20
3.520475
  0
VERTEX
  8
0
  6
CONTINUOUS
 10
6.056351
 20
3.532695
  0
VERTEX
  8
0
  6
CONTINUOUS
 10
6.048302
 20
3.544686
  0
VERTEX
  8
0
  6
CONTINUOUS
 10
6.040035
 20
3.556450
  0
VERTEX
  8
0
  6
CONTINUOUS
 10
6.031551
 20
3.567985
  0
VERTEX
  8
0
  6
CONTINUOUS
 10
6.022857
 20
3.579291
  0
VERTEX
  8
0
  6
CONTINUOUS
 10
6.013956
 20
3.590369
  0
VERTEX
  8
0
  6
CONTINUOUS
 10
6.004852
 20
3.601219
  0
VERTEX
  8
0
  6
CONTINUOUS
 10
5.995549
 20
3.611840
  0
VERTEX
  8
0
  6
CONTINUOUS
 10
5.986053
 20
3.622233
  0
VERTEX
  8
0
  6
CONTINUOUS
 10
5.976366
 20
3.632397
  0
VERTEX
  8
0
  6
CONTINUOUS
 10
5.966493
 20
3.642334
  0
VERTEX
  8
0
  6
CONTINUOUS
 10
5.956439
 20
3.652041
  0
VERTEX
  8
0
  6
CONTINUOUS
 10
5.946208
 20
3.661521
  0
VERTEX
  8
0
  6
CONTINUOUS
 10
5.935803
 20
3.670772
  0
VERTEX
  8
0
  6
CONTINUOUS
 10
5.925229
 20
3.679794
  0
VERTEX
  8
0
  6
CONTINUOUS
 10
5.914491
 20
3.688588
  0
VERTEX
  8
0
  6
CONTINUOUS
 10
5.903592
 20
3.697154
  0
VERTEX
  8
0
  6
CONTINUOUS
 10
5.892537
 20
3.705491
  0
VERTEX
  8
0
  6
CONTINUOUS
 10
5.881330
 20
3.713600
  0
VERTEX
  8
0
  6
CONTINUOUS
 10
5.869975
 20
3.721481
  0
VERTEX
  8
0
  6
CONTINUOUS
 10
5.858477
 20
3.729133
  0
VERTEX
  8
0
  6
CONTINUOUS
 10
5.846839
 20
3.736557
  0
VERTEX
  8
0
  6
CONTINUOUS
 10
5.835066
 20
3.743752
  0
VERTEX
  8
0
  6
CONTINUOUS
 10
5.823162
 20
3.750719
  0
VERTEX
  8
0
  6
CONTINUOUS
 10
5.811132
 20
3.757457
  0
VERTEX
  8
0
  6
CONTINUOUS
 10
5.798979
 20
3.763967
  0
VERTEX
  8
0
  6
CONTINUOUS
 10
5.786707
 20
3.770249
  0
VERTEX
  8
0
  6
CONTINUOUS
 10
5.774322
 20
3.776302
  0
VERTEX
  8
0
  6
CONTINUOUS
 10
5.761827
 20
3.782127
  0
VERTEX
  8
0
  6
CONTINUOUS
 10
5.749226
 20
3.787724
  0
VERTEX
  8
0
  6
CONTINUOUS
 10
5.736524
 20
3.793092
  0
VERTEX
  8
0
  6
CONTINUOUS
 10
5.723725
 20
3.798232
  0
VERTEX
  8
0
  6
CONTINUOUS
 10
5.710833
 20
3.803143
  0
VERTEX
  8
0
  6
CONTINUOUS
 10
5.697852
 20
3.807826
  0
VERTEX
  8
0
  6
CONTINUOUS
 10
5.684787
 20
3.812281
  0
VERTEX
  8
0
  6
CONTINUOUS
 10
5.671641
 20
3.816507
  0
VERTEX
  8
0
  6
CONTINUOUS
 10
5.658420
 20
3.820504
  0
VERTEX
  8
0
  6
CONTINUOUS
 10
5.645127
 20
3.824274
  0
VERTEX
  8
0
  6
CONTINUOUS
 10
5.631766
 20
3.827815
  0
VERTEX
  8
0
  6
CONTINUOUS
 10
5.618341
 20
3.831127
  0
VERTEX
  8
0
  6
CONTINUOUS
 10
5.604858
 20
3.834211
  0
VERTEX
  8
0
  6
CONTINUOUS
 10
5.591320
 20
3.837067
  0
VERTEX
  8
0
  6
CONTINUOUS
 10
5.577731
 20
3.839694
  0
VERTEX
  8
0
  6
CONTINUOUS
 10
5.564095
 20
3.842093
  0
VERTEX
  8
0
  6
CONTINUOUS
 10
5.550418
 20
3.844264
  0
VERTEX
  8
0
  6
CONTINUOUS
 10
5.536702
 20
3.846206
  0
VERTEX
  8
0
  6
CONTINUOUS
 10
5.522953
 20
3.847919
  0
VERTEX
  8
0
  6
CONTINUOUS
 10
5.509174
 20
3.849405
  0
VERTEX
  8
0
  6
CONTINUOUS
 10
5.495369
 20
3.850661
  0
VERTEX
  8
0
  6
CONTINUOUS
 10
5.481544
 20
3.851690
  0
VERTEX
  8
0
  6
CONTINUOUS
 10
5.467701
 20
3.852490
  0
VERTEX
  8
0
  6
CONTINUOUS
 10
5.453846
 20
3.853062
  0
VERTEX
  8
0
  6
CONTINUOUS
 10
5.439983
 20
3.853405
  0
VERTEX
  8
0
  6
CONTINUOUS
 10
5.426115
 20
3.853520
  0
VERTEX
  8
0
  6
CONTINUOUS
 10
5.412247
 20
3.853406
  0
VERTEX
  8
0
  6
CONTINUOUS
 10
5.398383
 20
3.853064
  0
VERTEX
  8
0
  6
CONTINUOUS
 10
5.384528
 20
3.852494
  0
VERTEX
  8
0
  6
CONTINUOUS
 10
5.370686
 20
3.851695
  0
VERTEX
  8
0
  6
CONTINUOUS
 10
5.356860
 20
3.850668
  0
VERTEX
  8
0
  6
CONTINUOUS
 10
5.343056
 20
3.849412
  0
VERTEX
  8
0
  6
CONTINUOUS
 10
5.329276
 20
3.847928
  0
VERTEX
  8
0
  6
CONTINUOUS
 10
5.315527
 20
3.846216
  0
VERTEX
  8
0
  6
CONTINUOUS
 10
5.301811
 20
3.844275
  0
VERTEX
  8
0
  6
CONTINUOUS
 10
5.288133
 20
3.842106
  0
VERTEX
  8
0
  6
CONTINUOUS
 10
5.274497
 20
3.839708
  0
VERTEX
  8
0
  6
CONTINUOUS
 10
5.260908
 20
3.837082
  0
VERTEX
  8
0
  6
CONTINUOUS
 10
5.247370
 20
3.834228
  0
VERTEX
  8
0
  6
CONTINUOUS
 10
5.233886
 20
3.831145
  0
VERTEX
  8
0
  6
CONTINUOUS
 10
5.220461
 20
3.827834
  0
VERTEX
  8
0
  6
CONTINUOUS
 10
5.207100
 20
3.824294
  0
VERTEX
  8
0
  6
CONTINUOUS
 10
5.193806
 20
3.820526
  0
VERTEX
  8
0
  6
CONTINUOUS
 10
5.180585
 20
3.816529
  0
VERTEX
  8
0
  6
CONTINUOUS
 10
5.167439
 20
3.812304
  0
VERTEX
  8
0
  6
CONTINUOUS
 10
5.154373
 20
3.807851
  0
VERTEX
  8
0
  6
CONTINUOUS
 10
5.141392
 20
3.803169
  0
VERTEX
  8
0
  6
CONTINUOUS
 10
5.128499
 20
3.798259
  0
VERTEX
  8
0
  6
CONTINUOUS
 10
5.115700
 20
3.793121
  0
VERTEX
  8
0
  6
CONTINUOUS
 10
5.102997
 20
3.787754
  0
VERTEX
  8
0
  6
CONTINUOUS
 10
5.090396
 20
3.782158
  0
VERTEX
  8
0
  6
CONTINUOUS
 10
5.077900
 20
3.776335
  0
VERTEX
  8
0
  6
CONTINUOUS
 10
5.065514
 20
3.770283
  0
VERTEX
  8
0
  6
CONTINUOUS
 10
5.053242
 20
3.764002
  0
VERTEX
  8
0
  6
CONTINUOUS
 10
5.041089
 20
3.757493
  0
VERTEX
  8
0
  6
CONTINUOUS
 10
5.029058
 20
3.750756
  0
VERTEX
  8
0
  6
CONTINUOUS
 10
5.017153
 20
3.743790
  0
VERTEX
  8
0
  6
CONTINUOUS
 10
5.005379
 20
3.736595
  0
VERTEX
  8
0
  6
CONTINUOUS
 10
4.993741
 20
3.729173
  0
VERTEX
  8
0
  6
CONTINUOUS
 10
4.982242
 20
3.721522
  0
VERTEX
  8
0
  6
CONTINUOUS
 10
4.970886
 20
3.713642
  0
VERTEX
  8
0
  6
CONTINUOUS
 10
4.959678
 20
3.705534
  0
VERTEX
  8
0
  6
CONTINUOUS
 10
4.948623
 20
3.697198
  0
VERTEX
  8
0
  6
CONTINUOUS
 10
4.937723
 20
3.688633
  0
VERTEX
  8
0
  6
CONTINUOUS
 10
4.926984
 20
3.679840
  0
VERTEX
  8
0
  6
CONTINUOUS
 10
4.916409
 20
3.670819
  0
VERTEX
  8
0
  6
CONTINUOUS
 10
4.906004
 20
3.661569
  0
VERTEX
  8
0
  6
CONTINUOUS
 10
4.895772
 20
3.652090
  0
VERTEX
  8
0
  6
CONTINUOUS
 10
4.885716
 20
3.642384
  0
VERTEX
  8
0
  6
CONTINUOUS
 10
4.875843
 20
3.632448
  0
VERTEX
  8
0
  6
CONTINUOUS
 10
4.866155
 20
3.622285
  0
VERTEX
  8
0
  6
CONTINUOUS
 10
4.856658
 20
3.611893
  0
VERTEX
  8
0
  6
CONTINUOUS
 10
4.847354
 20
3.601272
  0
VERTEX
  8
0
  6
CONTINUOUS
 10
4.838249
 20
3.590424
  0
VERTEX
  8
0
  6
CONTINUOUS
 10
4.829347
 20
3.579346
  0
VERTEX
  8
0
  6
CONTINUOUS
 10
4.820652
 20
3.568041
  0
VERTEX
  8
0
  6
CONTINUOUS
 10
4.812167
 20
3.556507
  0
VERTEX
  8
0
  6
CONTINUOUS
 10
4.803898
 20
3.544744
  0
VERTEX
  8
0
  6
CONTINUOUS
 10
4.795849
 20
3.532753
  0
VERTEX
  8
0
  6
CONTINUOUS
 10
4.788024
 20
3.520534
  0
VERTEX
  8
0
  6
CONTINUOUS
 10
4.780426
 20
3.508086
  0
VERTEX
  8
0
  6
CONTINUOUS
 10
4.773061
 20
3.495410
  0
VERTEX
  8
0
  6
CONTINUOUS
 10
4.765932
 20
3.482505
  0
VERTEX
  8
0
  6
CONTINUOUS
 10
4.759044
 20
3.469372
  0
VERTEX
  8
0
  6
CONTINUOUS
 10
4.752401
 20
3.456011
  0
VERTEX
  8
0
  6
CONTINUOUS
 10
4.746007
 20
3.442421
  0
VERTEX
  8
0
  6
CONTINUOUS
 10
4.739866
 20
3.428603
  0
VERTEX
  8
0
  6
CONTINUOUS
 10
4.733983
 20
3.414556
  0
VERTEX
  8
0
  6
CONTINUOUS
 10
4.728361
 20
3.400281
  0
VERTEX
  8
0
  6
CONTINUOUS
 10
4.723006
 20
3.385777
  0
VERTEX
  8
0
  6
CONTINUOUS
 10
4.717921
 20
3.371045
  0
VERTEX
  8
0
  6
CONTINUOUS
 10
4.713110
 20
3.356085
  0
VERTEX
  8
0
  6
CONTINUOUS
 10
4.708579
 20
3.340896
  0
VERTEX
  8
0
  6
CONTINUOUS
 10
4.704330
 20
3.325479
  0
VERTEX
  8
0
  6
CONTINUOUS
 10
4.700368
 20
3.309833
  0
VERTEX
  8
0
  6
CONTINUOUS
 10
4.696697
 20
3.293959
  0
VERTEX
  8
0
  6
CONTINUOUS
 10
4.693323
 20
3.277857
  0
VERTEX
  8
0
  6
CONTINUOUS
 10
4.690247
 20
3.261526
  0
VERTEX
  8
0
  6
CONTINUOUS
 10
4.687476
 20
3.244967
  0
VERTEX
  8
0
  6
CONTINUOUS
 10
4.685014
 20
3.228179
  0
VERTEX
  8
0
  6
CONTINUOUS
 10
4.682863
 20
3.211163
  0
VERTEX
  8
0
  6
CONTINUOUS
 10
4.681030
 20
3.193918
  0
VERTEX
  8
0
  6
CONTINUOUS
 10
4.679517
 20
3.176446
  0
VERTEX
  8
0
  6
CONTINUOUS
 10
4.678330
 20
3.158744
  0
VERTEX
  8
0
  6
CONTINUOUS
 10
4.677471
 20
3.140814
  0
VERTEX
  8
0
  6
CONTINUOUS
 10
4.676947
 20
3.122656
  0
VERTEX
  8
0
  6
CONTINUOUS
 10
4.676760
 20
3.104269
  0
VERTEX
  8
0
  6
CONTINUOUS
 10
4.676760
 20
3.104269
  0
VERTEX
  8
0
  6
CONTINUOUS
 10
4.676943
 20
3.085883
  0
VERTEX
  8
0
  6
CONTINUOUS
 10
4.677465
 20
3.067724
  0
VERTEX
  8
0
  6
CONTINUOUS
 10
4.678319
 20
3.049794
  0
VERTEX
  8
0
  6
CONTINUOUS
 10
4.679504
 20
3.032093
  0
VERTEX
  8
0
  6
CONTINUOUS
 10
4.681013
 20
3.014620
  0
VERTEX
  8
0
  6
CONTINUOUS
 10
4.682844
 20
2.997375
  0
VERTEX
  8
0
  6
CONTINUOUS
 10
4.684991
 20
2.980358
  0
VERTEX
  8
0
  6
CONTINUOUS
 10
4.687450
 20
2.963570
  0
VERTEX
  8
0
  6
CONTINUOUS
 10
4.690218
 20
2.947010
  0
VERTEX
  8
0
  6
CONTINUOUS
 10
4.693290
 20
2.930679
  0
VERTEX
  8
0
  6
CONTINUOUS
 10
4.696662
 20
2.914576
  0
VERTEX
  8
0
  6
CONTINUOUS
 10
4.700330
 20
2.898701
  0
VERTEX
  8
0
  6
CONTINUOUS
 10
4.704289
 20
2.883055
  0
VERTEX
  8
0
  6
CONTINUOUS
 10
4.708535
 20
2.867637
  0
VERTEX
  8
0
  6
CONTINUOUS
 10
4.713064
 20
2.852447
  0
VERTEX
  8
0
  6
CONTINUOUS
 10
4.717872
 20
2.837486
  0
VERTEX
  8
0
  6
CONTINUOUS
 10
4.722954
 20
2.822753
  0
VERTEX
  8
0
  6
CONTINUOUS
 10
4.728307
 20
2.808248
  0
VERTEX
  8
0
  6
CONTINUOUS
 10
4.733925
 20
2.793972
  0
VERTEX
  8
0
  6
CONTINUOUS
 10
4.739806
 20
2.779925
  0
VERTEX
  8
0
  6
CONTINUOUS
 10
4.745944
 20
2.766105
  0
VERTEX
  8
0
  6
CONTINUOUS
 10
4.752335
 20
2.752514
  0
VERTEX
  8
0
  6
CONTINUOUS
 10
4.758976
 20
2.739151
  0
VERTEX
  8
0
  6
CONTINUOUS
 10
4.765862
 20
2.726017
  0
VERTEX
  8
0
  6
CONTINUOUS
 10
4.772988
 20
2.713111
  0
VERTEX
  8
0
  6
CONTINUOUS
 10
4.780351
 20
2.700434
  0
VERTEX
  8
0
  6
CONTINUOUS
 10
4.787946
 20
2.687985
  0
VERTEX
  8
0
  6
CONTINUOUS
 10
4.795770
 20
2.675764
  0
VERTEX
  8
0
  6
CONTINUOUS
 10
4.803817
 20
2.663771
  0
VERTEX
  8
0
  6
CONTINUOUS
 10
4.812083
 20
2.652007
  0
VERTEX
  8
0
  6
CONTINUOUS
 10
4.820566
 20
2.640472
  0
VERTEX
  8
0
  6
CONTINUOUS
 10
4.829259
 20
2.629164
  0
VERTEX
  8
0
  6
CONTINUOUS
 10
4.838159
 20
2.618085
  0
VERTEX
  8
0
  6
CONTINUOUS
 10
4.847262
 20
2.607235
  0
VERTEX
  8
0
  6
CONTINUOUS
 10
4.856564
 20
2.596613
  0
VERTEX
  8
0
  6
CONTINUOUS
 10
4.866059
 20
2.586219
  0
VERTEX
  8
0
  6
CONTINUOUS
 10
4.875745
 20
2.576053
  0
VERTEX
  8
0
  6
CONTINUOUS
 10
4.885617
 20
2.566116
  0
VERTEX
  8
0
  6
CONTINUOUS
 10
4.895670
 20
2.556408
  0
VERTEX
  8
0
  6
CONTINUOUS
 10
4.905901
 20
2.546928
  0
VERTEX
  8
0
  6
CONTINUOUS
 10
4.916304
 20
2.537676
  0
VERTEX
  8
0
  6
CONTINUOUS
 10
4.926877
 20
2.528652
  0
VERTEX
  8
0
  6
CONTINUOUS
 10
4.937615
 20
2.519857
  0
VERTEX
  8
0
  6
CONTINUOUS
 10
4.948513
 20
2.511290
  0
VERTEX
  8
0
  6
CONTINUOUS
 10
4.959567
 20
2.502952
  0
VERTEX
  8
0
  6
CONTINUOUS
 10
4.970773
 20
2.494842
  0
VERTEX
  8
0
  6
CONTINUOUS
 10
4.982127
 20
2.486960
  0
VERTEX
  8
0
  6
CONTINUOUS
 10
4.993625
 20
2.479307
  0
VERTEX
  8
0
  6
CONTINUOUS
 10
5.005262
 20
2.471882
  0
VERTEX
  8
0
  6
CONTINUOUS
 10
5.017035
 20
2.464686
  0
VERTEX
  8
0
  6
CONTINUOUS
 10
5.028938
 20
2.457718
  0
VERTEX
  8
0
  6
CONTINUOUS
 10
5.040968
 20
2.450978
  0
VERTEX
  8
0
  6
CONTINUOUS
 10
5.053120
 20
2.444467
  0
VERTEX
  8
0
  6
CONTINUOUS
 10
5.065391
 20
2.438184
  0
VERTEX
  8
0
  6
CONTINUOUS
 10
5.077776
 20
2.432130
  0
VERTEX
  8
0
  6
CONTINUOUS
 10
5.090270
 20
2.426304
  0
VERTEX
  8
0
  6
CONTINUOUS
 10
5.102870
 20
2.420706
  0
VERTEX
  8
0
  6
CONTINUOUS
 10
5.115572
 20
2.415337
  0
VERTEX
  8
0
  6
CONTINUOUS
 10
5.128371
 20
2.410196
  0
VERTEX
  8
0
  6
CONTINUOUS
 10
5.141262
 20
2.405283
  0
VERTEX
  8
0
  6
CONTINUOUS
 10
5.154243
 20
2.400599
  0
VERTEX
  8
0
  6
CONTINUOUS
 10
5.167307
 20
2.396143
  0
VERTEX
  8
0
  6
CONTINUOUS
 10
5.180453
 20
2.391916
  0
VERTEX
  8
0
  6
CONTINUOUS
 10
5.193674
 20
2.387917
  0
VERTEX
  8
0
  6
CONTINUOUS
 10
5.206967
 20
2.384147
  0
VERTEX
  8
0
  6
CONTINUOUS
 10
5.220327
 20
2.380604
  0
VERTEX
  8
0
  6
CONTINUOUS
 10
5.233751
 20
2.377291
  0
VERTEX
  8
0
  6
CONTINUOUS
 10
5.247234
 20
2.374205
  0
VERTEX
  8
0
  6
CONTINUOUS
 10
5.260772
 20
2.371348
  0
VERTEX
  8
0
  6
CONTINUOUS
 10
5.274361
 20
2.368720
  0
VERTEX
  8
0
  6
CONTINUOUS
 10
5.287996
 20
2.366320
  0
VERTEX
  8
0
  6
CONTINUOUS
 10
5.301674
 20
2.364148
  0
VERTEX
  8
0
  6
CONTINUOUS
 10
5.315389
 20
2.362205
  0
VERTEX
  8
0
  6
CONTINUOUS
 10
5.329139
 20
2.360490
  0
VERTEX
  8
0
  6
CONTINUOUS
 10
5.342917
 20
2.359003
  0
VERTEX
  8
0
  6
CONTINUOUS
 10
5.356722
 20
2.357745
  0
VERTEX
  8
0
  6
CONTINUOUS
 10
5.370547
 20
2.356715
  0
VERTEX
  8
0
  6
CONTINUOUS
 10
5.384390
 20
2.355914
  0
VERTEX
  8
0
  6
CONTINUOUS
 10
5.398245
 20
2.355341
  0
VERTEX
  8
0
  6
CONTINUOUS
 10
5.412108
 20
2.354996
  0
VERTEX
  8
0
  6
CONTINUOUS
 10
5.425976
 20
2.354880
  0
VERTEX
  8
0
  6
CONTINUOUS
 10
5.439844
 20
2.354993
  0
VERTEX
  8
0
  6
CONTINUOUS
 10
5.453707
 20
2.355333
  0
VERTEX
  8
0
  6
CONTINUOUS
 10
5.467563
 20
2.355902
  0
VERTEX
  8
0
  6
CONTINUOUS
 10
5.481405
 20
2.356700
  0
VERTEX
  8
0
  6
CONTINUOUS
 10
5.495231
 20
2.357726
  0
VERTEX
  8
0
  6
CONTINUOUS
 10
5.509035
 20
2.358980
  0
VERTEX
  8
0
  6
CONTINUOUS
 10
5.522815
 20
2.360463
  0
VERTEX
  8
0
  6
CONTINUOUS
 10
5.536565
 20
2.362174
  0
VERTEX
  8
0
  6
CONTINUOUS
 10
5.550281
 20
2.364113
  0
VERTEX
  8
0
  6
CONTINUOUS
 10
5.563959
 20
2.366281
  0
VERTEX
  8
0
  6
CONTINUOUS
 10
5.577595
 20
2.368678
  0
VERTEX
  8
0
  6
CONTINUOUS
 10
5.591184
 20
2.371303
  0
VERTEX
  8
0
  6
CONTINUOUS
 10
5.604723
 20
2.374156
  0
VERTEX
  8
0
  6
CONTINUOUS
 10
5.618207
 20
2.377237
  0
VERTEX
  8
0
  6
CONTINUOUS
 10
5.631632
 20
2.380547
  0
VERTEX
  8
0
  6
CONTINUOUS
 10
5.644993
 20
2.384086
  0
VERTEX
  8
0
  6
CONTINUOUS
 10
5.658287
 20
2.387853
  0
VERTEX
  8
0
  6
CONTINUOUS
 10
5.671509
 20
2.391848
  0
VERTEX
  8
0
  6
CONTINUOUS
 10
5.684656
 20
2.396072
  0
VERTEX
  8
0
  6
CONTINUOUS
 10
5.697722
 20
2.400524
  0
VERTEX
  8
0
  6
CONTINUOUS
 10
5.710703
 20
2.405204
  0
VERTEX
  8
0
  6
CONTINUOUS
 10
5.723596
 20
2.410113
  0
VERTEX
  8
0
  6
CONTINUOUS
 10
5.736397
 20
2.415250
  0
VERTEX
  8
0
  6
CONTINUOUS
 10
5.749100
 20
2.420616
  0
VERTEX
  8
0
  6
CONTINUOUS
 10
5.761701
 20
2.426210
  0
VERTEX
  8
0
  6
CONTINUOUS
 10
5.774198
 20
2.432033
  0
VERTEX
  8
0
  6
CONTINUOUS
 10
5.786584
 20
2.438084
  0
VERTEX
  8
0
  6
CONTINUOUS
 10
5.798857
 20
2.444363
  0
VERTEX
  8
0
  6
CONTINUOUS
 10
5.811011
 20
2.450871
  0
VERTEX
  8
0
  6
CONTINUOUS
 10
5.823043
 20
2.457608
  0
VERTEX
  8
0
  6
CONTINUOUS
 10
5.834948
 20
2.464572
  0
VERTEX
  8
0
  6
CONTINUOUS
 10
5.846722
 20
2.471766
  0
VERTEX
  8
0
  6
CONTINUOUS
 10
5.858361
 20
2.479187
  0
VERTEX
  8
0
  6
CONTINUOUS
 10
5.869861
 20
2.486837
  0
VERTEX
  8
0
  6
CONTINUOUS
 10
5.881217
 20
2.494716
  0
VERTEX
  8
0
  6
CONTINUOUS
 10
5.892426
 20
2.502822
  0
VERTEX
  8
0
  6
CONTINUOUS
 10
5.903483
 20
2.511158
  0
VERTEX
  8
0
  6
CONTINUOUS
 10
5.914383
 20
2.519721
  0
VERTEX
  8
0
  6
CONTINUOUS
 10
5.925123
 20
2.528513
  0
VERTEX
  8
0
  6
CONTINUOUS
 10
5.935698
 20
2.537534
  0
VERTEX
  8
0
  6
CONTINUOUS
 10
5.946104
 20
2.546783
  0
VERTEX
  8
0
  6
CONTINUOUS
 10
5.956338
 20
2.556260
  0
VERTEX
  8
0
  6
CONTINUOUS
 10
5.966394
 20
2.565966
  0
VERTEX
  8
0
  6
CONTINUOUS
 10
5.976268
 20
2.575901
  0
VERTEX
  8
0
  6
CONTINUOUS
 10
5.985957
 20
2.586063
  0
VERTEX
  8
0
  6
CONTINUOUS
 10
5.995455
 20
2.596454
  0
VERTEX
  8
0
  6
CONTINUOUS
 10
6.004760
 20
2.607074
  0
VERTEX
  8
0
  6
CONTINUOUS
 10
6.013866
 20
2.617922
  0
VERTEX
  8
0
  6
CONTINUOUS
 10
6.022769
 20
2.628998
  0
VERTEX
  8
0
  6
CONTINUOUS
 10
6.031465
 20
2.640303
  0
VERTEX
  8
0
  6
CONTINUOUS
 10
6.039951
 20
2.651837
  0
VERTEX
  8
0
  6
CONTINUOUS
 10
6.048221
 20
2.663598
  0
VERTEX
  8
0
  6
CONTINUOUS
 10
6.056271
 20
2.675589
  0
VERTEX
  8
0
  6
CONTINUOUS
 10
6.064098
 20
2.687807
  0
VERTEX
  8
0
  6
CONTINUOUS
 10
6.071697
 20
2.700254
  0
VERTEX
  8
0
  6
CONTINUOUS
 10
6.079063
 20
2.712930
  0
VERTEX
  8
0
  6
CONTINUOUS
 10
6.086193
 20
2.725834
  0
VERTEX
  8
0
  6
CONTINUOUS
 10
6.093082
 20
2.738966
  0
VERTEX
  8
0
  6
CONTINUOUS
 10
6.099727
 20
2.752327
  0
VERTEX
  8
0
  6
CONTINUOUS
 10
6.106122
 20
2.765916
  0
VERTEX
  8
0
  6
CONTINUOUS
 10
6.112264
 20
2.779734
  0
VERTEX
  8
0
  6
CONTINUOUS
 10
6.118149
 20
2.793780
  0
VERTEX
  8
0
  6
CONTINUOUS
 10
6.123771
 20
2.808054
  0
VERTEX
  8
0
  6
CONTINUOUS
 10
6.129128
 20
2.822558
  0
VERTEX
  8
0
  6
CONTINUOUS
 10
6.134214
 20
2.837289
  0
VERTEX
  8
0
  6
CONTINUOUS
 10
6.139026
 20
2.852249
  0
VERTEX
  8
0
  6
CONTINUOUS
 10
6.143559
 20
2.867437
  0
VERTEX
  8
0
  6
CONTINUOUS
 10
6.147810
 20
2.882854
  0
VERTEX
  8
0
  6
CONTINUOUS
 10
6.151773
 20
2.898499
  0
VERTEX
  8
0
  6
CONTINUOUS
 10
6.155445
 20
2.914373
  0
VERTEX
  8
0
  6
CONTINUOUS
 10
6.158821
 20
2.930475
  0
VERTEX
  8
0
  6
CONTINUOUS
 10
6.161898
 20
2.946806
  0
VERTEX
  8
0
  6
CONTINUOUS
 10
6.164671
 20
2.963365
  0
VERTEX
  8
0
  6
CONTINUOUS
 10
6.167135
 20
2.980152
  0
VERTEX
  8
0
  6
CONTINUOUS
 10
6.169287
 20
2.997168
  0
VERTEX
  8
0
  6
CONTINUOUS
 10
6.171122
 20
3.014412
  0
VERTEX
  8
0
  6
CONTINUOUS
 10
6.172636
 20
3.031885
  0
VERTEX
  8
0
  6
CONTINUOUS
 10
6.173825
 20
3.049587
  0
VERTEX
  8
0
  6
CONTINUOUS
 10
6.174685
 20
3.067516
  0
VERTEX
  8
0
  6
CONTINUOUS
 10
6.175212
 20
3.085675
  0
VERTEX
  8
0
  6
CONTINUOUS
 10
6.175400
 20
3.104061
  0
VERTEX
  8
0
  6
CONTINUOUS
 10
6.175400
 20
3.104200
  0
SEQEND
  8
0
  0
POLYLINE
  8
0
  6
DOT
 66
     1
 40
0.014080
 41
0.014080
  0
VERTEX
  8
0
  6
DOT
 10
4.676760
 20
3.104200
  0
VERTEX
  8
0
  6
DOT
 10
6.170120
 20
3.104200
  0
VERTEX
  8
0
  6
DOT
 10
6.130520
 20
3.104200
  0
SEQEND
  8
0
  0
SOLID
  8
0
 62
     7
 10
6.186840
 20
1.514920
 11
6.836720
 21
1.886280
 12
6.218520
 22
1.449360
 13
6.867960
 23
1.820720
  0
POLYLINE
  8
0
  6
CONTINUOUS
 66
     1
 40
0.000000
 41
0.000000
  0
VERTEX
  8
0
  6
CONTINUOUS
 10
6.186840
 20
1.514920
  0
VERTEX
  8
0
  6
CONTINUOUS
 10
6.836720
 20
1.886280
  0
VERTEX
  8
0
  6
CONTINUOUS
 10
6.867960
 20
1.820720
  0
VERTEX
  8
0
  6
CONTINUOUS
 10
6.218520
 20
1.449360
  0
VERTEX
  8
0
  6
CONTINUOUS
 10
6.186840
 20
1.514920
  0
SEQEND
  8
0
  0
SOLID
  8
0
 62
    15
 10
5.236440
 20
1.848000
 11
5.885880
 21
2.219360
 12
5.305080
 22
1.873520
 13
5.954960
 23
2.244880
  0
POLYLINE
  8
0
  6
CONTINUOUS
 66
     1
 40
0.000000
 41
0.000000
  0
VERTEX
  8
0
  6
CONTINUOUS
 10
5.236440
 20
1.848000
  0
VERTEX
  8
0
  6
CONTINUOUS
 10
5.885880
 20
2.219360
  0
VERTEX
  8
0
  6
CONTINUOUS
 10
5.954960
 20
2.244880
  0
VERTEX
  8
0
  6
CONTINUOUS
 10
5.305080
 20
1.873520
  0
VERTEX
  8
0
  6
CONTINUOUS
 10
5.236440
 20
1.848000
  0
SEQEND
  8
0
  0
SOLID
  8
0
 62
    15
 10
5.305080
 20
1.873520
 11
5.954960
 21
2.244880
 12
5.377240
 22
1.892000
 13
6.026680
 23
2.262920
  0
POLYLINE
  8
0
  6
CONTINUOUS
 66
     1
 40
0.000000
 41
0.000000
  0
VERTEX
  8
0
  6
CONTINUOUS
 10
5.305080
 20
1.873520
  0
VERTEX
  8
0
  6
CONTINUOUS
 10
5.954960
 20
2.244880
  0
VERTEX
  8
0
  6
CONTINUOUS
 10
6.026680
 20
2.262920
  0
VERTEX
  8
0
  6
CONTINUOUS
 10
5.377240
 20
1.892000
  0
VERTEX
  8
0
  6
CONTINUOUS
 10
5.305080
 20
1.873520
  0
SEQEND
  8
0
  0
SOLID
  8
0
 62
    15
 10
5.377240
 20
1.892000
 11
6.026680
 21
2.262920
 12
5.451600
 22
1.903000
 13
6.101040
 23
2.274360
  0
POLYLINE
  8
0
  6
CONTINUOUS
 66
     1
 40
0.000000
 41
0.000000
  0
VERTEX
  8
0
  6
CONTINUOUS
 10
5.377240
 20
1.892000
  0
VERTEX
  8
0
  6
CONTINUOUS
 10
6.026680
 20
2.262920
  0
VERTEX
  8
0
  6
CONTINUOUS
 10
6.101040
 20
2.274360
  0
VERTEX
  8
0
  6
CONTINUOUS
 10
5.451600
 20
1.903000
  0
VERTEX
  8
0
  6
CONTINUOUS
 10
5.377240
 20
1.892000
  0
SEQEND
  8
0
  0
SOLID
  8
0
 62
    15
 10
5.451600
 20
1.903000
 11
6.101040
 21
2.274360
 12
5.528160
 22
1.906960
 13
6.177600
 23
2.278320
  0
POLYLINE
  8
0
  6
CONTINUOUS
 66
     1
 40
0.000000
 41
0.000000
  0
VERTEX
  8
0
  6
CONTINUOUS
 10
5.451600
 20
1.903000
  0
VERTEX
  8
0
  6
CONTINUOUS
 10
6.101040
 20
2.274360
  0
VERTEX
  8
0
  6
CONTINUOUS
 10
6.177600
 20
2.278320
  0
VERTEX
  8
0
  6
CONTINUOUS
 10
5.528160
 20
1.906960
  0
VERTEX
  8
0
  6
CONTINUOUS
 10
5.451600
 20
1.903000
  0
SEQEND
  8
0
  0
SOLID
  8
0
 62
    15
 10
5.528160
 20
1.906960
 11
6.177600
 21
2.278320
 12
5.604720
 22
1.903000
 13
6.254160
 23
2.274360
  0
POLYLINE
  8
0
  6
CONTINUOUS
 66
     1
 40
0.000000
 41
0.000000
  0
VERTEX
  8
0
  6
CONTINUOUS
 10
5.528160
 20
1.906960
  0
VERTEX
  8
0
  6
CONTINUOUS
 10
6.177600
 20
2.278320
  0
VERTEX
  8
0
  6
CONTINUOUS
 10
6.254160
 20
2.274360
  0
VERTEX
  8
0
  6
CONTINUOUS
 10
5.604720
 20
1.903000
  0
VERTEX
  8
0
  6
CONTINUOUS
 10
5.528160
 20
1.906960
  0
SEQEND
  8
0
  0
SOLID
  8
0
 62
    15
 10
5.604720
 20
1.903000
 11
6.254160
 21
2.274360
 12
5.679080
 22
1.892000
 13
6.328520
 23
2.262920
  0
POLYLINE
  8
0
  6
CONTINUOUS
 66
     1
 40
0.000000
 41
0.000000
  0
VERTEX
  8
0
  6
CONTINUOUS
 10
5.604720
 20
1.903000
  0
VERTEX
  8
0
  6
CONTINUOUS
 10
6.254160
 20
2.274360
  0
VERTEX
  8
0
  6
CONTINUOUS
 10
6.328520
 20
2.262920
  0
VERTEX
  8
0
  6
CONTINUOUS
 10
5.679080
 20
1.892000
  0
VERTEX
  8
0
  6
CONTINUOUS
 10
5.604720
 20
1.903000
  0
SEQEND
  8
0
  0
SOLID
  8
0
 62
    15
 10
5.679080
 20
1.892000
 11
6.328520
 21
2.262920
 12
5.750800
 22
1.873520
 13
6.400680
 23
2.244880
  0
POLYLINE
  8
0
  6
CONTINUOUS
 66
     1
 40
0.000000
 41
0.000000
  0
VERTEX
  8
0
  6
CONTINUOUS
 10
5.679080
 20
1.892000
  0
VERTEX
  8
0
  6
CONTINUOUS
 10
6.328520
 20
2.262920
  0
VERTEX
  8
0
  6
CONTINUOUS
 10
6.400680
 20
2.244880
  0
VERTEX
  8
0
  6
CONTINUOUS
 10
5.750800
 20
1.873520
  0
VERTEX
  8
0
  6
CONTINUOUS
 10
5.679080
 20
1.892000
  0
SEQEND
  8
0
  0
SOLID
  8
0
 62
    15
 10
5.750800
 20
1.873520
 11
6.400680
 21
2.244880
 12
5.819880
 22
1.848000
 13
6.469320
 23
2.219360
  0
POLYLINE
  8
0
  6
CONTINUOUS
 66
     1
 40
0.000000
 41
0.000000
  0
VERTEX
  8
0
  6
CONTINUOUS
 10
5.750800
 20
1.873520
  0
VERTEX
  8
0
  6
CONTINUOUS
 10
6.400680
 20
2.244880
  0
VERTEX
  8
0
  6
CONTINUOUS
 10
6.469320
 20
2.219360
  0
VERTEX
  8
0
  6
CONTINUOUS
 10
5.819880
 20
1.848000
  0
VERTEX
  8
0
  6
CONTINUOUS
 10
5.750800
 20
1.873520
  0
SEQEND
  8
0
  0
SOLID
  8
0
 62
    15
 10
5.819880
 20
1.848000
 11
6.469320
 21
2.219360
 12
5.885440
 22
1.816760
 13
6.534880
 23
2.188120
  0
POLYLINE
  8
0
  6
CONTINUOUS
 66
     1
 40
0.000000
 41
0.000000
  0
VERTEX
  8
0
  6
CONTINUOUS
 10
5.819880
 20
1.848000
  0
VERTEX
  8
0
  6
CONTINUOUS
 10
6.469320
 20
2.219360
  0
VERTEX
  8
0
  6
CONTINUOUS
 10
6.534880
 20
2.188120
  0
VERTEX
  8
0
  6
CONTINUOUS
 10
5.885440
 20
1.816760
  0
VERTEX
  8
0
  6
CONTINUOUS
 10
5.819880
 20
1.848000
  0
SEQEND
  8
0
  0
SOLID
  8
0
 62
    15
 10
5.885440
 20
1.816760
 11
6.534880
 21
2.188120
 12
5.947040
 22
1.778920
 13
6.596480
 23
2.150280
  0
POLYLINE
  8
0
  6
CONTINUOUS
 66
     1
 40
0.000000
 41
0.000000
  0
VERTEX
  8
0
  6
CONTINUOUS
 10
5.885440
 20
1.816760
  0
VERTEX
  8
0
  6
CONTINUOUS
 10
6.534880
 20
2.188120
  0
VERTEX
  8
0
  6
CONTINUOUS
 10
6.596480
 20
2.150280
  0
VERTEX
  8
0
  6
CONTINUOUS
 10
5.947040
 20
1.778920
  0
VERTEX
  8
0
  6
CONTINUOUS
 10
5.885440
 20
1.816760
  0
SEQEND
  8
0
  0
SOLID
  8
0
 62
     7
 10
5.947040
 20
1.778920
 11
6.596480
 21
2.150280
 12
6.057920
 22
1.687400
 13
6.707360
 23
2.058760
  0
POLYLINE
  8
0
  6
CONTINUOUS
 66
     1
 40
0.000000
 41
0.000000
  0
VERTEX
  8
0
  6
CONTINUOUS
 10
5.947040
 20
1.778920
  0
VERTEX
  8
0
  6
CONTINUOUS
 10
6.596480
 20
2.150280
  0
VERTEX
  8
0
  6
CONTINUOUS
 10
6.707360
 20
2.058760
  0
VERTEX
  8
0
  6
CONTINUOUS
 10
6.057920
 20
1.687400
  0
VERTEX
  8
0
  6
CONTINUOUS
 10
5.947040
 20
1.778920
  0
SEQEND
  8
0
  0
SOLID
  8
0
 62
     7
 10
6.057920
 20
1.687400
 11
6.707360
 21
2.058760
 12
6.149440
 22
1.576520
 13
6.798880
 23
1.947880
  0
POLYLINE
  8
0
  6
CONTINUOUS
 66
     1
 40
0.000000
 41
0.000000
  0
VERTEX
  8
0
  6
CONTINUOUS
 10
6.057920
 20
1.687400
  0
VERTEX
  8
0
  6
CONTINUOUS
 10
6.707360
 20
2.058760
  0
VERTEX
  8
0
  6
CONTINUOUS
 10
6.798880
 20
1.947880
  0
VERTEX
  8
0
  6
CONTINUOUS
 10
6.149440
 20
1.576520
  0
VERTEX
  8
0
  6
CONTINUOUS
 10
6.057920
 20
1.687400
  0
SEQEND
  8
0
  0
SOLID
  8
0
 62
     7
 10
6.149440
 20
1.576520
 11
6.798880
 21
1.947880
 12
6.186840
 22
1.514920
 13
6.836720
 23
1.886280
  0
POLYLINE
  8
0
  6
CONTINUOUS
 66
     1
 40
0.000000
 41
0.000000
  0
VERTEX
  8
0
  6
CONTINUOUS
 10
6.149440
 20
1.576520
  0
VERTEX
  8
0
  6
CONTINUOUS
 10
6.798880
 20
1.947880
  0
VERTEX
  8
0
  6
CONTINUOUS
 10
6.836720
 20
1.886280
  0
VERTEX
  8
0
  6
CONTINUOUS
 10
6.186840
 20
1.514920
  0
VERTEX
  8
0
  6
CONTINUOUS
 10
6.149440
 20
1.576520
  0
SEQEND
  8
0
  0
SOLID
  8
0
 62
    15
 10
5.170880
 20
1.816760
 11
5.820320
 21
2.188120
 12
5.236440
 22
1.848000
 13
5.885880
 23
2.219360
  0
POLYLINE
  8
0
  6
CONTINUOUS
 66
     1
 40
0.000000
 41
0.000000
  0
VERTEX
  8
0
  6
CONTINUOUS
 10
5.170880
 20
1.816760
  0
VERTEX
  8
0
  6
CONTINUOUS
 10
5.820320
 20
2.188120
  0
VERTEX
  8
0
  6
CONTINUOUS
 10
5.885880
 20
2.219360
  0
VERTEX
  8
0
  6
CONTINUOUS
 10
5.236440
 20
1.848000
  0
VERTEX
  8
0
  6
CONTINUOUS
 10
5.170880
 20
1.816760
  0
SEQEND
  8
0
  0
SOLID
  8
0
 62
     7
 10
6.218520
 20
1.449360
 11
6.867960
 21
1.820720
 12
6.243600
 22
1.380280
 13
6.893480
 23
1.751640
  0
POLYLINE
  8
0
  6
CONTINUOUS
 66
     1
 40
0.000000
 41
0.000000
  0
VERTEX
  8
0
  6
CONTINUOUS
 10
6.218520
 20
1.449360
  0
VERTEX
  8
0
  6
CONTINUOUS
 10
6.867960
 20
1.820720
  0
VERTEX
  8
0
  6
CONTINUOUS
 10
6.893480
 20
1.751640
  0
VERTEX
  8
0
  6
CONTINUOUS
 10
6.243600
 20
1.380280
  0
VERTEX
  8
0
  6
CONTINUOUS
 10
6.218520
 20
1.449360
  0
SEQEND
  8
0
  0
SOLID
  8
0
 62
     7
 10
6.243600
 20
1.380280
 11
6.893480
 21
1.751640
 12
6.262080
 22
1.308560
 13
6.911960
 23
1.679920
  0
POLYLINE
  8
0
  6
CONTINUOUS
 66
     1
 40
0.000000
 41
0.000000
  0
VERTEX
  8
0
  6
CONTINUOUS
 10
6.243600
 20
1.380280
  0
VERTEX
  8
0
  6
CONTINUOUS
 10
6.893480
 20
1.751640
  0
VERTEX
  8
0
  6
CONTINUOUS
 10
6.911960
 20
1.679920
  0
VERTEX
  8
0
  6
CONTINUOUS
 10
6.262080
 20
1.308560
  0
VERTEX
  8
0
  6
CONTINUOUS
 10
6.243600
 20
1.380280
  0
SEQEND
  8
0
  0
SOLID
  8
0
 62
     7
 10
6.262080
 20
1.308560
 11
6.911960
 21
1.679920
 12
6.273520
 22
1.234200
 13
6.923400
 23
1.605560
  0
POLYLINE
  8
0
  6
CONTINUOUS
 66
     1
 40
0.000000
 41
0.000000
  0
VERTEX
  8
0
  6
CONTINUOUS
 10
6.262080
 20
1.308560
  0
VERTEX
  8
0
  6
CONTINUOUS
 10
6.911960
 20
1.679920
  0
VERTEX
  8
0
  6
CONTINUOUS
 10
6.923400
 20
1.605560
  0
VERTEX
  8
0
  6
CONTINUOUS
 10
6.273520
 20
1.234200
  0
VERTEX
  8
0
  6
CONTINUOUS
 10
6.262080
 20
1.308560
  0
SEQEND
  8
0
  0
SOLID
  8
0
 62
    15
 10
6.273520
 20
1.234200
 11
6.923400
 21
1.605560
 12
6.277480
 22
1.157640
 13
6.926920
 23
1.529000
  0
POLYLINE
  8
0
  6
CONTINUOUS
 66
     1
 40
0.000000
 41
0.000000
  0
VERTEX
  8
0
  6
CONTINUOUS
 10
6.273520
 20
1.234200
  0
VERTEX
  8
0
  6
CONTINUOUS
 10
6.923400
 20
1.605560
  0
VERTEX
  8
0
  6
CONTINUOUS
 10
6.926920
 20
1.529000
  0
VERTEX
  8
0
  6
CONTINUOUS
 10
6.277480
 20
1.157640
  0
VERTEX
  8
0
  6
CONTINUOUS
 10
6.273520
 20
1.234200
  0
SEQEND
  8
0
  0
SOLID
  8
0
 62
    15
 10
6.277480
 20
1.157640
 11
6.926920
 21
1.529000
 12
6.273520
 22
1.081080
 13
6.923400
 23
1.452440
  0
POLYLINE
  8
0
  6
CONTINUOUS
 66
     1
 40
0.000000
 41
0.000000
  0
VERTEX
  8
0
  6
CONTINUOUS
 10
6.277480
 20
1.157640
  0
VERTEX
  8
0
  6
CONTINUOUS
 10
6.926920
 20
1.529000
  0
VERTEX
  8
0
  6
CONTINUOUS
 10
6.923400
 20
1.452440
  0
VERTEX
  8
0
  6
CONTINUOUS
 10
6.273520
 20
1.081080
  0
VERTEX
  8
0
  6
CONTINUOUS
 10
6.277480
 20
1.157640
  0
SEQEND
  8
0
  0
SOLID
  8
0
 62
    15
 10
6.273520
 20
1.081080
 11
6.923400
 21
1.452440
 12
6.262080
 22
1.006720
 13
6.911960
 23
1.378080
  0
POLYLINE
  8
0
  6
CONTINUOUS
 66
     1
 40
0.000000
 41
0.000000
  0
VERTEX
  8
0
  6
CONTINUOUS
 10
6.273520
 20
1.081080
  0
VERTEX
  8
0
  6
CONTINUOUS
 10
6.923400
 20
1.452440
  0
VERTEX
  8
0
  6
CONTINUOUS
 10
6.911960
 20
1.378080
  0
VERTEX
  8
0
  6
CONTINUOUS
 10
6.262080
 20
1.006720
  0
VERTEX
  8
0
  6
CONTINUOUS
 10
6.273520
 20
1.081080
  0
SEQEND
  8
0
  0
SOLID
  8
0
 62
    15
 10
6.262080
 20
1.006720
 11
6.911960
 21
1.378080
 12
6.243600
 22
0.935000
 13
6.893480
 23
1.305920
  0
POLYLINE
  8
0
  6
CONTINUOUS
 66
     1
 40
0.000000
 41
0.000000
  0
VERTEX
  8
0
  6
CONTINUOUS
 10
6.262080
 20
1.006720
  0
VERTEX
  8
0
  6
CONTINUOUS
 10
6.911960
 20
1.378080
  0
VERTEX
  8
0
  6
CONTINUOUS
 10
6.893480
 20
1.305920
  0
VERTEX
  8
0
  6
CONTINUOUS
 10
6.243600
 20
0.935000
  0
VERTEX
  8
0
  6
CONTINUOUS
 10
6.262080
 20
1.006720
  0
SEQEND
  8
0
  0
SOLID
  8
0
 62
    15
 10
6.243600
 20
0.935000
 11
6.893480
 21
1.305920
 12
6.218520
 22
0.865920
 13
6.867960
 23
1.237280
  0
POLYLINE
  8
0
  6
CONTINUOUS
 66
     1
 40
0.000000
 41
0.000000
  0
VERTEX
  8
0
  6
CONTINUOUS
 10
6.243600
 20
0.935000
  0
VERTEX
  8
0
  6
CONTINUOUS
 10
6.893480
 20
1.305920
  0
VERTEX
  8
0
  6
CONTINUOUS
 10
6.867960
 20
1.237280
  0
VERTEX
  8
0
  6
CONTINUOUS
 10
6.218520
 20
0.865920
  0
VERTEX
  8
0
  6
CONTINUOUS
 10
6.243600
 20
0.935000
  0
SEQEND
  8
0
  0
SOLID
  8
0
 62
    15
 10
6.218520
 20
0.865920
 11
6.867960
 21
1.237280
 12
6.186840
 22
0.800360
 13
6.836720
 23
1.171720
  0
POLYLINE
  8
0
  6
CONTINUOUS
 66
     1
 40
0.000000
 41
0.000000
  0
VERTEX
  8
0
  6
CONTINUOUS
 10
6.218520
 20
0.865920
  0
VERTEX
  8
0
  6
CONTINUOUS
 10
6.867960
 20
1.237280
  0
VERTEX
  8
0
  6
CONTINUOUS
 10
6.836720
 20
1.171720
  0
VERTEX
  8
0
  6
CONTINUOUS
 10
6.186840
 20
0.800360
  0
VERTEX
  8
0
  6
CONTINUOUS
 10
6.218520
 20
0.865920
  0
SEQEND
  8
0
  0
SOLID
  8
0
 62
    15
 10
6.186840
 20
0.800360
 11
6.836720
 21
1.171720
 12
6.149440
 22
0.738760
 13
6.798880
 23
1.110120
  0
POLYLINE
  8
0
  6
CONTINUOUS
 66
     1
 40
0.000000
 41
0.000000
  0
VERTEX
  8
0
  6
CONTINUOUS
 10
6.186840
 20
0.800360
  0
VERTEX
  8
0
  6
CONTINUOUS
 10
6.836720
 20
1.171720
  0
VERTEX
  8
0
  6
CONTINUOUS
 10
6.798880
 20
1.110120
  0
VERTEX
  8
0
  6
CONTINUOUS
 10
6.149440
 20
0.738760
  0
VERTEX
  8
0
  6
CONTINUOUS
 10
6.186840
 20
0.800360
  0
SEQEND
  8
0
  0
SOLID
  8
0
 62
    15
 10
6.149440
 20
0.738760
 11
6.798880
 21
1.110120
 12
6.057920
 22
0.627880
 13
6.707360
 23
0.999240
  0
POLYLINE
  8
0
  6
CONTINUOUS
 66
     1
 40
0.000000
 41
0.000000
  0
VERTEX
  8
0
  6
CONTINUOUS
 10
6.149440
 20
0.738760
  0
VERTEX
  8
0
  6
CONTINUOUS
 10
6.798880
 20
1.110120
  0
VERTEX
  8
0
  6
CONTINUOUS
 10
6.707360
 20
0.999240
  0
VERTEX
  8
0
  6
CONTINUOUS
 10
6.057920
 20
0.627880
  0
VERTEX
  8
0
  6
CONTINUOUS
 10
6.149440
 20
0.738760
  0
SEQEND
  8
0
  0
SOLID
  8
0
 62
    15
 10
5.947040
 20
0.536360
 11
6.596480
 21
0.907720
 12
5.885440
 22
0.498520
 13
6.534880
 23
0.869880
  0
POLYLINE
  8
0
  6
CONTINUOUS
 66
     1
 40
0.000000
 41
0.000000
  0
VERTEX
  8
0
  6
CONTINUOUS
 10
5.947040
 20
0.536360
  0
VERTEX
  8
0
  6
CONTINUOUS
 10
6.596480
 20
0.907720
  0
VERTEX
  8
0
  6
CONTINUOUS
 10
6.534880
 20
0.869880
  0
VERTEX
  8
0
  6
CONTINUOUS
 10
5.885440
 20
0.498520
  0
VERTEX
  8
0
  6
CONTINUOUS
 10
5.947040
 20
0.536360
  0
SEQEND
  8
0
  0
SOLID
  8
0
 62
    15
 10
6.057920
 20
0.627880
 11
6.707360
 21
0.999240
 12
5.947040
 22
0.536360
 13
6.596480
 23
0.907720
  0
POLYLINE
  8
0
  6
CONTINUOUS
 66
     1
 40
0.000000
 41
0.000000
  0
VERTEX
  8
0
  6
CONTINUOUS
 10
6.057920
 20
0.627880
  0
VERTEX
  8
0
  6
CONTINUOUS
 10
6.707360
 20
0.999240
  0
VERTEX
  8
0
  6
CONTINUOUS
 10
6.596480
 20
0.907720
  0
VERTEX
  8
0
  6
CONTINUOUS
 10
5.947040
 20
0.536360
  0
VERTEX
  8
0
  6
CONTINUOUS
 10
6.057920
 20
0.627880
  0
SEQEND
  8
0
  0
POLYLINE
  8
0
  6
CONTINUOUS
 66
     1
 40
0.000000
 41
0.000000
  0
VERTEX
  8
0
  6
CONTINUOUS
 10
4.782360
 20
1.234200
  0
VERTEX
  8
0
  6
CONTINUOUS
 10
4.793800
 20
1.308560
  0
VERTEX
  8
0
  6
CONTINUOUS
 10
4.812280
 20
1.380280
  0
VERTEX
  8
0
  6
CONTINUOUS
 10
4.837360
 20
1.449360
  0
VERTEX
  8
0
  6
CONTINUOUS
 10
4.869040
 20
1.514920
  0
VERTEX
  8
0
  6
CONTINUOUS
 10
4.906440
 20
1.576520
  0
VERTEX
  8
0
  6
CONTINUOUS
 10
4.998400
 20
1.687400
  0
VERTEX
  8
0
  6
CONTINUOUS
 10
5.109280
 20
1.778920
  0
VERTEX
  8
0
  6
CONTINUOUS
 10
5.170880
 20
1.816760
  0
VERTEX
  8
0
  6
CONTINUOUS
 10
5.236440
 20
1.848000
  0
VERTEX
  8
0
  6
CONTINUOUS
 10
5.305080
 20
1.873520
  0
VERTEX
  8
0
  6
CONTINUOUS
 10
5.377240
 20
1.892000
  0
VERTEX
  8
0
  6
CONTINUOUS
 10
5.451600
 20
1.903000
  0
VERTEX
  8
0
  6
CONTINUOUS
 10
5.528160
 20
1.906960
  0
VERTEX
  8
0
  6
CONTINUOUS
 10
5.604720
 20
1.903000
  0
VERTEX
  8
0
  6
CONTINUOUS
 10
5.679080
 20
1.892000
  0
VERTEX
  8
0
  6
CONTINUOUS
 10
5.750800
 20
1.873520
  0
VERTEX
  8
0
  6
CONTINUOUS
 10
5.819880
 20
1.848000
  0
VERTEX
  8
0
  6
CONTINUOUS
 10
5.885440
 20
1.816760
  0
VERTEX
  8
0
  6
CONTINUOUS
 10
5.947040
 20
1.778920
  0
VERTEX
  8
0
  6
CONTINUOUS
 10
6.057920
 20
1.687400
  0
VERTEX
  8
0
  6
CONTINUOUS
 10
6.149440
 20
1.576520
  0
VERTEX
  8
0
  6
CONTINUOUS
 10
6.186840
 20
1.514920
  0
VERTEX
  8
0
  6
CONTINUOUS
 10
6.218520
 20
1.449360
  0
VERTEX
  8
0
  6
CONTINUOUS
 10
6.243600
 20
1.380280
  0
VERTEX
  8
0
  6
CONTINUOUS
 10
6.262080
 20
1.308560
  0
VERTEX
  8
0
  6
CONTINUOUS
 10
6.273520
 20
1.234200
  0
VERTEX
  8
0
  6
CONTINUOUS
 10
6.277480
 20
1.157640
  0
VERTEX
  8
0
  6
CONTINUOUS
 10
6.273520
 20
1.081080
  0
VERTEX
  8
0
  6
CONTINUOUS
 10
6.262080
 20
1.006720
  0
VERTEX
  8
0
  6
CONTINUOUS
 10
6.243600
 20
0.935000
  0
VERTEX
  8
0
  6
CONTINUOUS
 10
6.218520
 20
0.865920
  0
VERTEX
  8
0
  6
CONTINUOUS
 10
6.186840
 20
0.800360
  0
VERTEX
  8
0
  6
CONTINUOUS
 10
6.149440
 20
0.738760
  0
VERTEX
  8
0
  6
CONTINUOUS
 10
6.057920
 20
0.627880
  0
VERTEX
  8
0
  6
CONTINUOUS
 10
5.947040
 20
0.536360
  0
VERTEX
  8
0
  6
CONTINUOUS
 10
5.885440
 20
0.498520
  0
VERTEX
  8
0
  6
CONTINUOUS
 10
5.819880
 20
0.467280
  0
VERTEX
  8
0
  6
CONTINUOUS
 10
5.750800
 20
0.441760
  0
VERTEX
  8
0
  6
CONTINUOUS
 10
5.679080
 20
0.423280
  0
VERTEX
  8
0
  6
CONTINUOUS
 10
5.604720
 20
0.412280
  0
VERTEX
  8
0
  6
CONTINUOUS
 10
5.528160
 20
0.408320
  0
VERTEX
  8
0
  6
CONTINUOUS
 10
5.451600
 20
0.412280
  0
VERTEX
  8
0
  6
CONTINUOUS
 10
5.377240
 20
0.423280
  0
VERTEX
  8
0
  6
CONTINUOUS
 10
5.305080
 20
0.441760
  0
VERTEX
  8
0
  6
CONTINUOUS
 10
5.236440
 20
0.467280
  0
VERTEX
  8
0
  6
CONTINUOUS
 10
5.170880
 20
0.498520
  0
VERTEX
  8
0
  6
CONTINUOUS
 10
5.109280
 20
0.536360
  0
VERTEX
  8
0
  6
CONTINUOUS
 10
4.998400
 20
0.627880
  0
VERTEX
  8
0
  6
CONTINUOUS
 10
4.906440
 20
0.738760
  0
VERTEX
  8
0
  6
CONTINUOUS
 10
4.869040
 20
0.800360
  0
VERTEX
  8
0
  6
CONTINUOUS
 10
4.837360
 20
0.865920
  0
VERTEX
  8
0
  6
CONTINUOUS
 10
4.812280
 20
0.935000
  0
VERTEX
  8
0
  6
CONTINUOUS
 10
4.793800
 20
1.006720
  0
VERTEX
  8
0
  6
CONTINUOUS
 10
4.782360
 20
1.081080
  0
VERTEX
  8
0
  6
CONTINUOUS
 10
4.778840
 20
1.157640
  0
VERTEX
  8
0
  6
CONTINUOUS
 10
4.782360
 20
1.234200
  0
SEQEND
  8
0
  0
POLYLINE
  8
0
  6
DOT
 66
     1
 40
0.000000
 41
0.000000
  0
VERTEX
  8
0
  6
DOT
 10
4.778840
 20
1.157640
  0
VERTEX
  8
0
  6
DOT
 10
6.271760
 20
1.157640
  0
VERTEX
  8
0
  6
DOT
 10
6.232160
 20
1.157640
  0
SEQEND
  8
0
  0
TEXT
  8
0
 10
6.470640
 20
0.587840
 40
0.138140
  1
BA  347
 41
1.000000
  7
SN0
 71
     0
 72
     5
 11
7.061131
 21
0.587840
  0
TEXT
  8
0
 10
6.547640
 20
0.396440
 40
0.138140
  1
1-1/2"
 41
1.000000
  7
SN0
 71
     0
 72
     5
 11
6.984631
 21
0.396440
  0
ENDSEC
  0
EOF
