  0
SECTION
  2
HEADER
  9
$ACADVER
  1
AC1006
  9
$EXTMIN
 10
2.151160
 20
0.884840
  9
$EXTMAX
 10
7.351520
 20
5.170880
  9
$LTSCALE
 40
0.044000
  9
$PDMODE
 70
    35
  9
$PDSIZE
 40
0.035200
  0
ENDSEC
  0
SECTION
  2
TABLES
  0
TABLE
  2
LTYPE
 70
     9
  0
LTYPE
  2
CONTINUOUS
 70
    64
  3
Solid line
 72
    65
 73
     0
 40
0.000000
  0
LTYPE
  2
DASHED
 70
    64
  3
__ __ __ __ __ __ __ __ __ __ __ __ __ __ __
 72
    65
 73
     2
 40
0.000330
 49
0.000220
 49
-0.000110
  0
LTYPE
  2
HIDDEN
 70
    64
  3
 _ _ _ _ _ _ _ _ _ _ _ _ _ _ _ _ _ _ _ _ _ _
 72
    65
 73
     2
 40
0.000165
 49
0.000110
 49
-0.000055
  0
LTYPE
  2
CENTER
 70
    64
  3
____ _ ____ _ ____ _ ____ _ ____ _ ____ _ ____
 72
    65
 73
     4
 40
0.000880
 49
0.000550
 49
-0.000110
 49
0.000110
 49
-0.000110
  0
LTYPE
  2
PHANTOM
 70
    64
  3
_____ _ _ _____ _ _ _____ _ _ _____ _ _ ____
 72
    65
 73
     6
 40
0.001100
 49
0.000550
 49
-0.000110
 49
0.000110
 49
-0.000110
 49
0.000110
 49
-0.000110
  0
LTYPE
  2
DOT
 70
    64
  3
...............................................
 72
    65
 73
     2
 40
0.000110
 49
0.000000
 49
-0.000110
  0
LTYPE
  2
DASHDOT
 70
    64
  3
__ . __ . __ . __ . __ . __ . __ . __ . __ . __
 72
    65
 73
     4
 40
0.000440
 49
0.000220
 49
-0.000110
 49
0.000000
 49
-0.000110
  0
LTYPE
  2
BORDER
 70
    64
  3
__ __ . __ __ . __ __ . __ __ . __ __ . __ __
 72
    65
 73
     6
 40
0.000770
 49
0.000220
 49
-0.000110
 49
0.000220
 49
-0.000110
 49
0.000000
 49
-0.000110
  0
LTYPE
  2
DIVIDE
 70
    64
  3
__ . . __ . . __ . . __ . . __ . . __ . . __
 72
    65
 73
     6
 40
0.000550
 49
0.000220
 49
-0.000110
 49
0.000000
 49
-0.000110
 49
0.000000
 49
-0.000110
  0
LTYPE
  2
DOTDOT
 70
    64
  3
 . .  . .  . .  . .  . .  . . 
 72
    65
 73
     5
 40
0.000242
 49
-0.000110
 49
0.000000
 49
-0.000110
 49
0.000000
 49
-0.000110
  0
ENDTAB
  0
TABLE
  2
STYLE
 70
     2
  0
STYLE
 70
     0
  2
SN0
 40
0.000000
 41
0.000440
 50
0.000000
 71
     0
 42
0.000000
  3
ROMAND
  0
STYLE
 70
    68
  2
SV0
 40
0.000000
 41
0.000440
 50
0.000000
 71
     0
 42
0.000000
  3
ROMAND
  0
ENDTAB
  0
TABLE
  2
LAYER
 70
     3
  0
LAYER
  2
FOREGROUND
 70
    64
 62
     7
  6
CONTINUOUS
  0
LAYER
  2
BACKGROUND
 70
    65
 62
    -7
  6
CONTINUOUS
  0
LAYER
  2
0
 70
    64
 62
     7
  6
CONTINUOUS
  0
ENDTAB
  0
ENDSEC
  0
SECTION
  2
ENTITIES
  0
POLYLINE
  8
FOREGROUND
  6
CONTINUOUS
 66
     1
 40
0.000000
 41
0.000000
  0
VERTEX
  8
FOREGROUND
  6
CONTINUOUS
 10
0.000000
 20
6.055720
  0
VERTEX
  8
FOREGROUND
  6
CONTINUOUS
 10
8.499920
 20
6.055720
  0
VERTEX
  8
FOREGROUND
  6
CONTINUOUS
 10
8.499920
 20
-4.944280
  0
VERTEX
  8
FOREGROUND
  6
CONTINUOUS
 10
0.000000
 20
-4.944280
  0
VERTEX
  8
FOREGROUND
  6
CONTINUOUS
 10
0.000000
 20
6.055720
  0
SEQEND
  8
0
  0
POLYLINE
  8
FOREGROUND
  6
CONTINUOUS
 66
     1
 40
0.000000
 41
0.000000
  0
VERTEX
  8
FOREGROUND
  6
CONTINUOUS
 10
0.000000
 20
6.055720
  0
VERTEX
  8
FOREGROUND
  6
CONTINUOUS
 10
8.499920
 20
6.055720
  0
VERTEX
  8
FOREGROUND
  6
CONTINUOUS
 10
8.499920
 20
-4.944280
  0
VERTEX
  8
FOREGROUND
  6
CONTINUOUS
 10
0.000000
 20
-4.944280
  0
VERTEX
  8
FOREGROUND
  6
CONTINUOUS
 10
0.000000
 20
6.055720
  0
SEQEND
  8
0
  0
POLYLINE
  8
0
  6
CONTINUOUS
 66
     1
 40
0.014080
 41
0.014080
  0
VERTEX
  8
0
  6
CONTINUOUS
 10
4.826360
 20
4.447520
  0
VERTEX
  8
0
  6
CONTINUOUS
 10
4.850120
 20
4.477880
  0
VERTEX
  8
0
  6
CONTINUOUS
 10
4.873880
 20
4.499880
  0
VERTEX
  8
0
  6
CONTINUOUS
 10
4.885760
 20
4.507800
  0
VERTEX
  8
0
  6
CONTINUOUS
 10
4.898080
 20
4.513520
  0
VERTEX
  8
0
  6
CONTINUOUS
 10
4.910840
 20
4.517480
  0
VERTEX
  8
0
  6
CONTINUOUS
 10
4.924040
 20
4.519240
  0
VERTEX
  8
0
  6
CONTINUOUS
 10
4.938120
 20
4.518800
  0
VERTEX
  8
0
  6
CONTINUOUS
 10
4.961000
 20
4.513960
  0
VERTEX
  8
0
  6
CONTINUOUS
 10
4.995760
 20
4.499880
  0
VERTEX
  8
0
  6
CONTINUOUS
 10
5.035800
 20
4.477000
  0
VERTEX
  8
0
  6
CONTINUOUS
 10
5.118960
 20
4.422440
  0
VERTEX
  8
0
  6
CONTINUOUS
 10
5.166040
 20
4.397360
  0
VERTEX
  8
0
  6
CONTINUOUS
 10
5.211800
 20
4.378000
  0
VERTEX
  8
0
  6
CONTINUOUS
 10
5.256240
 20
4.363040
  0
VERTEX
  8
0
  6
CONTINUOUS
 10
5.298920
 20
4.352480
  0
VERTEX
  8
0
  6
CONTINUOUS
 10
5.360520
 20
4.344120
  0
VERTEX
  8
0
  6
CONTINUOUS
 10
5.400120
 20
4.342800
  0
VERTEX
  8
0
  6
CONTINUOUS
 10
5.419040
 20
4.343240
  0
VERTEX
  8
0
  6
CONTINUOUS
 10
5.419040
 20
4.258320
  0
VERTEX
  8
0
  6
CONTINUOUS
 10
6.916360
 20
4.258320
  0
VERTEX
  8
0
  6
CONTINUOUS
 10
6.947600
 20
4.164600
  0
VERTEX
  8
0
  6
CONTINUOUS
 10
7.043520
 20
4.164600
  0
VERTEX
  8
0
  6
CONTINUOUS
 10
7.049680
 20
4.191880
  0
VERTEX
  8
0
  6
CONTINUOUS
 10
7.060240
 20
4.214320
  0
VERTEX
  8
0
  6
CONTINUOUS
 10
7.074320
 20
4.232800
  0
VERTEX
  8
0
  6
CONTINUOUS
 10
7.091040
 20
4.246880
  0
VERTEX
  8
0
  6
CONTINUOUS
 10
7.110400
 20
4.256560
  0
VERTEX
  8
0
  6
CONTINUOUS
 10
7.131080
 20
4.262280
  0
VERTEX
  8
0
  6
CONTINUOUS
 10
7.153080
 20
4.263600
  0
VERTEX
  8
0
  6
CONTINUOUS
 10
7.175080
 20
4.260960
  0
VERTEX
  8
0
  6
CONTINUOUS
 10
7.197080
 20
4.253920
  0
VERTEX
  8
0
  6
CONTINUOUS
 10
7.217760
 20
4.242920
  0
VERTEX
  8
0
  6
CONTINUOUS
 10
7.237120
 20
4.227960
  0
VERTEX
  8
0
  6
CONTINUOUS
 10
7.254280
 20
4.209040
  0
VERTEX
  8
0
  6
CONTINUOUS
 10
7.268800
 20
4.186160
  0
VERTEX
  8
0
  6
CONTINUOUS
 10
7.279360
 20
4.159320
  0
VERTEX
  8
0
  6
CONTINUOUS
 10
7.286400
 20
4.128520
  0
VERTEX
  8
0
  6
CONTINUOUS
 10
7.288160
 20
4.093760
  0
VERTEX
  8
0
  6
CONTINUOUS
 10
7.288160
 20
3.863640
  0
VERTEX
  8
0
  6
CONTINUOUS
 10
2.819960
 20
3.863640
  0
VERTEX
  8
0
  6
CONTINUOUS
 10
2.819960
 20
4.550920
  0
VERTEX
  8
0
  6
CONTINUOUS
 10
4.717680
 20
4.550920
  0
VERTEX
  8
0
  6
CONTINUOUS
 10
4.717680
 20
4.445760
  0
VERTEX
  8
0
  6
CONTINUOUS
 10
4.826360
 20
4.445760
  0
SEQEND
  8
0
  0
POLYLINE
  8
0
  6
CONTINUOUS
 66
     1
 40
0.014080
 41
0.014080
  0
VERTEX
  8
0
  6
CONTINUOUS
 10
2.158640
 20
5.162960
  0
VERTEX
  8
0
  6
CONTINUOUS
 10
2.158640
 20
3.866280
  0
VERTEX
  8
0
  6
CONTINUOUS
 10
2.823920
 20
3.866280
  0
VERTEX
  8
0
  6
CONTINUOUS
 10
2.823920
 20
4.547400
  0
VERTEX
  8
0
  6
CONTINUOUS
 10
3.069880
 20
4.547400
  0
VERTEX
  8
0
  6
CONTINUOUS
 10
3.068560
 20
4.547840
  0
VERTEX
  8
0
  6
CONTINUOUS
 10
3.068560
 20
4.741440
  0
VERTEX
  8
0
  6
CONTINUOUS
 10
3.006960
 20
4.748480
  0
VERTEX
  8
0
  6
CONTINUOUS
 10
2.940960
 20
4.762560
  0
VERTEX
  8
0
  6
CONTINUOUS
 10
2.886400
 20
4.781480
  0
VERTEX
  8
0
  6
CONTINUOUS
 10
2.851640
 20
4.798200
  0
VERTEX
  8
0
  6
CONTINUOUS
 10
2.812480
 20
4.823280
  0
VERTEX
  8
0
  6
CONTINUOUS
 10
2.779920
 20
4.851000
  0
VERTEX
  8
0
  6
CONTINUOUS
 10
2.753080
 20
4.880040
  0
VERTEX
  8
0
  6
CONTINUOUS
 10
2.676960
 20
4.983440
  0
VERTEX
  8
0
  6
CONTINUOUS
 10
2.653640
 20
5.009840
  0
VERTEX
  8
0
  6
CONTINUOUS
 10
2.627240
 20
5.033160
  0
VERTEX
  8
0
  6
CONTINUOUS
 10
2.595560
 20
5.053400
  0
VERTEX
  8
0
  6
CONTINUOUS
 10
2.577520
 20
5.061760
  0
VERTEX
  8
0
  6
CONTINUOUS
 10
2.546720
 20
5.071880
  0
VERTEX
  8
0
  6
CONTINUOUS
 10
2.511080
 20
5.078920
  0
VERTEX
  8
0
  6
CONTINUOUS
 10
2.470160
 20
5.082440
  0
VERTEX
  8
0
  6
CONTINUOUS
 10
2.451240
 20
5.082880
  0
VERTEX
  8
0
  6
CONTINUOUS
 10
2.407240
 20
5.162520
  0
VERTEX
  8
0
  6
CONTINUOUS
 10
2.158640
 20
5.162960
  0
SEQEND
  8
0
  0
TEXT
  8
0
 10
4.047560
 20
1.119800
 40
0.138010
  1
BA  191 15/16" x 1-5/16"
 41
1.000000
  7
SN0
 71
     0
 72
     5
 11
5.862486
 21
1.119800
  0
TEXT
  8
0
 10
4.047560
 20
0.927960
 40
0.138010
  1
BA  346 11/16" x 4-1/2"
 41
1.000000
  7
SN0
 71
     0
 72
     5
 11
5.770179
 21
0.927960
  0
SOLID
  8
0
 62
    15
 10
7.100720
 20
1.668480
 11
7.106880
 21
2.417800
 12
7.106880
 22
1.695760
 13
7.113040
 23
2.445080
  0
POLYLINE
  8
0
  6
CONTINUOUS
 66
     1
 40
0.000000
 41
0.000000
  0
VERTEX
  8
0
  6
CONTINUOUS
 10
7.100720
 20
1.668480
  0
VERTEX
  8
0
  6
CONTINUOUS
 10
7.106880
 20
2.417800
  0
VERTEX
  8
0
  6
CONTINUOUS
 10
7.113040
 20
2.445080
  0
VERTEX
  8
0
  6
CONTINUOUS
 10
7.106880
 20
1.695760
  0
VERTEX
  8
0
  6
CONTINUOUS
 10
7.100720
 20
1.668480
  0
SEQEND
  8
0
  0
SOLID
  8
0
 62
    15
 10
4.907760
 20
1.981320
 11
4.913480
 21
2.730640
 12
4.931080
 22
2.003320
 13
4.937240
 23
2.753080
  0
POLYLINE
  8
0
  6
CONTINUOUS
 66
     1
 40
0.000000
 41
0.000000
  0
VERTEX
  8
0
  6
CONTINUOUS
 10
4.907760
 20
1.981320
  0
VERTEX
  8
0
  6
CONTINUOUS
 10
4.913480
 20
2.730640
  0
VERTEX
  8
0
  6
CONTINUOUS
 10
4.937240
 20
2.753080
  0
VERTEX
  8
0
  6
CONTINUOUS
 10
4.931080
 20
2.003320
  0
VERTEX
  8
0
  6
CONTINUOUS
 10
4.907760
 20
1.981320
  0
SEQEND
  8
0
  0
SOLID
  8
0
 62
    15
 10
4.931080
 20
2.003320
 11
4.937240
 21
2.753080
 12
4.955280
 22
2.017400
 13
4.961440
 23
2.766720
  0
POLYLINE
  8
0
  6
CONTINUOUS
 66
     1
 40
0.000000
 41
0.000000
  0
VERTEX
  8
0
  6
CONTINUOUS
 10
4.931080
 20
2.003320
  0
VERTEX
  8
0
  6
CONTINUOUS
 10
4.937240
 20
2.753080
  0
VERTEX
  8
0
  6
CONTINUOUS
 10
4.961440
 20
2.766720
  0
VERTEX
  8
0
  6
CONTINUOUS
 10
4.955280
 20
2.017400
  0
VERTEX
  8
0
  6
CONTINUOUS
 10
4.931080
 20
2.003320
  0
SEQEND
  8
0
  0
SOLID
  8
0
 62
    15
 10
4.955280
 20
2.017400
 11
4.961440
 21
2.766720
 12
4.981680
 22
2.022680
 13
4.987400
 23
2.772000
  0
POLYLINE
  8
0
  6
CONTINUOUS
 66
     1
 40
0.000000
 41
0.000000
  0
VERTEX
  8
0
  6
CONTINUOUS
 10
4.955280
 20
2.017400
  0
VERTEX
  8
0
  6
CONTINUOUS
 10
4.961440
 20
2.766720
  0
VERTEX
  8
0
  6
CONTINUOUS
 10
4.987400
 20
2.772000
  0
VERTEX
  8
0
  6
CONTINUOUS
 10
4.981680
 20
2.022680
  0
VERTEX
  8
0
  6
CONTINUOUS
 10
4.955280
 20
2.017400
  0
SEQEND
  8
0
  0
SOLID
  8
0
 62
    15
 10
4.981680
 20
2.022680
 11
4.987400
 21
2.772000
 12
5.010720
 22
2.019600
 13
5.016440
 23
2.768920
  0
POLYLINE
  8
0
  6
CONTINUOUS
 66
     1
 40
0.000000
 41
0.000000
  0
VERTEX
  8
0
  6
CONTINUOUS
 10
4.981680
 20
2.022680
  0
VERTEX
  8
0
  6
CONTINUOUS
 10
4.987400
 20
2.772000
  0
VERTEX
  8
0
  6
CONTINUOUS
 10
5.016440
 20
2.768920
  0
VERTEX
  8
0
  6
CONTINUOUS
 10
5.010720
 20
2.019600
  0
VERTEX
  8
0
  6
CONTINUOUS
 10
4.981680
 20
2.022680
  0
SEQEND
  8
0
  0
SOLID
  8
0
 62
    15
 10
5.010720
 20
2.019600
 11
5.016440
 21
2.768920
 12
5.044160
 22
2.007720
 13
5.049880
 23
2.757480
  0
POLYLINE
  8
0
  6
CONTINUOUS
 66
     1
 40
0.000000
 41
0.000000
  0
VERTEX
  8
0
  6
CONTINUOUS
 10
5.010720
 20
2.019600
  0
VERTEX
  8
0
  6
CONTINUOUS
 10
5.016440
 20
2.768920
  0
VERTEX
  8
0
  6
CONTINUOUS
 10
5.049880
 20
2.757480
  0
VERTEX
  8
0
  6
CONTINUOUS
 10
5.044160
 20
2.007720
  0
VERTEX
  8
0
  6
CONTINUOUS
 10
5.010720
 20
2.019600
  0
SEQEND
  8
0
  0
SOLID
  8
0
 62
    15
 10
5.044160
 20
2.007720
 11
5.049880
 21
2.757480
 12
5.082880
 22
1.987040
 13
5.088600
 23
2.736800
  0
POLYLINE
  8
0
  6
CONTINUOUS
 66
     1
 40
0.000000
 41
0.000000
  0
VERTEX
  8
0
  6
CONTINUOUS
 10
5.044160
 20
2.007720
  0
VERTEX
  8
0
  6
CONTINUOUS
 10
5.049880
 20
2.757480
  0
VERTEX
  8
0
  6
CONTINUOUS
 10
5.088600
 20
2.736800
  0
VERTEX
  8
0
  6
CONTINUOUS
 10
5.082880
 20
1.987040
  0
VERTEX
  8
0
  6
CONTINUOUS
 10
5.044160
 20
2.007720
  0
SEQEND
  8
0
  0
SOLID
  8
0
 62
    15
 10
5.082880
 20
1.987040
 11
5.088600
 21
2.736800
 12
5.128200
 22
1.957560
 13
5.133920
 23
2.706880
  0
POLYLINE
  8
0
  6
CONTINUOUS
 66
     1
 40
0.000000
 41
0.000000
  0
VERTEX
  8
0
  6
CONTINUOUS
 10
5.082880
 20
1.987040
  0
VERTEX
  8
0
  6
CONTINUOUS
 10
5.088600
 20
2.736800
  0
VERTEX
  8
0
  6
CONTINUOUS
 10
5.133920
 20
2.706880
  0
VERTEX
  8
0
  6
CONTINUOUS
 10
5.128200
 20
1.957560
  0
VERTEX
  8
0
  6
CONTINUOUS
 10
5.082880
 20
1.987040
  0
SEQEND
  8
0
  0
SOLID
  8
0
 62
    15
 10
5.128200
 20
1.957560
 11
5.133920
 21
2.706880
 12
5.176160
 22
1.926760
 13
5.182320
 23
2.676080
  0
POLYLINE
  8
0
  6
CONTINUOUS
 66
     1
 40
0.000000
 41
0.000000
  0
VERTEX
  8
0
  6
CONTINUOUS
 10
5.128200
 20
1.957560
  0
VERTEX
  8
0
  6
CONTINUOUS
 10
5.133920
 20
2.706880
  0
VERTEX
  8
0
  6
CONTINUOUS
 10
5.182320
 20
2.676080
  0
VERTEX
  8
0
  6
CONTINUOUS
 10
5.176160
 20
1.926760
  0
VERTEX
  8
0
  6
CONTINUOUS
 10
5.128200
 20
1.957560
  0
SEQEND
  8
0
  0
SOLID
  8
0
 62
    15
 10
5.176160
 20
1.926760
 11
5.182320
 21
2.676080
 12
5.223240
 22
1.901240
 13
5.229400
 23
2.651000
  0
POLYLINE
  8
0
  6
CONTINUOUS
 66
     1
 40
0.000000
 41
0.000000
  0
VERTEX
  8
0
  6
CONTINUOUS
 10
5.176160
 20
1.926760
  0
VERTEX
  8
0
  6
CONTINUOUS
 10
5.182320
 20
2.676080
  0
VERTEX
  8
0
  6
CONTINUOUS
 10
5.229400
 20
2.651000
  0
VERTEX
  8
0
  6
CONTINUOUS
 10
5.223240
 20
1.901240
  0
VERTEX
  8
0
  6
CONTINUOUS
 10
5.176160
 20
1.926760
  0
SEQEND
  8
0
  0
SOLID
  8
0
 62
    15
 10
5.223240
 20
1.901240
 11
5.229400
 21
2.651000
 12
5.269000
 22
1.881880
 13
5.275160
 23
2.631200
  0
POLYLINE
  8
0
  6
CONTINUOUS
 66
     1
 40
0.000000
 41
0.000000
  0
VERTEX
  8
0
  6
CONTINUOUS
 10
5.223240
 20
1.901240
  0
VERTEX
  8
0
  6
CONTINUOUS
 10
5.229400
 20
2.651000
  0
VERTEX
  8
0
  6
CONTINUOUS
 10
5.275160
 20
2.631200
  0
VERTEX
  8
0
  6
CONTINUOUS
 10
5.269000
 20
1.881880
  0
VERTEX
  8
0
  6
CONTINUOUS
 10
5.223240
 20
1.901240
  0
SEQEND
  8
0
  0
SOLID
  8
0
 62
    15
 10
5.269000
 20
1.881880
 11
5.275160
 21
2.631200
 12
5.313440
 22
1.866920
 13
5.319160
 23
2.616240
  0
POLYLINE
  8
0
  6
CONTINUOUS
 66
     1
 40
0.000000
 41
0.000000
  0
VERTEX
  8
0
  6
CONTINUOUS
 10
5.269000
 20
1.881880
  0
VERTEX
  8
0
  6
CONTINUOUS
 10
5.275160
 20
2.631200
  0
VERTEX
  8
0
  6
CONTINUOUS
 10
5.319160
 20
2.616240
  0
VERTEX
  8
0
  6
CONTINUOUS
 10
5.313440
 20
1.866920
  0
VERTEX
  8
0
  6
CONTINUOUS
 10
5.269000
 20
1.881880
  0
SEQEND
  8
0
  0
SOLID
  8
0
 62
    15
 10
5.313440
 20
1.866920
 11
5.319160
 21
2.616240
 12
5.356120
 22
1.856360
 13
5.362280
 23
2.605680
  0
POLYLINE
  8
0
  6
CONTINUOUS
 66
     1
 40
0.000000
 41
0.000000
  0
VERTEX
  8
0
  6
CONTINUOUS
 10
5.313440
 20
1.866920
  0
VERTEX
  8
0
  6
CONTINUOUS
 10
5.319160
 20
2.616240
  0
VERTEX
  8
0
  6
CONTINUOUS
 10
5.362280
 20
2.605680
  0
VERTEX
  8
0
  6
CONTINUOUS
 10
5.356120
 20
1.856360
  0
VERTEX
  8
0
  6
CONTINUOUS
 10
5.313440
 20
1.866920
  0
SEQEND
  8
0
  0
SOLID
  8
0
 62
    15
 10
5.356120
 20
1.856360
 11
5.362280
 21
2.605680
 12
5.397920
 22
1.849760
 13
5.403640
 23
2.599520
  0
POLYLINE
  8
0
  6
CONTINUOUS
 66
     1
 40
0.000000
 41
0.000000
  0
VERTEX
  8
0
  6
CONTINUOUS
 10
5.356120
 20
1.856360
  0
VERTEX
  8
0
  6
CONTINUOUS
 10
5.362280
 20
2.605680
  0
VERTEX
  8
0
  6
CONTINUOUS
 10
5.403640
 20
2.599520
  0
VERTEX
  8
0
  6
CONTINUOUS
 10
5.397920
 20
1.849760
  0
VERTEX
  8
0
  6
CONTINUOUS
 10
5.356120
 20
1.856360
  0
SEQEND
  8
0
  0
SOLID
  8
0
 62
    15
 10
5.397920
 20
1.849760
 11
5.403640
 21
2.599520
 12
5.437960
 22
1.847120
 13
5.444120
 23
2.596440
  0
POLYLINE
  8
0
  6
CONTINUOUS
 66
     1
 40
0.000000
 41
0.000000
  0
VERTEX
  8
0
  6
CONTINUOUS
 10
5.397920
 20
1.849760
  0
VERTEX
  8
0
  6
CONTINUOUS
 10
5.403640
 20
2.599520
  0
VERTEX
  8
0
  6
CONTINUOUS
 10
5.444120
 20
2.596440
  0
VERTEX
  8
0
  6
CONTINUOUS
 10
5.437960
 20
1.847120
  0
VERTEX
  8
0
  6
CONTINUOUS
 10
5.397920
 20
1.849760
  0
SEQEND
  8
0
  0
SOLID
  8
0
 62
    15
 10
7.005240
 20
1.668480
 11
7.010960
 21
2.417800
 12
7.100720
 22
1.668480
 13
7.106880
 23
2.417800
  0
POLYLINE
  8
0
  6
CONTINUOUS
 66
     1
 40
0.000000
 41
0.000000
  0
VERTEX
  8
0
  6
CONTINUOUS
 10
7.005240
 20
1.668480
  0
VERTEX
  8
0
  6
CONTINUOUS
 10
7.010960
 20
2.417800
  0
VERTEX
  8
0
  6
CONTINUOUS
 10
7.106880
 20
2.417800
  0
VERTEX
  8
0
  6
CONTINUOUS
 10
7.100720
 20
1.668480
  0
VERTEX
  8
0
  6
CONTINUOUS
 10
7.005240
 20
1.668480
  0
SEQEND
  8
0
  0
SOLID
  8
0
 62
    15
 10
6.973560
 20
1.762200
 11
6.979720
 21
2.511520
 12
7.005240
 22
1.668480
 13
7.010960
 23
2.417800
  0
POLYLINE
  8
0
  6
CONTINUOUS
 66
     1
 40
0.000000
 41
0.000000
  0
VERTEX
  8
0
  6
CONTINUOUS
 10
6.973560
 20
1.762200
  0
VERTEX
  8
0
  6
CONTINUOUS
 10
6.979720
 20
2.511520
  0
VERTEX
  8
0
  6
CONTINUOUS
 10
7.010960
 20
2.417800
  0
VERTEX
  8
0
  6
CONTINUOUS
 10
7.005240
 20
1.668480
  0
VERTEX
  8
0
  6
CONTINUOUS
 10
6.973560
 20
1.762200
  0
SEQEND
  8
0
  0
SOLID
  8
0
 62
    15
 10
5.476680
 20
1.762200
 11
5.482400
 21
2.511520
 12
6.973560
 22
1.762200
 13
6.979720
 23
2.511520
  0
POLYLINE
  8
0
  6
CONTINUOUS
 66
     1
 40
0.000000
 41
0.000000
  0
VERTEX
  8
0
  6
CONTINUOUS
 10
5.476680
 20
1.762200
  0
VERTEX
  8
0
  6
CONTINUOUS
 10
5.482400
 20
2.511520
  0
VERTEX
  8
0
  6
CONTINUOUS
 10
6.979720
 20
2.511520
  0
VERTEX
  8
0
  6
CONTINUOUS
 10
6.973560
 20
1.762200
  0
VERTEX
  8
0
  6
CONTINUOUS
 10
5.476680
 20
1.762200
  0
SEQEND
  8
0
  0
SOLID
  8
0
 62
    15
 10
5.476680
 20
1.846680
 11
5.482400
 21
2.596440
 12
5.476680
 22
1.762200
 13
5.482400
 23
2.511520
  0
POLYLINE
  8
0
  6
CONTINUOUS
 66
     1
 40
0.000000
 41
0.000000
  0
VERTEX
  8
0
  6
CONTINUOUS
 10
5.476680
 20
1.846680
  0
VERTEX
  8
0
  6
CONTINUOUS
 10
5.482400
 20
2.596440
  0
VERTEX
  8
0
  6
CONTINUOUS
 10
5.482400
 20
2.511520
  0
VERTEX
  8
0
  6
CONTINUOUS
 10
5.476680
 20
1.762200
  0
VERTEX
  8
0
  6
CONTINUOUS
 10
5.476680
 20
1.846680
  0
SEQEND
  8
0
  0
SOLID
  8
0
 62
    15
 10
5.437960
 20
1.847120
 11
5.444120
 21
2.596440
 12
5.476680
 22
1.846680
 13
5.482400
 23
2.596440
  0
POLYLINE
  8
0
  6
CONTINUOUS
 66
     1
 40
0.000000
 41
0.000000
  0
VERTEX
  8
0
  6
CONTINUOUS
 10
5.437960
 20
1.847120
  0
VERTEX
  8
0
  6
CONTINUOUS
 10
5.444120
 20
2.596440
  0
VERTEX
  8
0
  6
CONTINUOUS
 10
5.482400
 20
2.596440
  0
VERTEX
  8
0
  6
CONTINUOUS
 10
5.476680
 20
1.846680
  0
VERTEX
  8
0
  6
CONTINUOUS
 10
5.437960
 20
1.847120
  0
SEQEND
  8
0
  0
SOLID
  8
0
 62
    15
 10
4.774880
 20
1.949200
 11
4.781040
 21
2.698960
 12
4.883560
 22
1.949200
 13
4.889720
 23
2.698960
  0
POLYLINE
  8
0
  6
CONTINUOUS
 66
     1
 40
0.000000
 41
0.000000
  0
VERTEX
  8
0
  6
CONTINUOUS
 10
4.774880
 20
1.949200
  0
VERTEX
  8
0
  6
CONTINUOUS
 10
4.781040
 20
2.698960
  0
VERTEX
  8
0
  6
CONTINUOUS
 10
4.889720
 20
2.698960
  0
VERTEX
  8
0
  6
CONTINUOUS
 10
4.883560
 20
1.949200
  0
VERTEX
  8
0
  6
CONTINUOUS
 10
4.774880
 20
1.949200
  0
SEQEND
  8
0
  0
SOLID
  8
0
 62
    15
 10
7.106880
 20
1.695760
 11
7.113040
 21
2.445080
 12
7.117440
 22
1.718200
 13
7.123600
 23
2.467520
  0
POLYLINE
  8
0
  6
CONTINUOUS
 66
     1
 40
0.000000
 41
0.000000
  0
VERTEX
  8
0
  6
CONTINUOUS
 10
7.106880
 20
1.695760
  0
VERTEX
  8
0
  6
CONTINUOUS
 10
7.113040
 20
2.445080
  0
VERTEX
  8
0
  6
CONTINUOUS
 10
7.123600
 20
2.467520
  0
VERTEX
  8
0
  6
CONTINUOUS
 10
7.117440
 20
1.718200
  0
VERTEX
  8
0
  6
CONTINUOUS
 10
7.106880
 20
1.695760
  0
SEQEND
  8
0
  0
SOLID
  8
0
 62
    15
 10
7.117440
 20
1.718200
 11
7.123600
 21
2.467520
 12
7.131520
 22
1.736680
 13
7.137680
 23
2.486000
  0
POLYLINE
  8
0
  6
CONTINUOUS
 66
     1
 40
0.000000
 41
0.000000
  0
VERTEX
  8
0
  6
CONTINUOUS
 10
7.117440
 20
1.718200
  0
VERTEX
  8
0
  6
CONTINUOUS
 10
7.123600
 20
2.467520
  0
VERTEX
  8
0
  6
CONTINUOUS
 10
7.137680
 20
2.486000
  0
VERTEX
  8
0
  6
CONTINUOUS
 10
7.131520
 20
1.736680
  0
VERTEX
  8
0
  6
CONTINUOUS
 10
7.117440
 20
1.718200
  0
SEQEND
  8
0
  0
SOLID
  8
0
 62
    15
 10
7.131520
 20
1.736680
 11
7.137680
 21
2.486000
 12
7.148680
 22
1.750760
 13
7.154400
 23
2.500080
  0
POLYLINE
  8
0
  6
CONTINUOUS
 66
     1
 40
0.000000
 41
0.000000
  0
VERTEX
  8
0
  6
CONTINUOUS
 10
7.131520
 20
1.736680
  0
VERTEX
  8
0
  6
CONTINUOUS
 10
7.137680
 20
2.486000
  0
VERTEX
  8
0
  6
CONTINUOUS
 10
7.154400
 20
2.500080
  0
VERTEX
  8
0
  6
CONTINUOUS
 10
7.148680
 20
1.750760
  0
VERTEX
  8
0
  6
CONTINUOUS
 10
7.131520
 20
1.736680
  0
SEQEND
  8
0
  0
SOLID
  8
0
 62
    15
 10
7.148680
 20
1.750760
 11
7.154400
 21
2.500080
 12
7.167600
 22
1.760440
 13
7.173760
 23
2.509760
  0
POLYLINE
  8
0
  6
CONTINUOUS
 66
     1
 40
0.000000
 41
0.000000
  0
VERTEX
  8
0
  6
CONTINUOUS
 10
7.148680
 20
1.750760
  0
VERTEX
  8
0
  6
CONTINUOUS
 10
7.154400
 20
2.500080
  0
VERTEX
  8
0
  6
CONTINUOUS
 10
7.173760
 20
2.509760
  0
VERTEX
  8
0
  6
CONTINUOUS
 10
7.167600
 20
1.760440
  0
VERTEX
  8
0
  6
CONTINUOUS
 10
7.148680
 20
1.750760
  0
SEQEND
  8
0
  0
SOLID
  8
0
 62
    15
 10
7.167600
 20
1.760440
 11
7.173760
 21
2.509760
 12
7.188280
 22
1.766160
 13
7.194440
 23
2.515480
  0
POLYLINE
  8
0
  6
CONTINUOUS
 66
     1
 40
0.000000
 41
0.000000
  0
VERTEX
  8
0
  6
CONTINUOUS
 10
7.167600
 20
1.760440
  0
VERTEX
  8
0
  6
CONTINUOUS
 10
7.173760
 20
2.509760
  0
VERTEX
  8
0
  6
CONTINUOUS
 10
7.194440
 20
2.515480
  0
VERTEX
  8
0
  6
CONTINUOUS
 10
7.188280
 20
1.766160
  0
VERTEX
  8
0
  6
CONTINUOUS
 10
7.167600
 20
1.760440
  0
SEQEND
  8
0
  0
SOLID
  8
0
 62
    15
 10
7.188280
 20
1.766160
 11
7.194440
 21
2.515480
 12
7.210280
 22
1.767480
 13
7.216440
 23
2.516800
  0
POLYLINE
  8
0
  6
CONTINUOUS
 66
     1
 40
0.000000
 41
0.000000
  0
VERTEX
  8
0
  6
CONTINUOUS
 10
7.188280
 20
1.766160
  0
VERTEX
  8
0
  6
CONTINUOUS
 10
7.194440
 20
2.515480
  0
VERTEX
  8
0
  6
CONTINUOUS
 10
7.216440
 20
2.516800
  0
VERTEX
  8
0
  6
CONTINUOUS
 10
7.210280
 20
1.767480
  0
VERTEX
  8
0
  6
CONTINUOUS
 10
7.188280
 20
1.766160
  0
SEQEND
  8
0
  0
SOLID
  8
0
 62
    15
 10
7.210280
 20
1.767480
 11
7.216440
 21
2.516800
 12
7.232280
 22
1.764400
 13
7.238440
 23
2.514160
  0
POLYLINE
  8
0
  6
CONTINUOUS
 66
     1
 40
0.000000
 41
0.000000
  0
VERTEX
  8
0
  6
CONTINUOUS
 10
7.210280
 20
1.767480
  0
VERTEX
  8
0
  6
CONTINUOUS
 10
7.216440
 20
2.516800
  0
VERTEX
  8
0
  6
CONTINUOUS
 10
7.238440
 20
2.514160
  0
VERTEX
  8
0
  6
CONTINUOUS
 10
7.232280
 20
1.764400
  0
VERTEX
  8
0
  6
CONTINUOUS
 10
7.210280
 20
1.767480
  0
SEQEND
  8
0
  0
SOLID
  8
0
 62
    15
 10
7.232280
 20
1.764400
 11
7.238440
 21
2.514160
 12
7.254280
 22
1.757800
 13
7.260440
 23
2.507120
  0
POLYLINE
  8
0
  6
CONTINUOUS
 66
     1
 40
0.000000
 41
0.000000
  0
VERTEX
  8
0
  6
CONTINUOUS
 10
7.232280
 20
1.764400
  0
VERTEX
  8
0
  6
CONTINUOUS
 10
7.238440
 20
2.514160
  0
VERTEX
  8
0
  6
CONTINUOUS
 10
7.260440
 20
2.507120
  0
VERTEX
  8
0
  6
CONTINUOUS
 10
7.254280
 20
1.757800
  0
VERTEX
  8
0
  6
CONTINUOUS
 10
7.232280
 20
1.764400
  0
SEQEND
  8
0
  0
SOLID
  8
0
 62
    15
 10
7.254280
 20
1.757800
 11
7.260440
 21
2.507120
 12
7.274960
 22
1.746800
 13
7.281120
 23
2.496120
  0
POLYLINE
  8
0
  6
CONTINUOUS
 66
     1
 40
0.000000
 41
0.000000
  0
VERTEX
  8
0
  6
CONTINUOUS
 10
7.254280
 20
1.757800
  0
VERTEX
  8
0
  6
CONTINUOUS
 10
7.260440
 20
2.507120
  0
VERTEX
  8
0
  6
CONTINUOUS
 10
7.281120
 20
2.496120
  0
VERTEX
  8
0
  6
CONTINUOUS
 10
7.274960
 20
1.746800
  0
VERTEX
  8
0
  6
CONTINUOUS
 10
7.254280
 20
1.757800
  0
SEQEND
  8
0
  0
SOLID
  8
0
 62
    15
 10
7.274960
 20
1.746800
 11
7.281120
 21
2.496120
 12
7.294320
 22
1.731840
 13
7.300480
 23
2.481160
  0
POLYLINE
  8
0
  6
CONTINUOUS
 66
     1
 40
0.000000
 41
0.000000
  0
VERTEX
  8
0
  6
CONTINUOUS
 10
7.274960
 20
1.746800
  0
VERTEX
  8
0
  6
CONTINUOUS
 10
7.281120
 20
2.496120
  0
VERTEX
  8
0
  6
CONTINUOUS
 10
7.300480
 20
2.481160
  0
VERTEX
  8
0
  6
CONTINUOUS
 10
7.294320
 20
1.731840
  0
VERTEX
  8
0
  6
CONTINUOUS
 10
7.274960
 20
1.746800
  0
SEQEND
  8
0
  0
SOLID
  8
0
 62
    15
 10
7.294320
 20
1.731840
 11
7.300480
 21
2.481160
 12
7.311480
 22
1.712920
 13
7.317640
 23
2.462240
  0
POLYLINE
  8
0
  6
CONTINUOUS
 66
     1
 40
0.000000
 41
0.000000
  0
VERTEX
  8
0
  6
CONTINUOUS
 10
7.294320
 20
1.731840
  0
VERTEX
  8
0
  6
CONTINUOUS
 10
7.300480
 20
2.481160
  0
VERTEX
  8
0
  6
CONTINUOUS
 10
7.317640
 20
2.462240
  0
VERTEX
  8
0
  6
CONTINUOUS
 10
7.311480
 20
1.712920
  0
VERTEX
  8
0
  6
CONTINUOUS
 10
7.294320
 20
1.731840
  0
SEQEND
  8
0
  0
SOLID
  8
0
 62
    15
 10
7.326000
 20
1.690040
 11
7.331720
 21
2.439360
 12
7.336560
 22
1.663200
 13
7.342720
 23
2.412520
  0
POLYLINE
  8
0
  6
CONTINUOUS
 66
     1
 40
0.000000
 41
0.000000
  0
VERTEX
  8
0
  6
CONTINUOUS
 10
7.326000
 20
1.690040
  0
VERTEX
  8
0
  6
CONTINUOUS
 10
7.331720
 20
2.439360
  0
VERTEX
  8
0
  6
CONTINUOUS
 10
7.342720
 20
2.412520
  0
VERTEX
  8
0
  6
CONTINUOUS
 10
7.336560
 20
1.663200
  0
VERTEX
  8
0
  6
CONTINUOUS
 10
7.326000
 20
1.690040
  0
SEQEND
  8
0
  0
SOLID
  8
0
 62
    15
 10
7.311480
 20
1.712920
 11
7.317640
 21
2.462240
 12
7.326000
 22
1.690040
 13
7.331720
 23
2.439360
  0
POLYLINE
  8
0
  6
CONTINUOUS
 66
     1
 40
0.000000
 41
0.000000
  0
VERTEX
  8
0
  6
CONTINUOUS
 10
7.311480
 20
1.712920
  0
VERTEX
  8
0
  6
CONTINUOUS
 10
7.317640
 20
2.462240
  0
VERTEX
  8
0
  6
CONTINUOUS
 10
7.331720
 20
2.439360
  0
VERTEX
  8
0
  6
CONTINUOUS
 10
7.326000
 20
1.690040
  0
VERTEX
  8
0
  6
CONTINUOUS
 10
7.311480
 20
1.712920
  0
SEQEND
  8
0
  0
SOLID
  8
0
 62
    15
 10
7.336560
 20
1.663200
 11
7.342720
 21
2.412520
 12
7.343600
 22
1.632400
 13
7.349320
 23
2.381720
  0
POLYLINE
  8
0
  6
CONTINUOUS
 66
     1
 40
0.000000
 41
0.000000
  0
VERTEX
  8
0
  6
CONTINUOUS
 10
7.336560
 20
1.663200
  0
VERTEX
  8
0
  6
CONTINUOUS
 10
7.342720
 20
2.412520
  0
VERTEX
  8
0
  6
CONTINUOUS
 10
7.349320
 20
2.381720
  0
VERTEX
  8
0
  6
CONTINUOUS
 10
7.343600
 20
1.632400
  0
VERTEX
  8
0
  6
CONTINUOUS
 10
7.336560
 20
1.663200
  0
SEQEND
  8
0
  0
SOLID
  8
0
 62
    15
 10
7.343600
 20
1.632400
 11
7.349320
 21
2.381720
 12
7.345360
 22
1.597640
 13
7.351520
 23
2.346960
  0
POLYLINE
  8
0
  6
CONTINUOUS
 66
     1
 40
0.000000
 41
0.000000
  0
VERTEX
  8
0
  6
CONTINUOUS
 10
7.343600
 20
1.632400
  0
VERTEX
  8
0
  6
CONTINUOUS
 10
7.349320
 20
2.381720
  0
VERTEX
  8
0
  6
CONTINUOUS
 10
7.351520
 20
2.346960
  0
VERTEX
  8
0
  6
CONTINUOUS
 10
7.345360
 20
1.597640
  0
VERTEX
  8
0
  6
CONTINUOUS
 10
7.343600
 20
1.632400
  0
SEQEND
  8
0
  0
SOLID
  8
0
 62
    15
 10
7.345360
 20
1.597640
 11
7.351520
 21
2.346960
 12
7.345360
 22
1.367080
 13
7.351520
 23
2.116840
  0
POLYLINE
  8
0
  6
CONTINUOUS
 66
     1
 40
0.000000
 41
0.000000
  0
VERTEX
  8
0
  6
CONTINUOUS
 10
7.345360
 20
1.597640
  0
VERTEX
  8
0
  6
CONTINUOUS
 10
7.351520
 20
2.346960
  0
VERTEX
  8
0
  6
CONTINUOUS
 10
7.351520
 20
2.116840
  0
VERTEX
  8
0
  6
CONTINUOUS
 10
7.345360
 20
1.367080
  0
VERTEX
  8
0
  6
CONTINUOUS
 10
7.345360
 20
1.597640
  0
SEQEND
  8
0
  0
SOLID
  8
0
 62
    15
 10
2.877600
 20
2.054360
 11
2.883320
 21
2.804120
 12
4.774880
 22
2.054360
 13
4.781040
 23
2.804120
  0
POLYLINE
  8
0
  6
CONTINUOUS
 66
     1
 40
0.000000
 41
0.000000
  0
VERTEX
  8
0
  6
CONTINUOUS
 10
2.877600
 20
2.054360
  0
VERTEX
  8
0
  6
CONTINUOUS
 10
2.883320
 20
2.804120
  0
VERTEX
  8
0
  6
CONTINUOUS
 10
4.781040
 20
2.804120
  0
VERTEX
  8
0
  6
CONTINUOUS
 10
4.774880
 20
2.054360
  0
VERTEX
  8
0
  6
CONTINUOUS
 10
2.877600
 20
2.054360
  0
SEQEND
  8
0
  0
SOLID
  8
0
 62
    15
 10
4.774880
 20
2.054360
 11
4.781040
 21
2.804120
 12
4.774880
 22
1.949200
 13
4.781040
 23
2.698960
  0
POLYLINE
  8
0
  6
CONTINUOUS
 66
     1
 40
0.000000
 41
0.000000
  0
VERTEX
  8
0
  6
CONTINUOUS
 10
4.774880
 20
2.054360
  0
VERTEX
  8
0
  6
CONTINUOUS
 10
4.781040
 20
2.804120
  0
VERTEX
  8
0
  6
CONTINUOUS
 10
4.781040
 20
2.698960
  0
VERTEX
  8
0
  6
CONTINUOUS
 10
4.774880
 20
1.949200
  0
VERTEX
  8
0
  6
CONTINUOUS
 10
4.774880
 20
2.054360
  0
SEQEND
  8
0
  0
SOLID
  8
0
 62
    15
 10
4.883560
 20
1.950960
 11
4.889720
 21
2.700720
 12
4.907760
 22
1.981320
 13
4.913480
 23
2.730640
  0
POLYLINE
  8
0
  6
CONTINUOUS
 66
     1
 40
0.000000
 41
0.000000
  0
VERTEX
  8
0
  6
CONTINUOUS
 10
4.883560
 20
1.950960
  0
VERTEX
  8
0
  6
CONTINUOUS
 10
4.889720
 20
2.700720
  0
VERTEX
  8
0
  6
CONTINUOUS
 10
4.913480
 20
2.730640
  0
VERTEX
  8
0
  6
CONTINUOUS
 10
4.907760
 20
1.981320
  0
VERTEX
  8
0
  6
CONTINUOUS
 10
4.883560
 20
1.950960
  0
SEQEND
  8
0
  0
POLYLINE
  8
0
  6
CONTINUOUS
 66
     1
 40
0.000000
 41
0.000000
  0
VERTEX
  8
0
  6
CONTINUOUS
 10
4.883560
 20
1.950960
  0
VERTEX
  8
0
  6
CONTINUOUS
 10
4.907760
 20
1.981320
  0
VERTEX
  8
0
  6
CONTINUOUS
 10
4.931080
 20
2.003320
  0
VERTEX
  8
0
  6
CONTINUOUS
 10
4.955280
 20
2.017400
  0
VERTEX
  8
0
  6
CONTINUOUS
 10
4.981680
 20
2.022680
  0
VERTEX
  8
0
  6
CONTINUOUS
 10
5.010720
 20
2.019600
  0
VERTEX
  8
0
  6
CONTINUOUS
 10
5.044160
 20
2.007720
  0
VERTEX
  8
0
  6
CONTINUOUS
 10
5.082880
 20
1.987040
  0
VERTEX
  8
0
  6
CONTINUOUS
 10
5.128200
 20
1.957560
  0
VERTEX
  8
0
  6
CONTINUOUS
 10
5.176160
 20
1.926760
  0
VERTEX
  8
0
  6
CONTINUOUS
 10
5.223240
 20
1.901240
  0
VERTEX
  8
0
  6
CONTINUOUS
 10
5.269000
 20
1.881880
  0
VERTEX
  8
0
  6
CONTINUOUS
 10
5.313440
 20
1.866920
  0
VERTEX
  8
0
  6
CONTINUOUS
 10
5.356120
 20
1.856360
  0
VERTEX
  8
0
  6
CONTINUOUS
 10
5.397920
 20
1.849760
  0
VERTEX
  8
0
  6
CONTINUOUS
 10
5.437960
 20
1.847120
  0
VERTEX
  8
0
  6
CONTINUOUS
 10
5.476680
 20
1.846680
  0
VERTEX
  8
0
  6
CONTINUOUS
 10
5.476680
 20
1.762200
  0
VERTEX
  8
0
  6
CONTINUOUS
 10
6.973560
 20
1.762200
  0
VERTEX
  8
0
  6
CONTINUOUS
 10
7.005240
 20
1.668480
  0
VERTEX
  8
0
  6
CONTINUOUS
 10
7.100720
 20
1.668480
  0
VERTEX
  8
0
  6
CONTINUOUS
 10
7.106880
 20
1.695760
  0
VERTEX
  8
0
  6
CONTINUOUS
 10
7.117440
 20
1.718200
  0
VERTEX
  8
0
  6
CONTINUOUS
 10
7.131520
 20
1.736680
  0
VERTEX
  8
0
  6
CONTINUOUS
 10
7.148680
 20
1.750760
  0
VERTEX
  8
0
  6
CONTINUOUS
 10
7.167600
 20
1.760440
  0
VERTEX
  8
0
  6
CONTINUOUS
 10
7.188280
 20
1.766160
  0
VERTEX
  8
0
  6
CONTINUOUS
 10
7.210280
 20
1.767480
  0
VERTEX
  8
0
  6
CONTINUOUS
 10
7.232280
 20
1.764400
  0
VERTEX
  8
0
  6
CONTINUOUS
 10
7.254280
 20
1.757800
  0
VERTEX
  8
0
  6
CONTINUOUS
 10
7.274960
 20
1.746800
  0
VERTEX
  8
0
  6
CONTINUOUS
 10
7.294320
 20
1.731840
  0
VERTEX
  8
0
  6
CONTINUOUS
 10
7.311480
 20
1.712920
  0
VERTEX
  8
0
  6
CONTINUOUS
 10
7.326000
 20
1.690040
  0
VERTEX
  8
0
  6
CONTINUOUS
 10
7.336560
 20
1.663200
  0
VERTEX
  8
0
  6
CONTINUOUS
 10
7.343600
 20
1.632400
  0
VERTEX
  8
0
  6
CONTINUOUS
 10
7.345360
 20
1.597640
  0
VERTEX
  8
0
  6
CONTINUOUS
 10
7.345360
 20
1.367080
  0
VERTEX
  8
0
  6
CONTINUOUS
 10
2.877600
 20
1.367080
  0
VERTEX
  8
0
  6
CONTINUOUS
 10
2.877600
 20
2.054360
  0
VERTEX
  8
0
  6
CONTINUOUS
 10
4.774880
 20
2.054360
  0
VERTEX
  8
0
  6
CONTINUOUS
 10
4.774880
 20
1.949200
  0
VERTEX
  8
0
  6
CONTINUOUS
 10
4.883560
 20
1.949200
  0
VERTEX
  8
0
  6
CONTINUOUS
 10
4.883560
 20
1.950960
  0
SEQEND
  8
0
  0
SOLID
  8
0
 62
    15
 10
2.806760
 20
2.432760
 11
2.808080
 21
3.173720
 12
2.853840
 22
2.372920
 13
2.855600
 23
3.113440
  0
POLYLINE
  8
0
  6
CONTINUOUS
 66
     1
 40
0.000000
 41
0.000000
  0
VERTEX
  8
0
  6
CONTINUOUS
 10
2.806760
 20
2.432760
  0
VERTEX
  8
0
  6
CONTINUOUS
 10
2.808080
 20
3.173720
  0
VERTEX
  8
0
  6
CONTINUOUS
 10
2.855600
 20
3.113440
  0
VERTEX
  8
0
  6
CONTINUOUS
 10
2.853840
 20
2.372920
  0
VERTEX
  8
0
  6
CONTINUOUS
 10
2.806760
 20
2.432760
  0
SEQEND
  8
0
  0
SOLID
  8
0
 62
    15
 10
2.495240
 20
2.671680
 11
2.496560
 21
3.412640
 12
2.539240
 22
2.591160
 13
2.540560
 23
3.332120
  0
POLYLINE
  8
0
  6
CONTINUOUS
 66
     1
 40
0.000000
 41
0.000000
  0
VERTEX
  8
0
  6
CONTINUOUS
 10
2.495240
 20
2.671680
  0
VERTEX
  8
0
  6
CONTINUOUS
 10
2.496560
 20
3.412640
  0
VERTEX
  8
0
  6
CONTINUOUS
 10
2.540560
 20
3.332120
  0
VERTEX
  8
0
  6
CONTINUOUS
 10
2.539240
 20
2.591160
  0
VERTEX
  8
0
  6
CONTINUOUS
 10
2.495240
 20
2.671680
  0
SEQEND
  8
0
  0
SOLID
  8
0
 62
    15
 10
2.539240
 20
2.591160
 11
2.540560
 21
3.332120
 12
2.543200
 22
2.591160
 13
2.544520
 23
3.332120
  0
POLYLINE
  8
0
  6
CONTINUOUS
 66
     1
 40
0.000000
 41
0.000000
  0
VERTEX
  8
0
  6
CONTINUOUS
 10
2.539240
 20
2.591160
  0
VERTEX
  8
0
  6
CONTINUOUS
 10
2.540560
 20
3.332120
  0
VERTEX
  8
0
  6
CONTINUOUS
 10
2.544520
 20
3.332120
  0
VERTEX
  8
0
  6
CONTINUOUS
 10
2.543200
 20
2.591160
  0
VERTEX
  8
0
  6
CONTINUOUS
 10
2.539240
 20
2.591160
  0
SEQEND
  8
0
  0
SOLID
  8
0
 62
    15
 10
2.543200
 20
2.591160
 11
2.544520
 21
3.332120
 12
2.599080
 22
2.587200
 13
2.600840
 23
3.328160
  0
POLYLINE
  8
0
  6
CONTINUOUS
 66
     1
 40
0.000000
 41
0.000000
  0
VERTEX
  8
0
  6
CONTINUOUS
 10
2.543200
 20
2.591160
  0
VERTEX
  8
0
  6
CONTINUOUS
 10
2.544520
 20
3.332120
  0
VERTEX
  8
0
  6
CONTINUOUS
 10
2.600840
 20
3.328160
  0
VERTEX
  8
0
  6
CONTINUOUS
 10
2.599080
 20
2.587200
  0
VERTEX
  8
0
  6
CONTINUOUS
 10
2.543200
 20
2.591160
  0
SEQEND
  8
0
  0
SOLID
  8
0
 62
    15
 10
2.599080
 20
2.587200
 11
2.600840
 21
3.328160
 12
2.645720
 22
2.577080
 13
2.647040
 23
3.318040
  0
POLYLINE
  8
0
  6
CONTINUOUS
 66
     1
 40
0.000000
 41
0.000000
  0
VERTEX
  8
0
  6
CONTINUOUS
 10
2.599080
 20
2.587200
  0
VERTEX
  8
0
  6
CONTINUOUS
 10
2.600840
 20
3.328160
  0
VERTEX
  8
0
  6
CONTINUOUS
 10
2.647040
 20
3.318040
  0
VERTEX
  8
0
  6
CONTINUOUS
 10
2.645720
 20
2.577080
  0
VERTEX
  8
0
  6
CONTINUOUS
 10
2.599080
 20
2.587200
  0
SEQEND
  8
0
  0
SOLID
  8
0
 62
     7
 10
2.645720
 20
2.577080
 11
2.647040
 21
3.318040
 12
2.683560
 22
2.561680
 13
2.685320
 23
3.302200
  0
POLYLINE
  8
0
  6
CONTINUOUS
 66
     1
 40
0.000000
 41
0.000000
  0
VERTEX
  8
0
  6
CONTINUOUS
 10
2.645720
 20
2.577080
  0
VERTEX
  8
0
  6
CONTINUOUS
 10
2.647040
 20
3.318040
  0
VERTEX
  8
0
  6
CONTINUOUS
 10
2.685320
 20
3.302200
  0
VERTEX
  8
0
  6
CONTINUOUS
 10
2.683560
 20
2.561680
  0
VERTEX
  8
0
  6
CONTINUOUS
 10
2.645720
 20
2.577080
  0
SEQEND
  8
0
  0
SOLID
  8
0
 62
     7
 10
2.683560
 20
2.561680
 11
2.685320
 21
3.302200
 12
2.715240
 22
2.541440
 13
2.716560
 23
3.282400
  0
POLYLINE
  8
0
  6
CONTINUOUS
 66
     1
 40
0.000000
 41
0.000000
  0
VERTEX
  8
0
  6
CONTINUOUS
 10
2.683560
 20
2.561680
  0
VERTEX
  8
0
  6
CONTINUOUS
 10
2.685320
 20
3.302200
  0
VERTEX
  8
0
  6
CONTINUOUS
 10
2.716560
 20
3.282400
  0
VERTEX
  8
0
  6
CONTINUOUS
 10
2.715240
 20
2.541440
  0
VERTEX
  8
0
  6
CONTINUOUS
 10
2.683560
 20
2.561680
  0
SEQEND
  8
0
  0
SOLID
  8
0
 62
     7
 10
2.715240
 20
2.541440
 11
2.716560
 21
3.282400
 12
2.741640
 22
2.517680
 13
2.743400
 23
3.258640
  0
POLYLINE
  8
0
  6
CONTINUOUS
 66
     1
 40
0.000000
 41
0.000000
  0
VERTEX
  8
0
  6
CONTINUOUS
 10
2.715240
 20
2.541440
  0
VERTEX
  8
0
  6
CONTINUOUS
 10
2.716560
 20
3.282400
  0
VERTEX
  8
0
  6
CONTINUOUS
 10
2.743400
 20
3.258640
  0
VERTEX
  8
0
  6
CONTINUOUS
 10
2.741640
 20
2.517680
  0
VERTEX
  8
0
  6
CONTINUOUS
 10
2.715240
 20
2.541440
  0
SEQEND
  8
0
  0
SOLID
  8
0
 62
    15
 10
2.741640
 20
2.517680
 11
2.743400
 21
3.258640
 12
2.764520
 22
2.491280
 13
2.766280
 23
3.232240
  0
POLYLINE
  8
0
  6
CONTINUOUS
 66
     1
 40
0.000000
 41
0.000000
  0
VERTEX
  8
0
  6
CONTINUOUS
 10
2.741640
 20
2.517680
  0
VERTEX
  8
0
  6
CONTINUOUS
 10
2.743400
 20
3.258640
  0
VERTEX
  8
0
  6
CONTINUOUS
 10
2.766280
 20
3.232240
  0
VERTEX
  8
0
  6
CONTINUOUS
 10
2.764520
 20
2.491280
  0
VERTEX
  8
0
  6
CONTINUOUS
 10
2.741640
 20
2.517680
  0
SEQEND
  8
0
  0
SOLID
  8
0
 62
    15
 10
2.764520
 20
2.491280
 11
2.766280
 21
3.232240
 12
2.786080
 22
2.462680
 13
2.787400
 23
3.203640
  0
POLYLINE
  8
0
  6
CONTINUOUS
 66
     1
 40
0.000000
 41
0.000000
  0
VERTEX
  8
0
  6
CONTINUOUS
 10
2.764520
 20
2.491280
  0
VERTEX
  8
0
  6
CONTINUOUS
 10
2.766280
 20
3.232240
  0
VERTEX
  8
0
  6
CONTINUOUS
 10
2.787400
 20
3.203640
  0
VERTEX
  8
0
  6
CONTINUOUS
 10
2.786080
 20
2.462680
  0
VERTEX
  8
0
  6
CONTINUOUS
 10
2.764520
 20
2.491280
  0
SEQEND
  8
0
  0
SOLID
  8
0
 62
    15
 10
2.786080
 20
2.462680
 11
2.787400
 21
3.203640
 12
2.806760
 22
2.432760
 13
2.808080
 23
3.173720
  0
POLYLINE
  8
0
  6
CONTINUOUS
 66
     1
 40
0.000000
 41
0.000000
  0
VERTEX
  8
0
  6
CONTINUOUS
 10
2.786080
 20
2.462680
  0
VERTEX
  8
0
  6
CONTINUOUS
 10
2.787400
 20
3.203640
  0
VERTEX
  8
0
  6
CONTINUOUS
 10
2.808080
 20
3.173720
  0
VERTEX
  8
0
  6
CONTINUOUS
 10
2.806760
 20
2.432760
  0
VERTEX
  8
0
  6
CONTINUOUS
 10
2.786080
 20
2.462680
  0
SEQEND
  8
0
  0
SOLID
  8
0
 62
    15
 10
2.249720
 20
2.671680
 11
2.251040
 21
3.412640
 12
2.495240
 22
2.671680
 13
2.496560
 23
3.412640
  0
POLYLINE
  8
0
  6
CONTINUOUS
 66
     1
 40
0.000000
 41
0.000000
  0
VERTEX
  8
0
  6
CONTINUOUS
 10
2.249720
 20
2.671680
  0
VERTEX
  8
0
  6
CONTINUOUS
 10
2.251040
 20
3.412640
  0
VERTEX
  8
0
  6
CONTINUOUS
 10
2.496560
 20
3.412640
  0
VERTEX
  8
0
  6
CONTINUOUS
 10
2.495240
 20
2.671680
  0
VERTEX
  8
0
  6
CONTINUOUS
 10
2.249720
 20
2.671680
  0
SEQEND
  8
0
  0
SOLID
  8
0
 62
     7
 10
2.853840
 20
2.372920
 11
2.855600
 21
3.113440
 12
2.883320
 22
2.343880
 13
2.885080
 23
3.084840
  0
POLYLINE
  8
0
  6
CONTINUOUS
 66
     1
 40
0.000000
 41
0.000000
  0
VERTEX
  8
0
  6
CONTINUOUS
 10
2.853840
 20
2.372920
  0
VERTEX
  8
0
  6
CONTINUOUS
 10
2.855600
 20
3.113440
  0
VERTEX
  8
0
  6
CONTINUOUS
 10
2.885080
 20
3.084840
  0
VERTEX
  8
0
  6
CONTINUOUS
 10
2.883320
 20
2.343880
  0
VERTEX
  8
0
  6
CONTINUOUS
 10
2.853840
 20
2.372920
  0
SEQEND
  8
0
  0
SOLID
  8
0
 62
    15
 10
2.911480
 20
2.053040
 11
2.913240
 21
2.794000
 12
2.911480
 22
1.367960
 13
2.913240
 23
2.108920
  0
POLYLINE
  8
0
  6
CONTINUOUS
 66
     1
 40
0.000000
 41
0.000000
  0
VERTEX
  8
0
  6
CONTINUOUS
 10
2.911480
 20
2.053040
  0
VERTEX
  8
0
  6
CONTINUOUS
 10
2.913240
 20
2.794000
  0
VERTEX
  8
0
  6
CONTINUOUS
 10
2.913240
 20
2.108920
  0
VERTEX
  8
0
  6
CONTINUOUS
 10
2.911480
 20
1.367960
  0
VERTEX
  8
0
  6
CONTINUOUS
 10
2.911480
 20
2.053040
  0
SEQEND
  8
0
  0
SOLID
  8
0
 62
     7
 10
2.918960
 20
2.317480
 11
2.920280
 21
3.058440
 12
2.962080
 22
2.293720
 13
2.963400
 23
3.034680
  0
POLYLINE
  8
0
  6
CONTINUOUS
 66
     1
 40
0.000000
 41
0.000000
  0
VERTEX
  8
0
  6
CONTINUOUS
 10
2.918960
 20
2.317480
  0
VERTEX
  8
0
  6
CONTINUOUS
 10
2.920280
 20
3.058440
  0
VERTEX
  8
0
  6
CONTINUOUS
 10
2.963400
 20
3.034680
  0
VERTEX
  8
0
  6
CONTINUOUS
 10
2.962080
 20
2.293720
  0
VERTEX
  8
0
  6
CONTINUOUS
 10
2.918960
 20
2.317480
  0
SEQEND
  8
0
  0
SOLID
  8
0
 62
     7
 10
2.962080
 20
2.293720
 11
2.963400
 21
3.034680
 12
3.014000
 22
2.273920
 13
3.015760
 23
3.014880
  0
POLYLINE
  8
0
  6
CONTINUOUS
 66
     1
 40
0.000000
 41
0.000000
  0
VERTEX
  8
0
  6
CONTINUOUS
 10
2.962080
 20
2.293720
  0
VERTEX
  8
0
  6
CONTINUOUS
 10
2.963400
 20
3.034680
  0
VERTEX
  8
0
  6
CONTINUOUS
 10
3.015760
 20
3.014880
  0
VERTEX
  8
0
  6
CONTINUOUS
 10
3.014000
 20
2.273920
  0
VERTEX
  8
0
  6
CONTINUOUS
 10
2.962080
 20
2.293720
  0
SEQEND
  8
0
  0
SOLID
  8
0
 62
     7
 10
3.014000
 20
2.273920
 11
3.015760
 21
3.014880
 12
3.076920
 22
2.258080
 13
3.078680
 23
2.999040
  0
POLYLINE
  8
0
  6
CONTINUOUS
 66
     1
 40
0.000000
 41
0.000000
  0
VERTEX
  8
0
  6
CONTINUOUS
 10
3.014000
 20
2.273920
  0
VERTEX
  8
0
  6
CONTINUOUS
 10
3.015760
 20
3.014880
  0
VERTEX
  8
0
  6
CONTINUOUS
 10
3.078680
 20
2.999040
  0
VERTEX
  8
0
  6
CONTINUOUS
 10
3.076920
 20
2.258080
  0
VERTEX
  8
0
  6
CONTINUOUS
 10
3.014000
 20
2.273920
  0
SEQEND
  8
0
  0
SOLID
  8
0
 62
     7
 10
3.076920
 20
2.258080
 11
3.078680
 21
2.999040
 12
3.152600
 22
2.247960
 13
3.153920
 23
2.988920
  0
POLYLINE
  8
0
  6
CONTINUOUS
 66
     1
 40
0.000000
 41
0.000000
  0
VERTEX
  8
0
  6
CONTINUOUS
 10
3.076920
 20
2.258080
  0
VERTEX
  8
0
  6
CONTINUOUS
 10
3.078680
 20
2.999040
  0
VERTEX
  8
0
  6
CONTINUOUS
 10
3.153920
 20
2.988920
  0
VERTEX
  8
0
  6
CONTINUOUS
 10
3.152600
 20
2.247960
  0
VERTEX
  8
0
  6
CONTINUOUS
 10
3.076920
 20
2.258080
  0
SEQEND
  8
0
  0
SOLID
  8
0
 62
     7
 10
3.156560
 20
2.053480
 11
3.157880
 21
2.794440
 12
3.157880
 22
2.053040
 13
3.159200
 23
2.794000
  0
POLYLINE
  8
0
  6
CONTINUOUS
 66
     1
 40
0.000000
 41
0.000000
  0
VERTEX
  8
0
  6
CONTINUOUS
 10
3.156560
 20
2.053480
  0
VERTEX
  8
0
  6
CONTINUOUS
 10
3.157880
 20
2.794440
  0
VERTEX
  8
0
  6
CONTINUOUS
 10
3.159200
 20
2.794000
  0
VERTEX
  8
0
  6
CONTINUOUS
 10
3.157880
 20
2.053040
  0
VERTEX
  8
0
  6
CONTINUOUS
 10
3.156560
 20
2.053480
  0
SEQEND
  8
0
  0
SOLID
  8
0
 62
    15
 10
3.156560
 20
2.247960
 11
3.157880
 21
2.988920
 12
3.156560
 22
2.053480
 13
3.157880
 23
2.794440
  0
POLYLINE
  8
0
  6
CONTINUOUS
 66
     1
 40
0.000000
 41
0.000000
  0
VERTEX
  8
0
  6
CONTINUOUS
 10
3.156560
 20
2.247960
  0
VERTEX
  8
0
  6
CONTINUOUS
 10
3.157880
 20
2.988920
  0
VERTEX
  8
0
  6
CONTINUOUS
 10
3.157880
 20
2.794440
  0
VERTEX
  8
0
  6
CONTINUOUS
 10
3.156560
 20
2.053480
  0
VERTEX
  8
0
  6
CONTINUOUS
 10
3.156560
 20
2.247960
  0
SEQEND
  8
0
  0
SOLID
  8
0
 62
    15
 10
3.152600
 20
2.247960
 11
3.153920
 21
2.988920
 12
3.156560
 22
2.247960
 13
3.157880
 23
2.988920
  0
POLYLINE
  8
0
  6
CONTINUOUS
 66
     1
 40
0.000000
 41
0.000000
  0
VERTEX
  8
0
  6
CONTINUOUS
 10
3.152600
 20
2.247960
  0
VERTEX
  8
0
  6
CONTINUOUS
 10
3.153920
 20
2.988920
  0
VERTEX
  8
0
  6
CONTINUOUS
 10
3.157880
 20
2.988920
  0
VERTEX
  8
0
  6
CONTINUOUS
 10
3.156560
 20
2.247960
  0
VERTEX
  8
0
  6
CONTINUOUS
 10
3.152600
 20
2.247960
  0
SEQEND
  8
0
  0
SOLID
  8
0
 62
     7
 10
2.883320
 20
2.343880
 11
2.885080
 21
3.084840
 12
2.918960
 22
2.317480
 13
2.920280
 23
3.058440
  0
POLYLINE
  8
0
  6
CONTINUOUS
 66
     1
 40
0.000000
 41
0.000000
  0
VERTEX
  8
0
  6
CONTINUOUS
 10
2.883320
 20
2.343880
  0
VERTEX
  8
0
  6
CONTINUOUS
 10
2.885080
 20
3.084840
  0
VERTEX
  8
0
  6
CONTINUOUS
 10
2.920280
 20
3.058440
  0
VERTEX
  8
0
  6
CONTINUOUS
 10
2.918960
 20
2.317480
  0
VERTEX
  8
0
  6
CONTINUOUS
 10
2.883320
 20
2.343880
  0
SEQEND
  8
0
  0
SOLID
  8
0
 62
    15
 10
2.246640
 20
2.672120
 11
2.248400
 21
3.413080
 12
2.249720
 22
2.671680
 13
2.251040
 23
3.412640
  0
POLYLINE
  8
0
  6
CONTINUOUS
 66
     1
 40
0.000000
 41
0.000000
  0
VERTEX
  8
0
  6
CONTINUOUS
 10
2.246640
 20
2.672120
  0
VERTEX
  8
0
  6
CONTINUOUS
 10
2.248400
 20
3.413080
  0
VERTEX
  8
0
  6
CONTINUOUS
 10
2.251040
 20
3.412640
  0
VERTEX
  8
0
  6
CONTINUOUS
 10
2.249720
 20
2.671680
  0
VERTEX
  8
0
  6
CONTINUOUS
 10
2.246640
 20
2.672120
  0
SEQEND
  8
0
  0
POLYLINE
  8
0
  6
CONTINUOUS
 66
     1
 40
0.000000
 41
0.000000
  0
VERTEX
  8
0
  6
CONTINUOUS
 10
2.249720
 20
2.671680
  0
VERTEX
  8
0
  6
CONTINUOUS
 10
2.495240
 20
2.671680
  0
VERTEX
  8
0
  6
CONTINUOUS
 10
2.539240
 20
2.591160
  0
VERTEX
  8
0
  6
CONTINUOUS
 10
2.543200
 20
2.591160
  0
VERTEX
  8
0
  6
CONTINUOUS
 10
2.599080
 20
2.587200
  0
VERTEX
  8
0
  6
CONTINUOUS
 10
2.645720
 20
2.577080
  0
VERTEX
  8
0
  6
CONTINUOUS
 10
2.683560
 20
2.561680
  0
VERTEX
  8
0
  6
CONTINUOUS
 10
2.715240
 20
2.541440
  0
VERTEX
  8
0
  6
CONTINUOUS
 10
2.741640
 20
2.517680
  0
VERTEX
  8
0
  6
CONTINUOUS
 10
2.764520
 20
2.491280
  0
VERTEX
  8
0
  6
CONTINUOUS
 10
2.786080
 20
2.462680
  0
VERTEX
  8
0
  6
CONTINUOUS
 10
2.806760
 20
2.432760
  0
VERTEX
  8
0
  6
CONTINUOUS
 10
2.853840
 20
2.372920
  0
VERTEX
  8
0
  6
CONTINUOUS
 10
2.883320
 20
2.343880
  0
VERTEX
  8
0
  6
CONTINUOUS
 10
2.918960
 20
2.317480
  0
VERTEX
  8
0
  6
CONTINUOUS
 10
2.962080
 20
2.293720
  0
VERTEX
  8
0
  6
CONTINUOUS
 10
3.014000
 20
2.273920
  0
VERTEX
  8
0
  6
CONTINUOUS
 10
3.076920
 20
2.258080
  0
VERTEX
  8
0
  6
CONTINUOUS
 10
3.152600
 20
2.247960
  0
VERTEX
  8
0
  6
CONTINUOUS
 10
3.156560
 20
2.247960
  0
VERTEX
  8
0
  6
CONTINUOUS
 10
3.156560
 20
2.053480
  0
VERTEX
  8
0
  6
CONTINUOUS
 10
3.157880
 20
2.053040
  0
VERTEX
  8
0
  6
CONTINUOUS
 10
2.911480
 20
2.053040
  0
VERTEX
  8
0
  6
CONTINUOUS
 10
2.911480
 20
1.367960
  0
VERTEX
  8
0
  6
CONTINUOUS
 10
2.246640
 20
1.367960
  0
VERTEX
  8
0
  6
CONTINUOUS
 10
2.246640
 20
2.672120
  0
VERTEX
  8
0
  6
CONTINUOUS
 10
2.249720
 20
2.671680
  0
SEQEND
  8
0
  0
TEXT
  8
0
 10
2.300760
 20
1.469600
 40
0.138010
  1
191
 41
1.000000
  7
SN0
 71
     0
 72
     5
 11
2.577939
 21
1.469600
  0
TEXT
  8
0
 10
2.979240
 20
1.459040
 40
0.138010
  1
346
 41
1.000000
  7
SN0
 71
     0
 72
     5
 11
3.256419
 21
1.459040
  0
ENDSEC
  0
EOF
