  0
SECTION
  2
HEADER
  9
$ACADVER
  1
AC1006
  9
$EXTMIN
 10
1.711160
 20
0.446160
  9
$EXTMAX
 10
8.043640
 20
8.018560
  9
$LTSCALE
 40
0.044000
  9
$PDMODE
 70
    35
  9
$PDSIZE
 40
0.035200
  0
ENDSEC
  0
SECTION
  2
TABLES
  0
TABLE
  2
LTYPE
 70
     9
  0
LTYPE
  2
CONTINUOUS
 70
    64
  3
Solid line
 72
    65
 73
     0
 40
0.000000
  0
LTYPE
  2
DASHED
 70
    64
  3
__ __ __ __ __ __ __ __ __ __ __ __ __ __ __
 72
    65
 73
     2
 40
0.000330
 49
0.000220
 49
-0.000110
  0
LTYPE
  2
HIDDEN
 70
    64
  3
 _ _ _ _ _ _ _ _ _ _ _ _ _ _ _ _ _ _ _ _ _ _
 72
    65
 73
     2
 40
0.000165
 49
0.000110
 49
-0.000055
  0
LTYPE
  2
CENTER
 70
    64
  3
____ _ ____ _ ____ _ ____ _ ____ _ ____ _ ____
 72
    65
 73
     4
 40
0.000880
 49
0.000550
 49
-0.000110
 49
0.000110
 49
-0.000110
  0
LTYPE
  2
PHANTOM
 70
    64
  3
_____ _ _ _____ _ _ _____ _ _ _____ _ _ ____
 72
    65
 73
     6
 40
0.001100
 49
0.000550
 49
-0.000110
 49
0.000110
 49
-0.000110
 49
0.000110
 49
-0.000110
  0
LTYPE
  2
DOT
 70
    64
  3
...............................................
 72
    65
 73
     2
 40
0.000110
 49
0.000000
 49
-0.000110
  0
LTYPE
  2
DASHDOT
 70
    64
  3
__ . __ . __ . __ . __ . __ . __ . __ . __ . __
 72
    65
 73
     4
 40
0.000440
 49
0.000220
 49
-0.000110
 49
0.000000
 49
-0.000110
  0
LTYPE
  2
BORDER
 70
    64
  3
__ __ . __ __ . __ __ . __ __ . __ __ . __ __
 72
    65
 73
     6
 40
0.000770
 49
0.000220
 49
-0.000110
 49
0.000220
 49
-0.000110
 49
0.000000
 49
-0.000110
  0
LTYPE
  2
DIVIDE
 70
    64
  3
__ . . __ . . __ . . __ . . __ . . __ . . __
 72
    65
 73
     6
 40
0.000550
 49
0.000220
 49
-0.000110
 49
0.000000
 49
-0.000110
 49
0.000000
 49
-0.000110
  0
LTYPE
  2
DOTDOT
 70
    64
  3
 . .  . .  . .  . .  . .  . . 
 72
    65
 73
     5
 40
0.000242
 49
-0.000110
 49
0.000000
 49
-0.000110
 49
0.000000
 49
-0.000110
  0
ENDTAB
  0
TABLE
  2
STYLE
 70
     2
  0
STYLE
 70
     0
  2
SN0
 40
0.000000
 41
0.000440
 50
0.000000
 71
     0
 42
0.000000
  3
ROMAND
  0
STYLE
 70
    68
  2
SV0
 40
0.000000
 41
0.000440
 50
0.000000
 71
     0
 42
0.000000
  3
ROMAND
  0
ENDTAB
  0
TABLE
  2
LAYER
 70
     3
  0
LAYER
  2
FOREGROUND
 70
    64
 62
     7
  6
CONTINUOUS
  0
LAYER
  2
BACKGROUND
 70
    65
 62
    -7
  6
CONTINUOUS
  0
LAYER
  2
0
 70
    64
 62
     7
  6
CONTINUOUS
  0
ENDTAB
  0
ENDSEC
  0
SECTION
  2
ENTITIES
  0
POLYLINE
  8
FOREGROUND
  6
CONTINUOUS
 66
     1
 40
0.000000
 41
0.000000
  0
VERTEX
  8
FOREGROUND
  6
CONTINUOUS
 10
0.000000
 20
8.464720
  0
VERTEX
  8
FOREGROUND
  6
CONTINUOUS
 10
8.499920
 20
8.464720
  0
VERTEX
  8
FOREGROUND
  6
CONTINUOUS
 10
8.499920
 20
-2.535280
  0
VERTEX
  8
FOREGROUND
  6
CONTINUOUS
 10
0.000000
 20
-2.535280
  0
VERTEX
  8
FOREGROUND
  6
CONTINUOUS
 10
0.000000
 20
8.464720
  0
SEQEND
  8
0
  0
POLYLINE
  8
FOREGROUND
  6
CONTINUOUS
 66
     1
 40
0.000000
 41
0.000000
  0
VERTEX
  8
FOREGROUND
  6
CONTINUOUS
 10
0.000000
 20
8.464720
  0
VERTEX
  8
FOREGROUND
  6
CONTINUOUS
 10
8.499920
 20
8.464720
  0
VERTEX
  8
FOREGROUND
  6
CONTINUOUS
 10
8.499920
 20
-2.535280
  0
VERTEX
  8
FOREGROUND
  6
CONTINUOUS
 10
0.000000
 20
-2.535280
  0
VERTEX
  8
FOREGROUND
  6
CONTINUOUS
 10
0.000000
 20
8.464720
  0
SEQEND
  8
0
  0
POLYLINE
  8
0
  6
CONTINUOUS
 66
     1
 40
0.014080
 41
0.014080
  0
VERTEX
  8
0
  6
CONTINUOUS
 10
6.849480
 20
7.744000
  0
VERTEX
  8
0
  6
CONTINUOUS
 10
6.850800
 20
7.766000
  0
VERTEX
  8
0
  6
CONTINUOUS
 10
6.853880
 20
7.786240
  0
VERTEX
  8
0
  6
CONTINUOUS
 10
6.858720
 20
7.805160
  0
VERTEX
  8
0
  6
CONTINUOUS
 10
6.864880
 20
7.822760
  0
VERTEX
  8
0
  6
CONTINUOUS
 10
6.872360
 20
7.838600
  0
VERTEX
  8
0
  6
CONTINUOUS
 10
6.881600
 20
7.853120
  0
VERTEX
  8
0
  6
CONTINUOUS
 10
6.891720
 20
7.865880
  0
VERTEX
  8
0
  6
CONTINUOUS
 10
6.902720
 20
7.877760
  0
VERTEX
  8
0
  6
CONTINUOUS
 10
6.915040
 20
7.887880
  0
VERTEX
  8
0
  6
CONTINUOUS
 10
6.927800
 20
7.896680
  0
VERTEX
  8
0
  6
CONTINUOUS
 10
6.941440
 20
7.903720
  0
VERTEX
  8
0
  6
CONTINUOUS
 10
6.955960
 20
7.909880
  0
VERTEX
  8
0
  6
CONTINUOUS
 10
6.970480
 20
7.914280
  0
VERTEX
  8
0
  6
CONTINUOUS
 10
6.985440
 20
7.917360
  0
VERTEX
  8
0
  6
CONTINUOUS
 10
7.000840
 20
7.919120
  0
VERTEX
  8
0
  6
CONTINUOUS
 10
7.016240
 20
7.919120
  0
VERTEX
  8
0
  6
CONTINUOUS
 10
7.031640
 20
7.918240
  0
VERTEX
  8
0
  6
CONTINUOUS
 10
7.047040
 20
7.915600
  0
VERTEX
  8
0
  6
CONTINUOUS
 10
7.062000
 20
7.912080
  0
VERTEX
  8
0
  6
CONTINUOUS
 10
7.076520
 20
7.906800
  0
VERTEX
  8
0
  6
CONTINUOUS
 10
7.091040
 20
7.900200
  0
VERTEX
  8
0
  6
CONTINUOUS
 10
7.104680
 20
7.892280
  0
VERTEX
  8
0
  6
CONTINUOUS
 10
7.117440
 20
7.883040
  0
VERTEX
  8
0
  6
CONTINUOUS
 10
7.129760
 20
7.872040
  0
VERTEX
  8
0
  6
CONTINUOUS
 10
7.140760
 20
7.860160
  0
VERTEX
  8
0
  6
CONTINUOUS
 10
7.150880
 20
7.846960
  0
VERTEX
  8
0
  6
CONTINUOUS
 10
7.160120
 20
7.832440
  0
VERTEX
  8
0
  6
CONTINUOUS
 10
7.167600
 20
7.816160
  0
VERTEX
  8
0
  6
CONTINUOUS
 10
7.173760
 20
7.799000
  0
VERTEX
  8
0
  6
CONTINUOUS
 10
7.178600
 20
7.780520
  0
VERTEX
  8
0
  6
CONTINUOUS
 10
7.181680
 20
7.760720
  0
VERTEX
  8
0
  6
CONTINUOUS
 10
7.183000
 20
7.739600
  0
VERTEX
  8
0
  6
CONTINUOUS
 10
7.183000
 20
7.177720
  0
VERTEX
  8
0
  6
CONTINUOUS
 10
1.718640
 20
7.177720
  0
VERTEX
  8
0
  6
CONTINUOUS
 10
1.718640
 20
7.932760
  0
VERTEX
  8
0
  6
CONTINUOUS
 10
6.742560
 20
7.932760
  0
VERTEX
  8
0
  6
CONTINUOUS
 10
6.742560
 20
7.742680
  0
VERTEX
  8
0
  6
CONTINUOUS
 10
6.849480
 20
7.742680
  0
VERTEX
  8
0
  6
CONTINUOUS
 10
6.849480
 20
7.744000
  0
SEQEND
  8
0
  0
SOLID
  8
0
 62
    15
 10
6.361520
 20
6.426640
 11
7.001280
 21
6.775560
 12
6.381320
 22
6.401560
 13
7.021080
 23
6.750920
  0
POLYLINE
  8
0
  6
CONTINUOUS
 66
     1
 40
0.000000
 41
0.000000
  0
VERTEX
  8
0
  6
CONTINUOUS
 10
6.361520
 20
6.426640
  0
VERTEX
  8
0
  6
CONTINUOUS
 10
7.001280
 20
6.775560
  0
VERTEX
  8
0
  6
CONTINUOUS
 10
7.021080
 20
6.750920
  0
VERTEX
  8
0
  6
CONTINUOUS
 10
6.381320
 20
6.401560
  0
VERTEX
  8
0
  6
CONTINUOUS
 10
6.361520
 20
6.426640
  0
SEQEND
  8
0
  0
SOLID
  8
0
 62
    15
 10
6.232160
 20
6.146360
 11
6.871920
 21
6.495720
 12
6.232160
 22
6.039000
 13
6.871920
 23
6.388360
  0
POLYLINE
  8
0
  6
CONTINUOUS
 66
     1
 40
0.000000
 41
0.000000
  0
VERTEX
  8
0
  6
CONTINUOUS
 10
6.232160
 20
6.146360
  0
VERTEX
  8
0
  6
CONTINUOUS
 10
6.871920
 20
6.495720
  0
VERTEX
  8
0
  6
CONTINUOUS
 10
6.871920
 20
6.388360
  0
VERTEX
  8
0
  6
CONTINUOUS
 10
6.232160
 20
6.039000
  0
VERTEX
  8
0
  6
CONTINUOUS
 10
6.232160
 20
6.146360
  0
SEQEND
  8
0
  0
SOLID
  8
0
 62
    15
 10
6.232160
 20
6.039000
 11
6.871920
 21
6.388360
 12
6.422240
 22
6.039000
 13
7.062000
 23
6.388360
  0
POLYLINE
  8
0
  6
CONTINUOUS
 66
     1
 40
0.000000
 41
0.000000
  0
VERTEX
  8
0
  6
CONTINUOUS
 10
6.232160
 20
6.039000
  0
VERTEX
  8
0
  6
CONTINUOUS
 10
6.871920
 20
6.388360
  0
VERTEX
  8
0
  6
CONTINUOUS
 10
7.062000
 20
6.388360
  0
VERTEX
  8
0
  6
CONTINUOUS
 10
6.422240
 20
6.039000
  0
VERTEX
  8
0
  6
CONTINUOUS
 10
6.232160
 20
6.039000
  0
SEQEND
  8
0
  0
SOLID
  8
0
 62
    15
 10
5.667200
 20
6.479880
 11
6.306960
 21
6.828800
 12
6.229080
 22
6.479880
 13
6.868840
 23
6.828800
  0
POLYLINE
  8
0
  6
CONTINUOUS
 66
     1
 40
0.000000
 41
0.000000
  0
VERTEX
  8
0
  6
CONTINUOUS
 10
5.667200
 20
6.479880
  0
VERTEX
  8
0
  6
CONTINUOUS
 10
6.306960
 20
6.828800
  0
VERTEX
  8
0
  6
CONTINUOUS
 10
6.868840
 20
6.828800
  0
VERTEX
  8
0
  6
CONTINUOUS
 10
6.229080
 20
6.479880
  0
VERTEX
  8
0
  6
CONTINUOUS
 10
5.667200
 20
6.479880
  0
SEQEND
  8
0
  0
SOLID
  8
0
 62
    15
 10
6.229080
 20
6.479880
 11
6.868840
 21
6.828800
 12
6.270000
 22
6.475480
 13
6.909760
 23
6.824840
  0
POLYLINE
  8
0
  6
CONTINUOUS
 66
     1
 40
0.000000
 41
0.000000
  0
VERTEX
  8
0
  6
CONTINUOUS
 10
6.229080
 20
6.479880
  0
VERTEX
  8
0
  6
CONTINUOUS
 10
6.868840
 20
6.828800
  0
VERTEX
  8
0
  6
CONTINUOUS
 10
6.909760
 20
6.824840
  0
VERTEX
  8
0
  6
CONTINUOUS
 10
6.270000
 20
6.475480
  0
VERTEX
  8
0
  6
CONTINUOUS
 10
6.229080
 20
6.479880
  0
SEQEND
  8
0
  0
SOLID
  8
0
 62
    15
 10
6.270000
 20
6.475480
 11
6.909760
 21
6.824840
 12
6.305640
 22
6.464480
 13
6.945400
 23
6.813400
  0
POLYLINE
  8
0
  6
CONTINUOUS
 66
     1
 40
0.000000
 41
0.000000
  0
VERTEX
  8
0
  6
CONTINUOUS
 10
6.270000
 20
6.475480
  0
VERTEX
  8
0
  6
CONTINUOUS
 10
6.909760
 20
6.824840
  0
VERTEX
  8
0
  6
CONTINUOUS
 10
6.945400
 20
6.813400
  0
VERTEX
  8
0
  6
CONTINUOUS
 10
6.305640
 20
6.464480
  0
VERTEX
  8
0
  6
CONTINUOUS
 10
6.270000
 20
6.475480
  0
SEQEND
  8
0
  0
SOLID
  8
0
 62
    15
 10
6.305640
 20
6.464480
 11
6.945400
 21
6.813400
 12
6.336440
 22
6.447760
 13
6.976200
 23
6.797120
  0
POLYLINE
  8
0
  6
CONTINUOUS
 66
     1
 40
0.000000
 41
0.000000
  0
VERTEX
  8
0
  6
CONTINUOUS
 10
6.305640
 20
6.464480
  0
VERTEX
  8
0
  6
CONTINUOUS
 10
6.945400
 20
6.813400
  0
VERTEX
  8
0
  6
CONTINUOUS
 10
6.976200
 20
6.797120
  0
VERTEX
  8
0
  6
CONTINUOUS
 10
6.336440
 20
6.447760
  0
VERTEX
  8
0
  6
CONTINUOUS
 10
6.305640
 20
6.464480
  0
SEQEND
  8
0
  0
SOLID
  8
0
 62
    15
 10
6.336440
 20
6.447760
 11
6.976200
 21
6.797120
 12
6.361520
 22
6.426640
 13
7.001280
 23
6.775560
  0
POLYLINE
  8
0
  6
CONTINUOUS
 66
     1
 40
0.000000
 41
0.000000
  0
VERTEX
  8
0
  6
CONTINUOUS
 10
6.336440
 20
6.447760
  0
VERTEX
  8
0
  6
CONTINUOUS
 10
6.976200
 20
6.797120
  0
VERTEX
  8
0
  6
CONTINUOUS
 10
7.001280
 20
6.775560
  0
VERTEX
  8
0
  6
CONTINUOUS
 10
6.361520
 20
6.426640
  0
VERTEX
  8
0
  6
CONTINUOUS
 10
6.336440
 20
6.447760
  0
SEQEND
  8
0
  0
SOLID
  8
0
 62
    15
 10
6.422240
 20
6.039000
 11
7.062000
 21
6.388360
 12
6.422240
 22
1.015520
 13
7.062000
 23
1.364440
  0
POLYLINE
  8
0
  6
CONTINUOUS
 66
     1
 40
0.000000
 41
0.000000
  0
VERTEX
  8
0
  6
CONTINUOUS
 10
6.422240
 20
6.039000
  0
VERTEX
  8
0
  6
CONTINUOUS
 10
7.062000
 20
6.388360
  0
VERTEX
  8
0
  6
CONTINUOUS
 10
7.062000
 20
1.364440
  0
VERTEX
  8
0
  6
CONTINUOUS
 10
6.422240
 20
1.015520
  0
VERTEX
  8
0
  6
CONTINUOUS
 10
6.422240
 20
6.039000
  0
SEQEND
  8
0
  0
SOLID
  8
0
 62
    15
 10
6.381320
 20
6.401560
 11
7.021080
 21
6.750920
 12
6.395840
 22
6.373400
 13
7.035600
 23
6.722760
  0
POLYLINE
  8
0
  6
CONTINUOUS
 66
     1
 40
0.000000
 41
0.000000
  0
VERTEX
  8
0
  6
CONTINUOUS
 10
6.381320
 20
6.401560
  0
VERTEX
  8
0
  6
CONTINUOUS
 10
7.021080
 20
6.750920
  0
VERTEX
  8
0
  6
CONTINUOUS
 10
7.035600
 20
6.722760
  0
VERTEX
  8
0
  6
CONTINUOUS
 10
6.395840
 20
6.373400
  0
VERTEX
  8
0
  6
CONTINUOUS
 10
6.381320
 20
6.401560
  0
SEQEND
  8
0
  0
SOLID
  8
0
 62
    15
 10
6.395840
 20
6.373400
 11
7.035600
 21
6.722760
 12
6.405080
 22
6.343920
 13
7.044840
 23
6.693280
  0
POLYLINE
  8
0
  6
CONTINUOUS
 66
     1
 40
0.000000
 41
0.000000
  0
VERTEX
  8
0
  6
CONTINUOUS
 10
6.395840
 20
6.373400
  0
VERTEX
  8
0
  6
CONTINUOUS
 10
7.035600
 20
6.722760
  0
VERTEX
  8
0
  6
CONTINUOUS
 10
7.044840
 20
6.693280
  0
VERTEX
  8
0
  6
CONTINUOUS
 10
6.405080
 20
6.343920
  0
VERTEX
  8
0
  6
CONTINUOUS
 10
6.395840
 20
6.373400
  0
SEQEND
  8
0
  0
SOLID
  8
0
 62
    15
 10
6.405080
 20
6.343920
 11
7.044840
 21
6.693280
 12
6.408600
 22
6.313120
 13
7.048360
 23
6.662480
  0
POLYLINE
  8
0
  6
CONTINUOUS
 66
     1
 40
0.000000
 41
0.000000
  0
VERTEX
  8
0
  6
CONTINUOUS
 10
6.405080
 20
6.343920
  0
VERTEX
  8
0
  6
CONTINUOUS
 10
7.044840
 20
6.693280
  0
VERTEX
  8
0
  6
CONTINUOUS
 10
7.048360
 20
6.662480
  0
VERTEX
  8
0
  6
CONTINUOUS
 10
6.408600
 20
6.313120
  0
VERTEX
  8
0
  6
CONTINUOUS
 10
6.405080
 20
6.343920
  0
SEQEND
  8
0
  0
SOLID
  8
0
 62
    15
 10
6.408600
 20
6.313120
 11
7.048360
 21
6.662480
 12
6.406840
 22
6.282320
 13
7.046600
 23
6.631680
  0
POLYLINE
  8
0
  6
CONTINUOUS
 66
     1
 40
0.000000
 41
0.000000
  0
VERTEX
  8
0
  6
CONTINUOUS
 10
6.408600
 20
6.313120
  0
VERTEX
  8
0
  6
CONTINUOUS
 10
7.048360
 20
6.662480
  0
VERTEX
  8
0
  6
CONTINUOUS
 10
7.046600
 20
6.631680
  0
VERTEX
  8
0
  6
CONTINUOUS
 10
6.406840
 20
6.282320
  0
VERTEX
  8
0
  6
CONTINUOUS
 10
6.408600
 20
6.313120
  0
SEQEND
  8
0
  0
SOLID
  8
0
 62
    15
 10
6.406840
 20
6.282320
 11
7.046600
 21
6.631680
 12
6.399360
 22
6.252840
 13
7.039120
 23
6.601760
  0
POLYLINE
  8
0
  6
CONTINUOUS
 66
     1
 40
0.000000
 41
0.000000
  0
VERTEX
  8
0
  6
CONTINUOUS
 10
6.406840
 20
6.282320
  0
VERTEX
  8
0
  6
CONTINUOUS
 10
7.046600
 20
6.631680
  0
VERTEX
  8
0
  6
CONTINUOUS
 10
7.039120
 20
6.601760
  0
VERTEX
  8
0
  6
CONTINUOUS
 10
6.399360
 20
6.252840
  0
VERTEX
  8
0
  6
CONTINUOUS
 10
6.406840
 20
6.282320
  0
SEQEND
  8
0
  0
SOLID
  8
0
 62
    15
 10
6.399360
 20
6.252840
 11
7.039120
 21
6.601760
 12
6.386160
 22
6.224680
 13
7.025920
 23
6.574040
  0
POLYLINE
  8
0
  6
CONTINUOUS
 66
     1
 40
0.000000
 41
0.000000
  0
VERTEX
  8
0
  6
CONTINUOUS
 10
6.399360
 20
6.252840
  0
VERTEX
  8
0
  6
CONTINUOUS
 10
7.039120
 20
6.601760
  0
VERTEX
  8
0
  6
CONTINUOUS
 10
7.025920
 20
6.574040
  0
VERTEX
  8
0
  6
CONTINUOUS
 10
6.386160
 20
6.224680
  0
VERTEX
  8
0
  6
CONTINUOUS
 10
6.399360
 20
6.252840
  0
SEQEND
  8
0
  0
SOLID
  8
0
 62
    15
 10
6.386160
 20
6.224680
 11
7.025920
 21
6.574040
 12
6.367240
 22
6.199600
 13
7.007000
 23
6.548960
  0
POLYLINE
  8
0
  6
CONTINUOUS
 66
     1
 40
0.000000
 41
0.000000
  0
VERTEX
  8
0
  6
CONTINUOUS
 10
6.386160
 20
6.224680
  0
VERTEX
  8
0
  6
CONTINUOUS
 10
7.025920
 20
6.574040
  0
VERTEX
  8
0
  6
CONTINUOUS
 10
7.007000
 20
6.548960
  0
VERTEX
  8
0
  6
CONTINUOUS
 10
6.367240
 20
6.199600
  0
VERTEX
  8
0
  6
CONTINUOUS
 10
6.386160
 20
6.224680
  0
SEQEND
  8
0
  0
SOLID
  8
0
 62
    15
 10
6.367240
 20
6.199600
 11
7.007000
 21
6.548960
 12
6.342160
 22
6.178480
 13
6.981920
 23
6.527840
  0
POLYLINE
  8
0
  6
CONTINUOUS
 66
     1
 40
0.000000
 41
0.000000
  0
VERTEX
  8
0
  6
CONTINUOUS
 10
6.367240
 20
6.199600
  0
VERTEX
  8
0
  6
CONTINUOUS
 10
7.007000
 20
6.548960
  0
VERTEX
  8
0
  6
CONTINUOUS
 10
6.981920
 20
6.527840
  0
VERTEX
  8
0
  6
CONTINUOUS
 10
6.342160
 20
6.178480
  0
VERTEX
  8
0
  6
CONTINUOUS
 10
6.367240
 20
6.199600
  0
SEQEND
  8
0
  0
POLYLINE
  8
0
  6
CONTINUOUS
 66
     1
 40
0.000000
 41
0.000000
  0
VERTEX
  8
0
  6
CONTINUOUS
 10
6.232160
 20
6.146360
  0
VERTEX
  8
0
  6
CONTINUOUS
 10
6.232160
 20
6.039000
  0
VERTEX
  8
0
  6
CONTINUOUS
 10
6.422240
 20
6.039000
  0
VERTEX
  8
0
  6
CONTINUOUS
 10
6.422240
 20
1.015520
  0
VERTEX
  8
0
  6
CONTINUOUS
 10
5.667200
 20
1.015520
  0
VERTEX
  8
0
  6
CONTINUOUS
 10
5.667200
 20
6.479880
  0
VERTEX
  8
0
  6
CONTINUOUS
 10
6.229080
 20
6.479880
  0
VERTEX
  8
0
  6
CONTINUOUS
 10
6.270000
 20
6.475480
  0
VERTEX
  8
0
  6
CONTINUOUS
 10
6.305640
 20
6.464480
  0
VERTEX
  8
0
  6
CONTINUOUS
 10
6.336440
 20
6.447760
  0
VERTEX
  8
0
  6
CONTINUOUS
 10
6.361520
 20
6.426640
  0
VERTEX
  8
0
  6
CONTINUOUS
 10
6.381320
 20
6.401560
  0
VERTEX
  8
0
  6
CONTINUOUS
 10
6.395840
 20
6.373400
  0
VERTEX
  8
0
  6
CONTINUOUS
 10
6.405080
 20
6.343920
  0
VERTEX
  8
0
  6
CONTINUOUS
 10
6.408600
 20
6.313120
  0
VERTEX
  8
0
  6
CONTINUOUS
 10
6.406840
 20
6.282320
  0
VERTEX
  8
0
  6
CONTINUOUS
 10
6.399360
 20
6.252840
  0
VERTEX
  8
0
  6
CONTINUOUS
 10
6.386160
 20
6.224680
  0
VERTEX
  8
0
  6
CONTINUOUS
 10
6.367240
 20
6.199600
  0
VERTEX
  8
0
  6
CONTINUOUS
 10
6.342160
 20
6.178480
  0
VERTEX
  8
0
  6
CONTINUOUS
 10
6.311800
 20
6.161760
  0
VERTEX
  8
0
  6
CONTINUOUS
 10
6.275720
 20
6.150760
  0
VERTEX
  8
0
  6
CONTINUOUS
 10
6.233480
 20
6.146360
  0
VERTEX
  8
0
  6
CONTINUOUS
 10
6.232160
 20
6.146360
  0
SEQEND
  8
0
  0
TEXT
  8
0
 10
6.067600
 20
0.682000
 40
0.138138
  1
BA  345
 41
1.000000
  7
SN0
 71
     0
 72
     5
 11
6.657869
 21
0.682000
  0
TEXT
  8
0
 10
5.911840
 20
0.490600
 40
0.138138
  1
3/4" x 5-1/2"
 41
1.000000
  7
SN0
 71
     0
 72
     5
 11
6.812956
 21
0.490600
  0
TEXT
  8
0
 10
7.683720
 20
7.866760
 40
0.138138
  1
base
 41
1.000000
  7
SN0
 71
     0
 72
     5
 11
8.044166
 21
7.866760
  0
TEXT
  8
0
 10
7.683720
 20
7.674920
 40
0.138138
  1
345
 41
1.000000
  7
SN0
 71
     0
 72
     5
 11
7.961248
 21
7.674920
  0
ENDSEC
  0
EOF
