  0
SECTION
  2
HEADER
  9
$ACADVER
  1
AC1006
  9
$EXTMIN
 10
1.852400
 20
4.805680
  9
$EXTMAX
 10
6.647080
 20
6.193880
  9
$LTSCALE
 40
0.044000
  9
$PDMODE
 70
    35
  9
$PDSIZE
 40
0.035200
  0
ENDSEC
  0
SECTION
  2
TABLES
  0
TABLE
  2
LTYPE
 70
     9
  0
LTYPE
  2
CONTINUOUS
 70
    64
  3
Solid line
 72
    65
 73
     0
 40
0.000000
  0
LTYPE
  2
DASHED
 70
    64
  3
__ __ __ __ __ __ __ __ __ __ __ __ __ __ __
 72
    65
 73
     2
 40
0.000330
 49
0.000220
 49
-0.000110
  0
LTYPE
  2
HIDDEN
 70
    64
  3
 _ _ _ _ _ _ _ _ _ _ _ _ _ _ _ _ _ _ _ _ _ _
 72
    65
 73
     2
 40
0.000165
 49
0.000110
 49
-0.000055
  0
LTYPE
  2
CENTER
 70
    64
  3
____ _ ____ _ ____ _ ____ _ ____ _ ____ _ ____
 72
    65
 73
     4
 40
0.000880
 49
0.000550
 49
-0.000110
 49
0.000110
 49
-0.000110
  0
LTYPE
  2
PHANTOM
 70
    64
  3
_____ _ _ _____ _ _ _____ _ _ _____ _ _ ____
 72
    65
 73
     6
 40
0.001100
 49
0.000550
 49
-0.000110
 49
0.000110
 49
-0.000110
 49
0.000110
 49
-0.000110
  0
LTYPE
  2
DOT
 70
    64
  3
...............................................
 72
    65
 73
     2
 40
0.000110
 49
0.000000
 49
-0.000110
  0
LTYPE
  2
DASHDOT
 70
    64
  3
__ . __ . __ . __ . __ . __ . __ . __ . __ . __
 72
    65
 73
     4
 40
0.000440
 49
0.000220
 49
-0.000110
 49
0.000000
 49
-0.000110
  0
LTYPE
  2
BORDER
 70
    64
  3
__ __ . __ __ . __ __ . __ __ . __ __ . __ __
 72
    65
 73
     6
 40
0.000770
 49
0.000220
 49
-0.000110
 49
0.000220
 49
-0.000110
 49
0.000000
 49
-0.000110
  0
LTYPE
  2
DIVIDE
 70
    64
  3
__ . . __ . . __ . . __ . . __ . . __ . . __
 72
    65
 73
     6
 40
0.000550
 49
0.000220
 49
-0.000110
 49
0.000000
 49
-0.000110
 49
0.000000
 49
-0.000110
  0
LTYPE
  2
DOTDOT
 70
    64
  3
 . .  . .  . .  . .  . .  . . 
 72
    65
 73
     5
 40
0.000242
 49
-0.000110
 49
0.000000
 49
-0.000110
 49
0.000000
 49
-0.000110
  0
ENDTAB
  0
TABLE
  2
STYLE
 70
     4
  0
STYLE
 70
     0
  2
SN0
 40
0.000000
 41
0.000440
 50
0.000000
 71
     0
 42
0.000000
  3
ROMAND
  0
STYLE
 70
    68
  2
SV0
 40
0.000000
 41
0.000440
 50
0.000000
 71
     0
 42
0.000000
  3
ROMAND
  0
STYLE
 70
     0
  2
SN1
 40
0.000000
 41
0.000440
 50
0.000000
 71
     0
 42
0.000000
  3
ROMAND
  0
STYLE
 70
    68
  2
SV1
 40
0.000000
 41
0.000440
 50
0.000000
 71
     0
 42
0.000000
  3
ROMAND
  0
ENDTAB
  0
TABLE
  2
LAYER
 70
     3
  0
LAYER
  2
FOREGROUND
 70
    64
 62
     7
  6
CONTINUOUS
  0
LAYER
  2
BACKGROUND
 70
    65
 62
    -7
  6
CONTINUOUS
  0
LAYER
  2
0
 70
    64
 62
     7
  6
CONTINUOUS
  0
ENDTAB
  0
ENDSEC
  0
SECTION
  2
ENTITIES
  0
POLYLINE
  8
FOREGROUND
  6
CONTINUOUS
 66
     1
 40
0.000000
 41
0.000000
  0
VERTEX
  8
FOREGROUND
  6
CONTINUOUS
 10
0.000000
 20
10.999560
  0
VERTEX
  8
FOREGROUND
  6
CONTINUOUS
 10
8.499920
 20
10.999560
  0
VERTEX
  8
FOREGROUND
  6
CONTINUOUS
 10
8.499920
 20
-0.000440
  0
VERTEX
  8
FOREGROUND
  6
CONTINUOUS
 10
0.000000
 20
-0.000440
  0
VERTEX
  8
FOREGROUND
  6
CONTINUOUS
 10
0.000000
 20
10.999560
  0
SEQEND
  8
0
  0
POLYLINE
  8
FOREGROUND
  6
CONTINUOUS
 66
     1
 40
0.000000
 41
0.000000
  0
VERTEX
  8
FOREGROUND
  6
CONTINUOUS
 10
0.000000
 20
10.999560
  0
VERTEX
  8
FOREGROUND
  6
CONTINUOUS
 10
8.499920
 20
10.999560
  0
VERTEX
  8
FOREGROUND
  6
CONTINUOUS
 10
8.499920
 20
-0.000440
  0
VERTEX
  8
FOREGROUND
  6
CONTINUOUS
 10
0.000000
 20
-0.000440
  0
VERTEX
  8
FOREGROUND
  6
CONTINUOUS
 10
0.000000
 20
10.999560
  0
SEQEND
  8
0
  0
POLYLINE
  8
0
  6
CONTINUOUS
 66
     1
 40
0.012320
 41
0.012320
  0
VERTEX
  8
0
  6
CONTINUOUS
 10
1.859440
 20
6.186840
  0
VERTEX
  8
0
  6
CONTINUOUS
 10
1.859440
 20
4.811840
  0
SEQEND
  8
0
  0
POLYLINE
  8
0
  6
CONTINUOUS
 66
     1
 40
0.012320
 41
0.012320
  0
VERTEX
  8
0
  6
CONTINUOUS
 10
1.859440
 20
4.811840
  0
VERTEX
  8
0
  6
CONTINUOUS
 10
3.598760
 20
4.814040
  0
SEQEND
  8
0
  0
POLYLINE
  8
0
  6
CONTINUOUS
 66
     1
 40
0.012320
 41
0.012320
  0
VERTEX
  8
0
  6
CONTINUOUS
 10
1.859440
 20
6.186840
  0
VERTEX
  8
0
  6
CONTINUOUS
 10
3.598760
 20
6.186840
  0
SEQEND
  8
0
  0
POLYLINE
  8
0
  6
CONTINUOUS
 66
     1
 40
0.012320
 41
0.012320
  0
VERTEX
  8
0
  6
CONTINUOUS
 10
3.598760
 20
4.811840
  0
VERTEX
  8
0
  6
CONTINUOUS
 10
3.598760
 20
4.937240
  0
SEQEND
  8
0
  0
POLYLINE
  8
0
  6
CONTINUOUS
 66
     1
 40
0.012320
 41
0.012320
  0
VERTEX
  8
0
  6
CONTINUOUS
 10
3.598760
 20
6.186840
  0
VERTEX
  8
0
  6
CONTINUOUS
 10
3.598760
 20
6.061880
  0
SEQEND
  8
0
  0
POLYLINE
  8
0
  6
CONTINUOUS
 66
     1
 40
0.012320
 41
0.012320
  0
VERTEX
  8
0
  6
CONTINUOUS
 10
3.598760
 20
5.624520
  0
VERTEX
  8
0
  6
CONTINUOUS
 10
4.036560
 20
5.624520
  0
SEQEND
  8
0
  0
POLYLINE
  8
0
  6
CONTINUOUS
 66
     1
 40
0.012320
 41
0.012320
  0
VERTEX
  8
0
  6
CONTINUOUS
 10
3.598760
 20
5.376800
  0
VERTEX
  8
0
  6
CONTINUOUS
 10
4.036560
 20
5.374600
  0
SEQEND
  8
0
  0
POLYLINE
  8
0
  6
CONTINUOUS
 66
     1
 40
0.012320
 41
0.012320
  0
VERTEX
  8
0
  6
CONTINUOUS
 10
5.119840
 20
5.374600
  0
VERTEX
  8
0
  6
CONTINUOUS
 10
4.680280
 20
5.376800
  0
SEQEND
  8
0
  0
POLYLINE
  8
0
  6
CONTINUOUS
 66
     1
 40
0.012320
 41
0.012320
  0
VERTEX
  8
0
  6
CONTINUOUS
 10
4.680280
 20
5.622320
  0
VERTEX
  8
0
  6
CONTINUOUS
 10
5.119840
 20
5.624520
  0
SEQEND
  8
0
  0
POLYLINE
  8
0
  6
CONTINUOUS
 66
     1
 40
0.012320
 41
0.012320
  0
VERTEX
  8
0
  6
CONTINUOUS
 10
4.682480
 20
6.061880
  0
VERTEX
  8
0
  6
CONTINUOUS
 10
4.682480
 20
6.186840
  0
SEQEND
  8
0
  0
POLYLINE
  8
0
  6
CONTINUOUS
 66
     1
 40
0.012320
 41
0.012320
  0
VERTEX
  8
0
  6
CONTINUOUS
 10
4.682480
 20
6.186840
  0
VERTEX
  8
0
  6
CONTINUOUS
 10
6.640480
 20
6.186840
  0
SEQEND
  8
0
  0
POLYLINE
  8
0
  6
CONTINUOUS
 66
     1
 40
0.012320
 41
0.012320
  0
VERTEX
  8
0
  6
CONTINUOUS
 10
6.640480
 20
6.186840
  0
VERTEX
  8
0
  6
CONTINUOUS
 10
6.640480
 20
4.811840
  0
SEQEND
  8
0
  0
POLYLINE
  8
0
  6
CONTINUOUS
 66
     1
 40
0.012320
 41
0.012320
  0
VERTEX
  8
0
  6
CONTINUOUS
 10
6.640480
 20
4.811840
  0
VERTEX
  8
0
  6
CONTINUOUS
 10
4.682480
 20
4.811840
  0
SEQEND
  8
0
  0
POLYLINE
  8
0
  6
CONTINUOUS
 66
     1
 40
0.012320
 41
0.012320
  0
VERTEX
  8
0
  6
CONTINUOUS
 10
4.682480
 20
4.811840
  0
VERTEX
  8
0
  6
CONTINUOUS
 10
4.682480
 20
4.937240
  0
SEQEND
  8
0
  0
POLYLINE
  8
0
  6
CONTINUOUS
 66
     1
 40
0.012320
 41
0.012320
  0
VERTEX
  8
0
  6
CONTINUOUS
 10
4.036560
 20
5.374600
  0
VERTEX
  8
0
  6
CONTINUOUS
 10
4.035889
 20
5.349780
  0
VERTEX
  8
0
  6
CONTINUOUS
 10
4.033899
 20
5.325324
  0
VERTEX
  8
0
  6
CONTINUOUS
 10
4.030622
 20
5.301268
  0
VERTEX
  8
0
  6
CONTINUOUS
 10
4.026092
 20
5.277650
  0
VERTEX
  8
0
  6
CONTINUOUS
 10
4.020343
 20
5.254505
  0
VERTEX
  8
0
  6
CONTINUOUS
 10
4.013407
 20
5.231871
  0
VERTEX
  8
0
  6
CONTINUOUS
 10
4.005318
 20
5.209786
  0
VERTEX
  8
0
  6
CONTINUOUS
 10
3.996110
 20
5.188285
  0
VERTEX
  8
0
  6
CONTINUOUS
 10
3.985816
 20
5.167406
  0
VERTEX
  8
0
  6
CONTINUOUS
 10
3.974469
 20
5.147186
  0
VERTEX
  8
0
  6
CONTINUOUS
 10
3.962102
 20
5.127661
  0
VERTEX
  8
0
  6
CONTINUOUS
 10
3.948749
 20
5.108869
  0
VERTEX
  8
0
  6
CONTINUOUS
 10
3.934443
 20
5.090846
  0
VERTEX
  8
0
  6
CONTINUOUS
 10
3.919217
 20
5.073629
  0
VERTEX
  8
0
  6
CONTINUOUS
 10
3.903105
 20
5.057256
  0
VERTEX
  8
0
  6
CONTINUOUS
 10
3.886141
 20
5.041763
  0
VERTEX
  8
0
  6
CONTINUOUS
 10
3.868357
 20
5.027187
  0
VERTEX
  8
0
  6
CONTINUOUS
 10
3.849786
 20
5.013565
  0
VERTEX
  8
0
  6
CONTINUOUS
 10
3.830463
 20
5.000933
  0
VERTEX
  8
0
  6
CONTINUOUS
 10
3.810421
 20
4.989330
  0
VERTEX
  8
0
  6
CONTINUOUS
 10
3.789692
 20
4.978791
  0
VERTEX
  8
0
  6
CONTINUOUS
 10
3.768310
 20
4.969354
  0
VERTEX
  8
0
  6
CONTINUOUS
 10
3.746309
 20
4.961056
  0
VERTEX
  8
0
  6
CONTINUOUS
 10
3.723722
 20
4.953932
  0
VERTEX
  8
0
  6
CONTINUOUS
 10
3.700582
 20
4.948022
  0
VERTEX
  8
0
  6
CONTINUOUS
 10
3.676922
 20
4.943360
  0
VERTEX
  8
0
  6
CONTINUOUS
 10
3.652776
 20
4.939985
  0
VERTEX
  8
0
  6
CONTINUOUS
 10
3.628178
 20
4.937932
  0
VERTEX
  8
0
  6
CONTINUOUS
 10
3.603160
 20
4.937240
  0
SEQEND
  8
0
  0
POLYLINE
  8
0
  6
CONTINUOUS
 66
     1
 40
0.012320
 41
0.012320
  0
VERTEX
  8
0
  6
CONTINUOUS
 10
4.036560
 20
5.624520
  0
VERTEX
  8
0
  6
CONTINUOUS
 10
4.035889
 20
5.649340
  0
VERTEX
  8
0
  6
CONTINUOUS
 10
4.033899
 20
5.673796
  0
VERTEX
  8
0
  6
CONTINUOUS
 10
4.030622
 20
5.697852
  0
VERTEX
  8
0
  6
CONTINUOUS
 10
4.026092
 20
5.721470
  0
VERTEX
  8
0
  6
CONTINUOUS
 10
4.020343
 20
5.744615
  0
VERTEX
  8
0
  6
CONTINUOUS
 10
4.013407
 20
5.767249
  0
VERTEX
  8
0
  6
CONTINUOUS
 10
4.005318
 20
5.789334
  0
VERTEX
  8
0
  6
CONTINUOUS
 10
3.996110
 20
5.810835
  0
VERTEX
  8
0
  6
CONTINUOUS
 10
3.985816
 20
5.831714
  0
VERTEX
  8
0
  6
CONTINUOUS
 10
3.974469
 20
5.851934
  0
VERTEX
  8
0
  6
CONTINUOUS
 10
3.962102
 20
5.871459
  0
VERTEX
  8
0
  6
CONTINUOUS
 10
3.948749
 20
5.890251
  0
VERTEX
  8
0
  6
CONTINUOUS
 10
3.934443
 20
5.908274
  0
VERTEX
  8
0
  6
CONTINUOUS
 10
3.919217
 20
5.925491
  0
VERTEX
  8
0
  6
CONTINUOUS
 10
3.903105
 20
5.941864
  0
VERTEX
  8
0
  6
CONTINUOUS
 10
3.886141
 20
5.957357
  0
VERTEX
  8
0
  6
CONTINUOUS
 10
3.868357
 20
5.971933
  0
VERTEX
  8
0
  6
CONTINUOUS
 10
3.849786
 20
5.985555
  0
VERTEX
  8
0
  6
CONTINUOUS
 10
3.830463
 20
5.998187
  0
VERTEX
  8
0
  6
CONTINUOUS
 10
3.810421
 20
6.009790
  0
VERTEX
  8
0
  6
CONTINUOUS
 10
3.789692
 20
6.020329
  0
VERTEX
  8
0
  6
CONTINUOUS
 10
3.768310
 20
6.029766
  0
VERTEX
  8
0
  6
CONTINUOUS
 10
3.746309
 20
6.038064
  0
VERTEX
  8
0
  6
CONTINUOUS
 10
3.723722
 20
6.045188
  0
VERTEX
  8
0
  6
CONTINUOUS
 10
3.700582
 20
6.051098
  0
VERTEX
  8
0
  6
CONTINUOUS
 10
3.676922
 20
6.055760
  0
VERTEX
  8
0
  6
CONTINUOUS
 10
3.652776
 20
6.059135
  0
VERTEX
  8
0
  6
CONTINUOUS
 10
3.628178
 20
6.061188
  0
VERTEX
  8
0
  6
CONTINUOUS
 10
3.603160
 20
6.061880
  0
SEQEND
  8
0
  0
POLYLINE
  8
0
  6
CONTINUOUS
 66
     1
 40
0.012320
 41
0.012320
  0
VERTEX
  8
0
  6
CONTINUOUS
 10
4.686440
 20
4.937240
  0
VERTEX
  8
0
  6
CONTINUOUS
 10
4.711458
 20
4.937932
  0
VERTEX
  8
0
  6
CONTINUOUS
 10
4.736056
 20
4.939985
  0
VERTEX
  8
0
  6
CONTINUOUS
 10
4.760202
 20
4.943360
  0
VERTEX
  8
0
  6
CONTINUOUS
 10
4.783862
 20
4.948022
  0
VERTEX
  8
0
  6
CONTINUOUS
 10
4.807002
 20
4.953932
  0
VERTEX
  8
0
  6
CONTINUOUS
 10
4.829589
 20
4.961056
  0
VERTEX
  8
0
  6
CONTINUOUS
 10
4.851590
 20
4.969354
  0
VERTEX
  8
0
  6
CONTINUOUS
 10
4.872972
 20
4.978791
  0
VERTEX
  8
0
  6
CONTINUOUS
 10
4.893701
 20
4.989330
  0
VERTEX
  8
0
  6
CONTINUOUS
 10
4.913743
 20
5.000933
  0
VERTEX
  8
0
  6
CONTINUOUS
 10
4.933066
 20
5.013565
  0
VERTEX
  8
0
  6
CONTINUOUS
 10
4.951637
 20
5.027187
  0
VERTEX
  8
0
  6
CONTINUOUS
 10
4.969421
 20
5.041763
  0
VERTEX
  8
0
  6
CONTINUOUS
 10
4.986385
 20
5.057256
  0
VERTEX
  8
0
  6
CONTINUOUS
 10
5.002497
 20
5.073629
  0
VERTEX
  8
0
  6
CONTINUOUS
 10
5.017723
 20
5.090846
  0
VERTEX
  8
0
  6
CONTINUOUS
 10
5.032029
 20
5.108869
  0
VERTEX
  8
0
  6
CONTINUOUS
 10
5.045382
 20
5.127661
  0
VERTEX
  8
0
  6
CONTINUOUS
 10
5.057749
 20
5.147186
  0
VERTEX
  8
0
  6
CONTINUOUS
 10
5.069096
 20
5.167406
  0
VERTEX
  8
0
  6
CONTINUOUS
 10
5.079390
 20
5.188285
  0
VERTEX
  8
0
  6
CONTINUOUS
 10
5.088598
 20
5.209786
  0
VERTEX
  8
0
  6
CONTINUOUS
 10
5.096687
 20
5.231871
  0
VERTEX
  8
0
  6
CONTINUOUS
 10
5.103623
 20
5.254505
  0
VERTEX
  8
0
  6
CONTINUOUS
 10
5.109372
 20
5.277650
  0
VERTEX
  8
0
  6
CONTINUOUS
 10
5.113902
 20
5.301268
  0
VERTEX
  8
0
  6
CONTINUOUS
 10
5.117179
 20
5.325324
  0
VERTEX
  8
0
  6
CONTINUOUS
 10
5.119169
 20
5.349780
  0
VERTEX
  8
0
  6
CONTINUOUS
 10
5.119840
 20
5.374600
  0
SEQEND
  8
0
  0
POLYLINE
  8
0
  6
CONTINUOUS
 66
     1
 40
0.012320
 41
0.012320
  0
VERTEX
  8
0
  6
CONTINUOUS
 10
5.119840
 20
5.624520
  0
VERTEX
  8
0
  6
CONTINUOUS
 10
5.119169
 20
5.649340
  0
VERTEX
  8
0
  6
CONTINUOUS
 10
5.117179
 20
5.673796
  0
VERTEX
  8
0
  6
CONTINUOUS
 10
5.113902
 20
5.697852
  0
VERTEX
  8
0
  6
CONTINUOUS
 10
5.109372
 20
5.721470
  0
VERTEX
  8
0
  6
CONTINUOUS
 10
5.103623
 20
5.744615
  0
VERTEX
  8
0
  6
CONTINUOUS
 10
5.096687
 20
5.767249
  0
VERTEX
  8
0
  6
CONTINUOUS
 10
5.088598
 20
5.789334
  0
VERTEX
  8
0
  6
CONTINUOUS
 10
5.079390
 20
5.810835
  0
VERTEX
  8
0
  6
CONTINUOUS
 10
5.069096
 20
5.831714
  0
VERTEX
  8
0
  6
CONTINUOUS
 10
5.057749
 20
5.851934
  0
VERTEX
  8
0
  6
CONTINUOUS
 10
5.045382
 20
5.871459
  0
VERTEX
  8
0
  6
CONTINUOUS
 10
5.032029
 20
5.890251
  0
VERTEX
  8
0
  6
CONTINUOUS
 10
5.017723
 20
5.908274
  0
VERTEX
  8
0
  6
CONTINUOUS
 10
5.002497
 20
5.925491
  0
VERTEX
  8
0
  6
CONTINUOUS
 10
4.986385
 20
5.941864
  0
VERTEX
  8
0
  6
CONTINUOUS
 10
4.969421
 20
5.957357
  0
VERTEX
  8
0
  6
CONTINUOUS
 10
4.951637
 20
5.971933
  0
VERTEX
  8
0
  6
CONTINUOUS
 10
4.933066
 20
5.985555
  0
VERTEX
  8
0
  6
CONTINUOUS
 10
4.913743
 20
5.998187
  0
VERTEX
  8
0
  6
CONTINUOUS
 10
4.893701
 20
6.009790
  0
VERTEX
  8
0
  6
CONTINUOUS
 10
4.872972
 20
6.020329
  0
VERTEX
  8
0
  6
CONTINUOUS
 10
4.851590
 20
6.029766
  0
VERTEX
  8
0
  6
CONTINUOUS
 10
4.829589
 20
6.038064
  0
VERTEX
  8
0
  6
CONTINUOUS
 10
4.807002
 20
6.045188
  0
VERTEX
  8
0
  6
CONTINUOUS
 10
4.783862
 20
6.051098
  0
VERTEX
  8
0
  6
CONTINUOUS
 10
4.760202
 20
6.055760
  0
VERTEX
  8
0
  6
CONTINUOUS
 10
4.736056
 20
6.059135
  0
VERTEX
  8
0
  6
CONTINUOUS
 10
4.711458
 20
6.061188
  0
VERTEX
  8
0
  6
CONTINUOUS
 10
4.686440
 20
6.061880
  0
SEQEND
  8
0
  0
TEXT
  8
0
 10
2.436280
 20
4.911280
 40
0.160648
  1
343A
 41
1.000000
  7
SN0
 71
     0
 72
     5
 11
2.887699
 21
4.911280
  0
TEXT
  8
0
 10
5.621880
 20
4.913480
 40
0.160648
  1
343B
 41
1.000000
  7
SN1
 71
     0
 72
     5
 11
6.073299
 21
4.913480
  0
POLYLINE
  8
0
  6
CONTINUOUS
 66
     1
 40
0.012320
 41
0.012320
  0
VERTEX
  8
0
  6
CONTINUOUS
 10
3.598760
 20
5.620560
  0
VERTEX
  8
0
  6
CONTINUOUS
 10
3.598760
 20
5.376800
  0
SEQEND
  8
0
  0
POLYLINE
  8
0
  6
CONTINUOUS
 66
     1
 40
0.012320
 41
0.012320
  0
VERTEX
  8
0
  6
CONTINUOUS
 10
4.680280
 20
5.622320
  0
VERTEX
  8
0
  6
CONTINUOUS
 10
4.680280
 20
5.376800
  0
SEQEND
  8
0
  0
ENDSEC
  0
EOF
