  0
SECTION
  2
HEADER
  9
$ACADVER
  1
AC1006
  9
$EXTMIN
 10
6.017440
 20
5.058680
  9
$EXTMAX
 10
7.788000
 20
6.437640
  9
$LTSCALE
 40
0.044000
  9
$PDMODE
 70
    35
  9
$PDSIZE
 40
0.035200
  0
ENDSEC
  0
SECTION
  2
TABLES
  0
TABLE
  2
LTYPE
 70
     9
  0
LTYPE
  2
CONTINUOUS
 70
    64
  3
Solid line
 72
    65
 73
     0
 40
0.000000
  0
LTYPE
  2
DASHED
 70
    64
  3
__ __ __ __ __ __ __ __ __ __ __ __ __ __ __
 72
    65
 73
     2
 40
0.000330
 49
0.000220
 49
-0.000110
  0
LTYPE
  2
HIDDEN
 70
    64
  3
 _ _ _ _ _ _ _ _ _ _ _ _ _ _ _ _ _ _ _ _ _ _
 72
    65
 73
     2
 40
0.000165
 49
0.000110
 49
-0.000055
  0
LTYPE
  2
CENTER
 70
    64
  3
____ _ ____ _ ____ _ ____ _ ____ _ ____ _ ____
 72
    65
 73
     4
 40
0.000880
 49
0.000550
 49
-0.000110
 49
0.000110
 49
-0.000110
  0
LTYPE
  2
PHANTOM
 70
    64
  3
_____ _ _ _____ _ _ _____ _ _ _____ _ _ ____
 72
    65
 73
     6
 40
0.001100
 49
0.000550
 49
-0.000110
 49
0.000110
 49
-0.000110
 49
0.000110
 49
-0.000110
  0
LTYPE
  2
DOT
 70
    64
  3
...............................................
 72
    65
 73
     2
 40
0.000110
 49
0.000000
 49
-0.000110
  0
LTYPE
  2
DASHDOT
 70
    64
  3
__ . __ . __ . __ . __ . __ . __ . __ . __ . __
 72
    65
 73
     4
 40
0.000440
 49
0.000220
 49
-0.000110
 49
0.000000
 49
-0.000110
  0
LTYPE
  2
BORDER
 70
    64
  3
__ __ . __ __ . __ __ . __ __ . __ __ . __ __
 72
    65
 73
     6
 40
0.000770
 49
0.000220
 49
-0.000110
 49
0.000220
 49
-0.000110
 49
0.000000
 49
-0.000110
  0
LTYPE
  2
DIVIDE
 70
    64
  3
__ . . __ . . __ . . __ . . __ . . __ . . __
 72
    65
 73
     6
 40
0.000550
 49
0.000220
 49
-0.000110
 49
0.000000
 49
-0.000110
 49
0.000000
 49
-0.000110
  0
LTYPE
  2
DOTDOT
 70
    64
  3
 . .  . .  . .  . .  . .  . . 
 72
    65
 73
     5
 40
0.000242
 49
-0.000110
 49
0.000000
 49
-0.000110
 49
0.000000
 49
-0.000110
  0
ENDTAB
  0
TABLE
  2
STYLE
 70
     2
  0
STYLE
 70
     0
  2
SN0
 40
0.000000
 41
0.000440
 50
0.000000
 71
     0
 42
0.000000
  3
ROMAND
  0
STYLE
 70
    68
  2
SV0
 40
0.000000
 41
0.000440
 50
0.000000
 71
     0
 42
0.000000
  3
ROMAND
  0
ENDTAB
  0
TABLE
  2
LAYER
 70
     3
  0
LAYER
  2
FOREGROUND
 70
    64
 62
     7
  6
CONTINUOUS
  0
LAYER
  2
BACKGROUND
 70
    65
 62
    -7
  6
CONTINUOUS
  0
LAYER
  2
0
 70
    64
 62
     7
  6
CONTINUOUS
  0
ENDTAB
  0
ENDSEC
  0
SECTION
  2
ENTITIES
  0
POLYLINE
  8
FOREGROUND
  6
CONTINUOUS
 66
     1
 40
0.000000
 41
0.000000
  0
VERTEX
  8
FOREGROUND
  6
CONTINUOUS
 10
0.000000
 20
11.496320
  0
VERTEX
  8
FOREGROUND
  6
CONTINUOUS
 10
8.499920
 20
11.496320
  0
VERTEX
  8
FOREGROUND
  6
CONTINUOUS
 10
8.499920
 20
0.496320
  0
VERTEX
  8
FOREGROUND
  6
CONTINUOUS
 10
0.000000
 20
0.496320
  0
VERTEX
  8
FOREGROUND
  6
CONTINUOUS
 10
0.000000
 20
11.496320
  0
SEQEND
  8
0
  0
POLYLINE
  8
FOREGROUND
  6
CONTINUOUS
 66
     1
 40
0.000000
 41
0.000000
  0
VERTEX
  8
FOREGROUND
  6
CONTINUOUS
 10
0.000000
 20
11.496320
  0
VERTEX
  8
FOREGROUND
  6
CONTINUOUS
 10
8.499920
 20
11.496320
  0
VERTEX
  8
FOREGROUND
  6
CONTINUOUS
 10
8.499920
 20
0.496320
  0
VERTEX
  8
FOREGROUND
  6
CONTINUOUS
 10
0.000000
 20
0.496320
  0
VERTEX
  8
FOREGROUND
  6
CONTINUOUS
 10
0.000000
 20
11.496320
  0
SEQEND
  8
0
  0
SOLID
  8
0
 62
    15
 10
6.846400
 20
5.993240
 11
7.489240
 21
6.369000
 12
6.893040
 22
5.965080
 13
7.536320
 23
6.340840
  0
POLYLINE
  8
0
  6
CONTINUOUS
 66
     1
 40
0.000000
 41
0.000000
  0
VERTEX
  8
0
  6
CONTINUOUS
 10
6.846400
 20
5.993240
  0
VERTEX
  8
0
  6
CONTINUOUS
 10
7.489240
 20
6.369000
  0
VERTEX
  8
0
  6
CONTINUOUS
 10
7.536320
 20
6.340840
  0
VERTEX
  8
0
  6
CONTINUOUS
 10
6.893040
 20
5.965080
  0
VERTEX
  8
0
  6
CONTINUOUS
 10
6.846400
 20
5.993240
  0
SEQEND
  8
0
  0
SOLID
  8
0
 62
    15
 10
6.360640
 20
6.016560
 11
7.003480
 21
6.392760
 12
6.412120
 22
6.035480
 13
7.054960
 23
6.411680
  0
POLYLINE
  8
0
  6
CONTINUOUS
 66
     1
 40
0.000000
 41
0.000000
  0
VERTEX
  8
0
  6
CONTINUOUS
 10
6.360640
 20
6.016560
  0
VERTEX
  8
0
  6
CONTINUOUS
 10
7.003480
 20
6.392760
  0
VERTEX
  8
0
  6
CONTINUOUS
 10
7.054960
 20
6.411680
  0
VERTEX
  8
0
  6
CONTINUOUS
 10
6.412120
 20
6.035480
  0
VERTEX
  8
0
  6
CONTINUOUS
 10
6.360640
 20
6.016560
  0
SEQEND
  8
0
  0
SOLID
  8
0
 62
    15
 10
6.412120
 20
6.035480
 11
7.054960
 21
6.411680
 12
6.465800
 22
6.049560
 13
7.108640
 23
6.425760
  0
POLYLINE
  8
0
  6
CONTINUOUS
 66
     1
 40
0.000000
 41
0.000000
  0
VERTEX
  8
0
  6
CONTINUOUS
 10
6.412120
 20
6.035480
  0
VERTEX
  8
0
  6
CONTINUOUS
 10
7.054960
 20
6.411680
  0
VERTEX
  8
0
  6
CONTINUOUS
 10
7.108640
 20
6.425760
  0
VERTEX
  8
0
  6
CONTINUOUS
 10
6.465800
 20
6.049560
  0
VERTEX
  8
0
  6
CONTINUOUS
 10
6.412120
 20
6.035480
  0
SEQEND
  8
0
  0
SOLID
  8
0
 62
    15
 10
6.465800
 20
6.049560
 11
7.108640
 21
6.425760
 12
6.521240
 22
6.057920
 13
7.164080
 23
6.434120
  0
POLYLINE
  8
0
  6
CONTINUOUS
 66
     1
 40
0.000000
 41
0.000000
  0
VERTEX
  8
0
  6
CONTINUOUS
 10
6.465800
 20
6.049560
  0
VERTEX
  8
0
  6
CONTINUOUS
 10
7.108640
 20
6.425760
  0
VERTEX
  8
0
  6
CONTINUOUS
 10
7.164080
 20
6.434120
  0
VERTEX
  8
0
  6
CONTINUOUS
 10
6.521240
 20
6.057920
  0
VERTEX
  8
0
  6
CONTINUOUS
 10
6.465800
 20
6.049560
  0
SEQEND
  8
0
  0
SOLID
  8
0
 62
    15
 10
6.521240
 20
6.057920
 11
7.164080
 21
6.434120
 12
6.578440
 22
6.061000
 13
7.221280
 23
6.437200
  0
POLYLINE
  8
0
  6
CONTINUOUS
 66
     1
 40
0.000000
 41
0.000000
  0
VERTEX
  8
0
  6
CONTINUOUS
 10
6.521240
 20
6.057920
  0
VERTEX
  8
0
  6
CONTINUOUS
 10
7.164080
 20
6.434120
  0
VERTEX
  8
0
  6
CONTINUOUS
 10
7.221280
 20
6.437200
  0
VERTEX
  8
0
  6
CONTINUOUS
 10
6.578440
 20
6.061000
  0
VERTEX
  8
0
  6
CONTINUOUS
 10
6.521240
 20
6.057920
  0
SEQEND
  8
0
  0
SOLID
  8
0
 62
    15
 10
6.578440
 20
6.061000
 11
7.221280
 21
6.437200
 12
6.635640
 22
6.057920
 13
7.278480
 23
6.434120
  0
POLYLINE
  8
0
  6
CONTINUOUS
 66
     1
 40
0.000000
 41
0.000000
  0
VERTEX
  8
0
  6
CONTINUOUS
 10
6.578440
 20
6.061000
  0
VERTEX
  8
0
  6
CONTINUOUS
 10
7.221280
 20
6.437200
  0
VERTEX
  8
0
  6
CONTINUOUS
 10
7.278480
 20
6.434120
  0
VERTEX
  8
0
  6
CONTINUOUS
 10
6.635640
 20
6.057920
  0
VERTEX
  8
0
  6
CONTINUOUS
 10
6.578440
 20
6.061000
  0
SEQEND
  8
0
  0
SOLID
  8
0
 62
    15
 10
6.635640
 20
6.057920
 11
7.278480
 21
6.434120
 12
6.691080
 22
6.049560
 13
7.334360
 23
6.425760
  0
POLYLINE
  8
0
  6
CONTINUOUS
 66
     1
 40
0.000000
 41
0.000000
  0
VERTEX
  8
0
  6
CONTINUOUS
 10
6.635640
 20
6.057920
  0
VERTEX
  8
0
  6
CONTINUOUS
 10
7.278480
 20
6.434120
  0
VERTEX
  8
0
  6
CONTINUOUS
 10
7.334360
 20
6.425760
  0
VERTEX
  8
0
  6
CONTINUOUS
 10
6.691080
 20
6.049560
  0
VERTEX
  8
0
  6
CONTINUOUS
 10
6.635640
 20
6.057920
  0
SEQEND
  8
0
  0
SOLID
  8
0
 62
    15
 10
6.691080
 20
6.049560
 11
7.334360
 21
6.425760
 12
6.745200
 22
6.035480
 13
7.388040
 23
6.411680
  0
POLYLINE
  8
0
  6
CONTINUOUS
 66
     1
 40
0.000000
 41
0.000000
  0
VERTEX
  8
0
  6
CONTINUOUS
 10
6.691080
 20
6.049560
  0
VERTEX
  8
0
  6
CONTINUOUS
 10
7.334360
 20
6.425760
  0
VERTEX
  8
0
  6
CONTINUOUS
 10
7.388040
 20
6.411680
  0
VERTEX
  8
0
  6
CONTINUOUS
 10
6.745200
 20
6.035480
  0
VERTEX
  8
0
  6
CONTINUOUS
 10
6.691080
 20
6.049560
  0
SEQEND
  8
0
  0
SOLID
  8
0
 62
    15
 10
6.745200
 20
6.035480
 11
7.388040
 21
6.411680
 12
6.797120
 22
6.016560
 13
7.439960
 23
6.392760
  0
POLYLINE
  8
0
  6
CONTINUOUS
 66
     1
 40
0.000000
 41
0.000000
  0
VERTEX
  8
0
  6
CONTINUOUS
 10
6.745200
 20
6.035480
  0
VERTEX
  8
0
  6
CONTINUOUS
 10
7.388040
 20
6.411680
  0
VERTEX
  8
0
  6
CONTINUOUS
 10
7.439960
 20
6.392760
  0
VERTEX
  8
0
  6
CONTINUOUS
 10
6.797120
 20
6.016560
  0
VERTEX
  8
0
  6
CONTINUOUS
 10
6.745200
 20
6.035480
  0
SEQEND
  8
0
  0
SOLID
  8
0
 62
    15
 10
6.797120
 20
6.016560
 11
7.439960
 21
6.392760
 12
6.846400
 22
5.993240
 13
7.489240
 23
6.369000
  0
POLYLINE
  8
0
  6
CONTINUOUS
 66
     1
 40
0.000000
 41
0.000000
  0
VERTEX
  8
0
  6
CONTINUOUS
 10
6.797120
 20
6.016560
  0
VERTEX
  8
0
  6
CONTINUOUS
 10
7.439960
 20
6.392760
  0
VERTEX
  8
0
  6
CONTINUOUS
 10
7.489240
 20
6.369000
  0
VERTEX
  8
0
  6
CONTINUOUS
 10
6.846400
 20
5.993240
  0
VERTEX
  8
0
  6
CONTINUOUS
 10
6.797120
 20
6.016560
  0
SEQEND
  8
0
  0
SOLID
  8
0
 62
    15
 10
6.311800
 20
5.993240
 11
6.954640
 21
6.369000
 12
6.360640
 22
6.016560
 13
7.003480
 23
6.392760
  0
POLYLINE
  8
0
  6
CONTINUOUS
 66
     1
 40
0.000000
 41
0.000000
  0
VERTEX
  8
0
  6
CONTINUOUS
 10
6.311800
 20
5.993240
  0
VERTEX
  8
0
  6
CONTINUOUS
 10
6.954640
 20
6.369000
  0
VERTEX
  8
0
  6
CONTINUOUS
 10
7.003480
 20
6.392760
  0
VERTEX
  8
0
  6
CONTINUOUS
 10
6.360640
 20
6.016560
  0
VERTEX
  8
0
  6
CONTINUOUS
 10
6.311800
 20
5.993240
  0
SEQEND
  8
0
  0
SOLID
  8
0
 62
     7
 10
6.893040
 20
5.965080
 11
7.536320
 21
6.340840
 12
6.937040
 22
5.932520
 13
7.579880
 23
6.308720
  0
POLYLINE
  8
0
  6
CONTINUOUS
 66
     1
 40
0.000000
 41
0.000000
  0
VERTEX
  8
0
  6
CONTINUOUS
 10
6.893040
 20
5.965080
  0
VERTEX
  8
0
  6
CONTINUOUS
 10
7.536320
 20
6.340840
  0
VERTEX
  8
0
  6
CONTINUOUS
 10
7.579880
 20
6.308720
  0
VERTEX
  8
0
  6
CONTINUOUS
 10
6.937040
 20
5.932520
  0
VERTEX
  8
0
  6
CONTINUOUS
 10
6.893040
 20
5.965080
  0
SEQEND
  8
0
  0
SOLID
  8
0
 62
     7
 10
6.937040
 20
5.932520
 11
7.579880
 21
6.308720
 12
6.977520
 22
5.896440
 13
7.620360
 23
6.272640
  0
POLYLINE
  8
0
  6
CONTINUOUS
 66
     1
 40
0.000000
 41
0.000000
  0
VERTEX
  8
0
  6
CONTINUOUS
 10
6.937040
 20
5.932520
  0
VERTEX
  8
0
  6
CONTINUOUS
 10
7.579880
 20
6.308720
  0
VERTEX
  8
0
  6
CONTINUOUS
 10
7.620360
 20
6.272640
  0
VERTEX
  8
0
  6
CONTINUOUS
 10
6.977520
 20
5.896440
  0
VERTEX
  8
0
  6
CONTINUOUS
 10
6.937040
 20
5.932520
  0
SEQEND
  8
0
  0
SOLID
  8
0
 62
     7
 10
6.977520
 20
5.896440
 11
7.620360
 21
6.272640
 12
7.014040
 22
5.856400
 13
7.656880
 23
6.232600
  0
POLYLINE
  8
0
  6
CONTINUOUS
 66
     1
 40
0.000000
 41
0.000000
  0
VERTEX
  8
0
  6
CONTINUOUS
 10
6.977520
 20
5.896440
  0
VERTEX
  8
0
  6
CONTINUOUS
 10
7.620360
 20
6.272640
  0
VERTEX
  8
0
  6
CONTINUOUS
 10
7.656880
 20
6.232600
  0
VERTEX
  8
0
  6
CONTINUOUS
 10
7.014040
 20
5.856400
  0
VERTEX
  8
0
  6
CONTINUOUS
 10
6.977520
 20
5.896440
  0
SEQEND
  8
0
  0
SOLID
  8
0
 62
     7
 10
7.014040
 20
5.856400
 11
7.656880
 21
6.232600
 12
7.047040
 22
5.813280
 13
7.689880
 23
6.189480
  0
POLYLINE
  8
0
  6
CONTINUOUS
 66
     1
 40
0.000000
 41
0.000000
  0
VERTEX
  8
0
  6
CONTINUOUS
 10
7.014040
 20
5.856400
  0
VERTEX
  8
0
  6
CONTINUOUS
 10
7.656880
 20
6.232600
  0
VERTEX
  8
0
  6
CONTINUOUS
 10
7.689880
 20
6.189480
  0
VERTEX
  8
0
  6
CONTINUOUS
 10
7.047040
 20
5.813280
  0
VERTEX
  8
0
  6
CONTINUOUS
 10
7.014040
 20
5.856400
  0
SEQEND
  8
0
  0
SOLID
  8
0
 62
     7
 10
7.047040
 20
5.813280
 11
7.689880
 21
6.189480
 12
7.075640
 22
5.767080
 13
7.718480
 23
6.143280
  0
POLYLINE
  8
0
  6
CONTINUOUS
 66
     1
 40
0.000000
 41
0.000000
  0
VERTEX
  8
0
  6
CONTINUOUS
 10
7.047040
 20
5.813280
  0
VERTEX
  8
0
  6
CONTINUOUS
 10
7.689880
 20
6.189480
  0
VERTEX
  8
0
  6
CONTINUOUS
 10
7.718480
 20
6.143280
  0
VERTEX
  8
0
  6
CONTINUOUS
 10
7.075640
 20
5.767080
  0
VERTEX
  8
0
  6
CONTINUOUS
 10
7.047040
 20
5.813280
  0
SEQEND
  8
0
  0
SOLID
  8
0
 62
     7
 10
7.075640
 20
5.767080
 11
7.718480
 21
6.143280
 12
7.099840
 22
5.718240
 13
7.742680
 23
6.094440
  0
POLYLINE
  8
0
  6
CONTINUOUS
 66
     1
 40
0.000000
 41
0.000000
  0
VERTEX
  8
0
  6
CONTINUOUS
 10
7.075640
 20
5.767080
  0
VERTEX
  8
0
  6
CONTINUOUS
 10
7.718480
 20
6.143280
  0
VERTEX
  8
0
  6
CONTINUOUS
 10
7.742680
 20
6.094440
  0
VERTEX
  8
0
  6
CONTINUOUS
 10
7.099840
 20
5.718240
  0
VERTEX
  8
0
  6
CONTINUOUS
 10
7.075640
 20
5.767080
  0
SEQEND
  8
0
  0
SOLID
  8
0
 62
     7
 10
7.099840
 20
5.718240
 11
7.742680
 21
6.094440
 12
7.119200
 22
5.666760
 13
7.762040
 23
6.042960
  0
POLYLINE
  8
0
  6
CONTINUOUS
 66
     1
 40
0.000000
 41
0.000000
  0
VERTEX
  8
0
  6
CONTINUOUS
 10
7.099840
 20
5.718240
  0
VERTEX
  8
0
  6
CONTINUOUS
 10
7.742680
 20
6.094440
  0
VERTEX
  8
0
  6
CONTINUOUS
 10
7.762040
 20
6.042960
  0
VERTEX
  8
0
  6
CONTINUOUS
 10
7.119200
 20
5.666760
  0
VERTEX
  8
0
  6
CONTINUOUS
 10
7.099840
 20
5.718240
  0
SEQEND
  8
0
  0
SOLID
  8
0
 62
    15
 10
7.119200
 20
5.666760
 11
7.762040
 21
6.042960
 12
7.133280
 22
5.613080
 13
7.776120
 23
5.989280
  0
POLYLINE
  8
0
  6
CONTINUOUS
 66
     1
 40
0.000000
 41
0.000000
  0
VERTEX
  8
0
  6
CONTINUOUS
 10
7.119200
 20
5.666760
  0
VERTEX
  8
0
  6
CONTINUOUS
 10
7.762040
 20
6.042960
  0
VERTEX
  8
0
  6
CONTINUOUS
 10
7.776120
 20
5.989280
  0
VERTEX
  8
0
  6
CONTINUOUS
 10
7.133280
 20
5.613080
  0
VERTEX
  8
0
  6
CONTINUOUS
 10
7.119200
 20
5.666760
  0
SEQEND
  8
0
  0
SOLID
  8
0
 62
    15
 10
7.133280
 20
5.613080
 11
7.776120
 21
5.989280
 12
7.142080
 22
5.557640
 13
7.784920
 23
5.933840
  0
POLYLINE
  8
0
  6
CONTINUOUS
 66
     1
 40
0.000000
 41
0.000000
  0
VERTEX
  8
0
  6
CONTINUOUS
 10
7.133280
 20
5.613080
  0
VERTEX
  8
0
  6
CONTINUOUS
 10
7.776120
 20
5.989280
  0
VERTEX
  8
0
  6
CONTINUOUS
 10
7.784920
 20
5.933840
  0
VERTEX
  8
0
  6
CONTINUOUS
 10
7.142080
 20
5.557640
  0
VERTEX
  8
0
  6
CONTINUOUS
 10
7.133280
 20
5.613080
  0
SEQEND
  8
0
  0
SOLID
  8
0
 62
    15
 10
7.142080
 20
5.557640
 11
7.784920
 21
5.933840
 12
7.145160
 22
5.500440
 13
7.788000
 23
5.876640
  0
POLYLINE
  8
0
  6
CONTINUOUS
 66
     1
 40
0.000000
 41
0.000000
  0
VERTEX
  8
0
  6
CONTINUOUS
 10
7.142080
 20
5.557640
  0
VERTEX
  8
0
  6
CONTINUOUS
 10
7.784920
 20
5.933840
  0
VERTEX
  8
0
  6
CONTINUOUS
 10
7.788000
 20
5.876640
  0
VERTEX
  8
0
  6
CONTINUOUS
 10
7.145160
 20
5.500440
  0
VERTEX
  8
0
  6
CONTINUOUS
 10
7.142080
 20
5.557640
  0
SEQEND
  8
0
  0
POLYLINE
  8
0
  6
CONTINUOUS
 66
     1
 40
0.000000
 41
0.000000
  0
VERTEX
  8
0
  6
CONTINUOUS
 10
7.145160
 20
5.500440
  0
VERTEX
  8
0
  6
CONTINUOUS
 10
6.017880
 20
5.500440
  0
VERTEX
  8
0
  6
CONTINUOUS
 10
6.020960
 20
5.557640
  0
VERTEX
  8
0
  6
CONTINUOUS
 10
6.029320
 20
5.613080
  0
VERTEX
  8
0
  6
CONTINUOUS
 10
6.043400
 20
5.666760
  0
VERTEX
  8
0
  6
CONTINUOUS
 10
6.062320
 20
5.718240
  0
VERTEX
  8
0
  6
CONTINUOUS
 10
6.086080
 20
5.767080
  0
VERTEX
  8
0
  6
CONTINUOUS
 10
6.114240
 20
5.813280
  0
VERTEX
  8
0
  6
CONTINUOUS
 10
6.146360
 20
5.856400
  0
VERTEX
  8
0
  6
CONTINUOUS
 10
6.182440
 20
5.896440
  0
VERTEX
  8
0
  6
CONTINUOUS
 10
6.222480
 20
5.932520
  0
VERTEX
  8
0
  6
CONTINUOUS
 10
6.265600
 20
5.965080
  0
VERTEX
  8
0
  6
CONTINUOUS
 10
6.311800
 20
5.993240
  0
VERTEX
  8
0
  6
CONTINUOUS
 10
6.360640
 20
6.016560
  0
VERTEX
  8
0
  6
CONTINUOUS
 10
6.412120
 20
6.035480
  0
VERTEX
  8
0
  6
CONTINUOUS
 10
6.465800
 20
6.049560
  0
VERTEX
  8
0
  6
CONTINUOUS
 10
6.521240
 20
6.057920
  0
VERTEX
  8
0
  6
CONTINUOUS
 10
6.578440
 20
6.061000
  0
VERTEX
  8
0
  6
CONTINUOUS
 10
6.635640
 20
6.057920
  0
VERTEX
  8
0
  6
CONTINUOUS
 10
6.691080
 20
6.049560
  0
VERTEX
  8
0
  6
CONTINUOUS
 10
6.745200
 20
6.035480
  0
VERTEX
  8
0
  6
CONTINUOUS
 10
6.797120
 20
6.016560
  0
VERTEX
  8
0
  6
CONTINUOUS
 10
6.846400
 20
5.993240
  0
VERTEX
  8
0
  6
CONTINUOUS
 10
6.893040
 20
5.965080
  0
VERTEX
  8
0
  6
CONTINUOUS
 10
6.937040
 20
5.932520
  0
VERTEX
  8
0
  6
CONTINUOUS
 10
6.977520
 20
5.896440
  0
VERTEX
  8
0
  6
CONTINUOUS
 10
7.014040
 20
5.856400
  0
VERTEX
  8
0
  6
CONTINUOUS
 10
7.047040
 20
5.813280
  0
VERTEX
  8
0
  6
CONTINUOUS
 10
7.075640
 20
5.767080
  0
VERTEX
  8
0
  6
CONTINUOUS
 10
7.099840
 20
5.718240
  0
VERTEX
  8
0
  6
CONTINUOUS
 10
7.119200
 20
5.666760
  0
VERTEX
  8
0
  6
CONTINUOUS
 10
7.133280
 20
5.613080
  0
VERTEX
  8
0
  6
CONTINUOUS
 10
7.142080
 20
5.557640
  0
VERTEX
  8
0
  6
CONTINUOUS
 10
7.145160
 20
5.500440
  0
SEQEND
  8
0
  0
TEXT
  8
0
 10
6.607480
 20
5.293640
 40
0.138123
  1
BA  342
 41
1.000000
  7
SN0
 71
     0
 72
     5
 11
7.197608
 21
5.293640
  0
TEXT
  8
0
 10
6.684040
 20
5.101800
 40
0.138123
  1
1-1/8"
 41
1.000000
  7
SN0
 71
     0
 72
     5
 11
7.120749
 21
5.101800
  0
ENDSEC
  0
EOF
