  0
SECTION
  2
HEADER
  9
$ACADVER
  1
AC1006
  9
$EXTMIN
 10
0.503800
 20
0.503360
  9
$EXTMAX
 10
7.580760
 20
5.862120
  9
$LTSCALE
 40
0.044000
  9
$PDMODE
 70
    35
  9
$PDSIZE
 40
0.035200
  0
ENDSEC
  0
SECTION
  2
TABLES
  0
TABLE
  2
LTYPE
 70
     9
  0
LTYPE
  2
CONTINUOUS
 70
    64
  3
Solid line
 72
    65
 73
     0
 40
0.000000
  0
LTYPE
  2
DASHED
 70
    64
  3
__ __ __ __ __ __ __ __ __ __ __ __ __ __ __
 72
    65
 73
     2
 40
0.000330
 49
0.000220
 49
-0.000110
  0
LTYPE
  2
HIDDEN
 70
    64
  3
 _ _ _ _ _ _ _ _ _ _ _ _ _ _ _ _ _ _ _ _ _ _
 72
    65
 73
     2
 40
0.000165
 49
0.000110
 49
-0.000055
  0
LTYPE
  2
CENTER
 70
    64
  3
____ _ ____ _ ____ _ ____ _ ____ _ ____ _ ____
 72
    65
 73
     4
 40
0.000880
 49
0.000550
 49
-0.000110
 49
0.000110
 49
-0.000110
  0
LTYPE
  2
PHANTOM
 70
    64
  3
_____ _ _ _____ _ _ _____ _ _ _____ _ _ ____
 72
    65
 73
     6
 40
0.001100
 49
0.000550
 49
-0.000110
 49
0.000110
 49
-0.000110
 49
0.000110
 49
-0.000110
  0
LTYPE
  2
DOT
 70
    64
  3
...............................................
 72
    65
 73
     2
 40
0.000110
 49
0.000000
 49
-0.000110
  0
LTYPE
  2
DASHDOT
 70
    64
  3
__ . __ . __ . __ . __ . __ . __ . __ . __ . __
 72
    65
 73
     4
 40
0.000440
 49
0.000220
 49
-0.000110
 49
0.000000
 49
-0.000110
  0
LTYPE
  2
BORDER
 70
    64
  3
__ __ . __ __ . __ __ . __ __ . __ __ . __ __
 72
    65
 73
     6
 40
0.000770
 49
0.000220
 49
-0.000110
 49
0.000220
 49
-0.000110
 49
0.000000
 49
-0.000110
  0
LTYPE
  2
DIVIDE
 70
    64
  3
__ . . __ . . __ . . __ . . __ . . __ . . __
 72
    65
 73
     6
 40
0.000550
 49
0.000220
 49
-0.000110
 49
0.000000
 49
-0.000110
 49
0.000000
 49
-0.000110
  0
LTYPE
  2
DOTDOT
 70
    64
  3
 . .  . .  . .  . .  . .  . . 
 72
    65
 73
     5
 40
0.000242
 49
-0.000110
 49
0.000000
 49
-0.000110
 49
0.000000
 49
-0.000110
  0
ENDTAB
  0
TABLE
  2
STYLE
 70
     2
  0
STYLE
 70
     0
  2
SN0
 40
0.000000
 41
0.000440
 50
0.000000
 71
     0
 42
0.000000
  3
ROMAND
  0
STYLE
 70
    68
  2
SV0
 40
0.000000
 41
0.000440
 50
0.000000
 71
     0
 42
0.000000
  3
ROMAND
  0
ENDTAB
  0
TABLE
  2
LAYER
 70
     3
  0
LAYER
  2
FOREGROUND
 70
    64
 62
     7
  6
CONTINUOUS
  0
LAYER
  2
BACKGROUND
 70
    65
 62
    -7
  6
CONTINUOUS
  0
LAYER
  2
0
 70
    64
 62
     7
  6
CONTINUOUS
  0
ENDTAB
  0
ENDSEC
  0
SECTION
  2
ENTITIES
  0
POLYLINE
  8
FOREGROUND
  6
CONTINUOUS
 66
     1
 40
0.000000
 41
0.000000
  0
VERTEX
  8
FOREGROUND
  6
CONTINUOUS
 10
0.000000
 20
6.365480
  0
VERTEX
  8
FOREGROUND
  6
CONTINUOUS
 10
8.499920
 20
6.365480
  0
VERTEX
  8
FOREGROUND
  6
CONTINUOUS
 10
8.499920
 20
-4.634520
  0
VERTEX
  8
FOREGROUND
  6
CONTINUOUS
 10
0.000000
 20
-4.634520
  0
VERTEX
  8
FOREGROUND
  6
CONTINUOUS
 10
0.000000
 20
6.365480
  0
SEQEND
  8
0
  0
POLYLINE
  8
FOREGROUND
  6
CONTINUOUS
 66
     1
 40
0.000000
 41
0.000000
  0
VERTEX
  8
FOREGROUND
  6
CONTINUOUS
 10
0.000000
 20
6.365480
  0
VERTEX
  8
FOREGROUND
  6
CONTINUOUS
 10
8.499920
 20
6.365480
  0
VERTEX
  8
FOREGROUND
  6
CONTINUOUS
 10
8.499920
 20
-4.634520
  0
VERTEX
  8
FOREGROUND
  6
CONTINUOUS
 10
0.000000
 20
-4.634520
  0
VERTEX
  8
FOREGROUND
  6
CONTINUOUS
 10
0.000000
 20
6.365480
  0
SEQEND
  8
0
  0
POLYLINE
  8
0
  6
CONTINUOUS
 66
     1
 40
0.014080
 41
0.014080
  0
VERTEX
  8
0
  6
CONTINUOUS
 10
6.288920
 20
4.735720
  0
VERTEX
  8
0
  6
CONTINUOUS
 10
6.507600
 20
4.627480
  0
VERTEX
  8
0
  6
CONTINUOUS
 10
6.507600
 20
4.625280
  0
VERTEX
  8
0
  6
CONTINUOUS
 10
6.529160
 20
4.667520
  0
VERTEX
  8
0
  6
CONTINUOUS
 10
6.556440
 20
4.705800
  0
VERTEX
  8
0
  6
CONTINUOUS
 10
6.588560
 20
4.739680
  0
VERTEX
  8
0
  6
CONTINUOUS
 10
6.606600
 20
4.755080
  0
VERTEX
  8
0
  6
CONTINUOUS
 10
6.645320
 20
4.781480
  0
VERTEX
  8
0
  6
CONTINUOUS
 10
6.687560
 20
4.802160
  0
VERTEX
  8
0
  6
CONTINUOUS
 10
6.709560
 20
4.810080
  0
VERTEX
  8
0
  6
CONTINUOUS
 10
6.732880
 20
4.816680
  0
VERTEX
  8
0
  6
CONTINUOUS
 10
6.780840
 20
4.824160
  0
VERTEX
  8
0
  6
CONTINUOUS
 10
6.819560
 20
4.824600
  0
VERTEX
  8
0
  6
CONTINUOUS
 10
6.860920
 20
4.820200
  0
VERTEX
  8
0
  6
CONTINUOUS
 10
6.887320
 20
4.814040
  0
VERTEX
  8
0
  6
CONTINUOUS
 10
6.913280
 20
4.806120
  0
VERTEX
  8
0
  6
CONTINUOUS
 10
6.938360
 20
4.795560
  0
VERTEX
  8
0
  6
CONTINUOUS
 10
6.962560
 20
4.783240
  0
VERTEX
  8
0
  6
CONTINUOUS
 10
6.985440
 20
4.769160
  0
VERTEX
  8
0
  6
CONTINUOUS
 10
7.007000
 20
4.753320
  0
VERTEX
  8
0
  6
CONTINUOUS
 10
7.027240
 20
4.735720
  0
VERTEX
  8
0
  6
CONTINUOUS
 10
7.046160
 20
4.716360
  0
VERTEX
  8
0
  6
CONTINUOUS
 10
7.079160
 20
4.674120
  0
VERTEX
  8
0
  6
CONTINUOUS
 10
7.092800
 20
4.650800
  0
VERTEX
  8
0
  6
CONTINUOUS
 10
7.104680
 20
4.626600
  0
VERTEX
  8
0
  6
CONTINUOUS
 10
7.114360
 20
4.601080
  0
VERTEX
  8
0
  6
CONTINUOUS
 10
7.122280
 20
4.575120
  0
VERTEX
  8
0
  6
CONTINUOUS
 10
7.122280
 20
4.577320
  0
VERTEX
  8
0
  6
CONTINUOUS
 10
7.212040
 20
4.589640
  0
VERTEX
  8
0
  6
CONTINUOUS
 10
7.214680
 20
4.550920
  0
VERTEX
  8
0
  6
CONTINUOUS
 10
7.222160
 20
4.514400
  0
VERTEX
  8
0
  6
CONTINUOUS
 10
7.234040
 20
4.480520
  0
VERTEX
  8
0
  6
CONTINUOUS
 10
7.249880
 20
4.448840
  0
VERTEX
  8
0
  6
CONTINUOUS
 10
7.269240
 20
4.419800
  0
VERTEX
  8
0
  6
CONTINUOUS
 10
7.291240
 20
4.392960
  0
VERTEX
  8
0
  6
CONTINUOUS
 10
7.315880
 20
4.368320
  0
VERTEX
  8
0
  6
CONTINUOUS
 10
7.355920
 20
4.336640
  0
VERTEX
  8
0
  6
CONTINUOUS
 10
7.398600
 20
4.310240
  0
VERTEX
  8
0
  6
CONTINUOUS
 10
7.441720
 20
4.289560
  0
VERTEX
  8
0
  6
CONTINUOUS
 10
7.484400
 20
4.274600
  0
VERTEX
  8
0
  6
CONTINUOUS
 10
7.524000
 20
4.265800
  0
VERTEX
  8
0
  6
CONTINUOUS
 10
7.559640
 20
4.262720
  0
VERTEX
  8
0
  6
CONTINUOUS
 10
7.559640
 20
4.264920
  0
VERTEX
  8
0
  6
CONTINUOUS
 10
7.559640
 20
4.070880
  0
VERTEX
  8
0
  6
CONTINUOUS
 10
1.514040
 20
4.070880
  0
VERTEX
  8
0
  6
CONTINUOUS
 10
1.514040
 20
5.289680
  0
VERTEX
  8
0
  6
CONTINUOUS
 10
3.868040
 20
5.291880
  0
VERTEX
  8
0
  6
CONTINUOUS
 10
3.868920
 20
5.256680
  0
VERTEX
  8
0
  6
CONTINUOUS
 10
3.876400
 20
5.200800
  0
VERTEX
  8
0
  6
CONTINUOUS
 10
3.892240
 20
5.138320
  0
VERTEX
  8
0
  6
CONTINUOUS
 10
3.910720
 20
5.089040
  0
VERTEX
  8
0
  6
CONTINUOUS
 10
3.935800
 20
5.039320
  0
VERTEX
  8
0
  6
CONTINUOUS
 10
3.967480
 20
4.990480
  0
VERTEX
  8
0
  6
CONTINUOUS
 10
4.007080
 20
4.943400
  0
VERTEX
  8
0
  6
CONTINUOUS
 10
4.055480
 20
4.900280
  0
VERTEX
  8
0
  6
CONTINUOUS
 10
4.092880
 20
4.873880
  0
VERTEX
  8
0
  6
CONTINUOUS
 10
4.134240
 20
4.850120
  0
VERTEX
  8
0
  6
CONTINUOUS
 10
4.180440
 20
4.829440
  0
VERTEX
  8
0
  6
CONTINUOUS
 10
4.206840
 20
4.846600
  0
VERTEX
  8
0
  6
CONTINUOUS
 10
4.260520
 20
4.888400
  0
VERTEX
  8
0
  6
CONTINUOUS
 10
4.377560
 20
4.988280
  0
VERTEX
  8
0
  6
CONTINUOUS
 10
4.444000
 20
5.037560
  0
VERTEX
  8
0
  6
CONTINUOUS
 10
4.498120
 20
5.071440
  0
VERTEX
  8
0
  6
CONTINUOUS
 10
4.557080
 20
5.100480
  0
VERTEX
  8
0
  6
CONTINUOUS
 10
4.620880
 20
5.122480
  0
VERTEX
  8
0
  6
CONTINUOUS
 10
4.667080
 20
5.132600
  0
VERTEX
  8
0
  6
CONTINUOUS
 10
4.715480
 20
5.138320
  0
VERTEX
  8
0
  6
CONTINUOUS
 10
4.741000
 20
5.139640
  0
VERTEX
  8
0
  6
CONTINUOUS
 10
4.777960
 20
5.139200
  0
VERTEX
  8
0
  6
CONTINUOUS
 10
4.814040
 20
5.137000
  0
VERTEX
  8
0
  6
CONTINUOUS
 10
4.883560
 20
5.126000
  0
VERTEX
  8
0
  6
CONTINUOUS
 10
4.917000
 20
5.118080
  0
VERTEX
  8
0
  6
CONTINUOUS
 10
4.980800
 20
5.096960
  0
VERTEX
  8
0
  6
CONTINUOUS
 10
5.041080
 20
5.070560
  0
VERTEX
  8
0
  6
CONTINUOUS
 10
5.097400
 20
5.039320
  0
VERTEX
  8
0
  6
CONTINUOUS
 10
5.150200
 20
5.005000
  0
VERTEX
  8
0
  6
CONTINUOUS
 10
5.222800
 20
4.949560
  0
VERTEX
  8
0
  6
CONTINUOUS
 10
5.306400
 20
4.873000
  0
VERTEX
  8
0
  6
CONTINUOUS
 10
5.441480
 20
4.730440
  0
VERTEX
  8
0
  6
CONTINUOUS
 10
5.470080
 20
4.704480
  0
VERTEX
  8
0
  6
CONTINUOUS
 10
5.547960
 20
4.646840
  0
VERTEX
  8
0
  6
CONTINUOUS
 10
5.600320
 20
4.614280
  0
VERTEX
  8
0
  6
CONTINUOUS
 10
5.661480
 20
4.583920
  0
VERTEX
  8
0
  6
CONTINUOUS
 10
5.707240
 20
4.567200
  0
VERTEX
  8
0
  6
CONTINUOUS
 10
5.756520
 20
4.554440
  0
VERTEX
  8
0
  6
CONTINUOUS
 10
5.809760
 20
4.546960
  0
VERTEX
  8
0
  6
CONTINUOUS
 10
5.837920
 20
4.545200
  0
VERTEX
  8
0
  6
CONTINUOUS
 10
5.866960
 20
4.545640
  0
VERTEX
  8
0
  6
CONTINUOUS
 10
5.896880
 20
4.547840
  0
VERTEX
  8
0
  6
CONTINUOUS
 10
5.927680
 20
4.551800
  0
VERTEX
  8
0
  6
CONTINUOUS
 10
5.959360
 20
4.557960
  0
VERTEX
  8
0
  6
CONTINUOUS
 10
6.009080
 20
4.572040
  0
VERTEX
  8
0
  6
CONTINUOUS
 10
6.060560
 20
4.591400
  0
VERTEX
  8
0
  6
CONTINUOUS
 10
6.113800
 20
4.616920
  0
VERTEX
  8
0
  6
CONTINUOUS
 10
6.169680
 20
4.649480
  0
VERTEX
  8
0
  6
CONTINUOUS
 10
6.226880
 20
4.688640
  0
VERTEX
  8
0
  6
CONTINUOUS
 10
6.286720
 20
4.735720
  0
VERTEX
  8
0
  6
CONTINUOUS
 10
6.288920
 20
4.735720
  0
SEQEND
  8
0
  0
POLYLINE
  8
0
  6
CONTINUOUS
 66
     1
 40
0.014080
 41
0.014080
  0
VERTEX
  8
0
  6
CONTINUOUS
 10
2.641320
 20
5.294080
  0
VERTEX
  8
0
  6
CONTINUOUS
 10
1.514040
 20
5.294080
  0
VERTEX
  8
0
  6
CONTINUOUS
 10
1.517120
 20
5.351280
  0
VERTEX
  8
0
  6
CONTINUOUS
 10
1.525480
 20
5.406720
  0
VERTEX
  8
0
  6
CONTINUOUS
 10
1.531640
 20
5.433560
  0
VERTEX
  8
0
  6
CONTINUOUS
 10
1.548360
 20
5.486360
  0
VERTEX
  8
0
  6
CONTINUOUS
 10
1.558040
 20
5.511880
  0
VERTEX
  8
0
  6
CONTINUOUS
 10
1.581800
 20
5.560720
  0
VERTEX
  8
0
  6
CONTINUOUS
 10
1.609960
 20
5.606920
  0
VERTEX
  8
0
  6
CONTINUOUS
 10
1.642520
 20
5.650040
  0
VERTEX
  8
0
  6
CONTINUOUS
 10
1.678600
 20
5.689640
  0
VERTEX
  8
0
  6
CONTINUOUS
 10
1.697960
 20
5.708560
  0
VERTEX
  8
0
  6
CONTINUOUS
 10
1.739760
 20
5.742440
  0
VERTEX
  8
0
  6
CONTINUOUS
 10
1.784640
 20
5.772800
  0
VERTEX
  8
0
  6
CONTINUOUS
 10
1.832160
 20
5.798760
  0
VERTEX
  8
0
  6
CONTINUOUS
 10
1.882320
 20
5.820320
  0
VERTEX
  8
0
  6
CONTINUOUS
 10
1.934680
 20
5.836600
  0
VERTEX
  8
0
  6
CONTINUOUS
 10
1.989680
 20
5.847600
  0
VERTEX
  8
0
  6
CONTINUOUS
 10
2.046000
 20
5.853320
  0
VERTEX
  8
0
  6
CONTINUOUS
 10
2.074600
 20
5.854200
  0
VERTEX
  8
0
  6
CONTINUOUS
 10
2.131800
 20
5.851120
  0
VERTEX
  8
0
  6
CONTINUOUS
 10
2.187680
 20
5.842760
  0
VERTEX
  8
0
  6
CONTINUOUS
 10
2.241360
 20
5.829120
  0
VERTEX
  8
0
  6
CONTINUOUS
 10
2.293280
 20
5.810200
  0
VERTEX
  8
0
  6
CONTINUOUS
 10
2.342560
 20
5.786440
  0
VERTEX
  8
0
  6
CONTINUOUS
 10
2.389640
 20
5.758280
  0
VERTEX
  8
0
  6
CONTINUOUS
 10
2.433200
 20
5.726160
  0
VERTEX
  8
0
  6
CONTINUOUS
 10
2.473680
 20
5.689640
  0
VERTEX
  8
0
  6
CONTINUOUS
 10
2.510640
 20
5.650040
  0
VERTEX
  8
0
  6
CONTINUOUS
 10
2.543200
 20
5.606920
  0
VERTEX
  8
0
  6
CONTINUOUS
 10
2.571800
 20
5.560720
  0
VERTEX
  8
0
  6
CONTINUOUS
 10
2.596000
 20
5.511880
  0
VERTEX
  8
0
  6
CONTINUOUS
 10
2.606560
 20
5.486360
  0
VERTEX
  8
0
  6
CONTINUOUS
 10
2.623280
 20
5.433560
  0
VERTEX
  8
0
  6
CONTINUOUS
 10
2.634720
 20
5.379000
  0
VERTEX
  8
0
  6
CONTINUOUS
 10
2.640440
 20
5.322680
  0
VERTEX
  8
0
  6
CONTINUOUS
 10
2.641320
 20
5.294080
  0
SEQEND
  8
0
  0
SOLID
  8
0
 62
    15
 10
3.021920
 20
1.879240
 11
3.013120
 21
2.622840
 12
3.092320
 22
1.824240
 13
3.083520
 23
2.568280
  0
POLYLINE
  8
0
  6
CONTINUOUS
 66
     1
 40
0.000000
 41
0.000000
  0
VERTEX
  8
0
  6
CONTINUOUS
 10
3.021920
 20
1.879240
  0
VERTEX
  8
0
  6
CONTINUOUS
 10
3.013120
 20
2.622840
  0
VERTEX
  8
0
  6
CONTINUOUS
 10
3.083520
 20
2.568280
  0
VERTEX
  8
0
  6
CONTINUOUS
 10
3.092320
 20
1.824240
  0
VERTEX
  8
0
  6
CONTINUOUS
 10
3.021920
 20
1.879240
  0
SEQEND
  8
0
  0
SOLID
  8
0
 62
    15
 10
5.507040
 20
1.575640
 11
5.498240
 21
2.319240
 12
5.528600
 22
1.617880
 13
5.519800
 23
2.361480
  0
POLYLINE
  8
0
  6
CONTINUOUS
 66
     1
 40
0.000000
 41
0.000000
  0
VERTEX
  8
0
  6
CONTINUOUS
 10
5.507040
 20
1.575640
  0
VERTEX
  8
0
  6
CONTINUOUS
 10
5.498240
 20
2.319240
  0
VERTEX
  8
0
  6
CONTINUOUS
 10
5.519800
 20
2.361480
  0
VERTEX
  8
0
  6
CONTINUOUS
 10
5.528600
 20
1.617880
  0
VERTEX
  8
0
  6
CONTINUOUS
 10
5.507040
 20
1.575640
  0
SEQEND
  8
0
  0
SOLID
  8
0
 62
    15
 10
5.528600
 20
1.617880
 11
5.519800
 21
2.361480
 12
5.555880
 22
1.656160
 13
5.547080
 23
2.399760
  0
POLYLINE
  8
0
  6
CONTINUOUS
 66
     1
 40
0.000000
 41
0.000000
  0
VERTEX
  8
0
  6
CONTINUOUS
 10
5.528600
 20
1.617880
  0
VERTEX
  8
0
  6
CONTINUOUS
 10
5.519800
 20
2.361480
  0
VERTEX
  8
0
  6
CONTINUOUS
 10
5.547080
 20
2.399760
  0
VERTEX
  8
0
  6
CONTINUOUS
 10
5.555880
 20
1.656160
  0
VERTEX
  8
0
  6
CONTINUOUS
 10
5.528600
 20
1.617880
  0
SEQEND
  8
0
  0
SOLID
  8
0
 62
    15
 10
5.555880
 20
1.656160
 11
5.547080
 21
2.399760
 12
5.588000
 22
1.690480
 13
5.579200
 23
2.434080
  0
POLYLINE
  8
0
  6
CONTINUOUS
 66
     1
 40
0.000000
 41
0.000000
  0
VERTEX
  8
0
  6
CONTINUOUS
 10
5.555880
 20
1.656160
  0
VERTEX
  8
0
  6
CONTINUOUS
 10
5.547080
 20
2.399760
  0
VERTEX
  8
0
  6
CONTINUOUS
 10
5.579200
 20
2.434080
  0
VERTEX
  8
0
  6
CONTINUOUS
 10
5.588000
 20
1.690480
  0
VERTEX
  8
0
  6
CONTINUOUS
 10
5.555880
 20
1.656160
  0
SEQEND
  8
0
  0
SOLID
  8
0
 62
    15
 10
5.588000
 20
1.690480
 11
5.579200
 21
2.434080
 12
5.624520
 22
1.719520
 13
5.616160
 23
2.463120
  0
POLYLINE
  8
0
  6
CONTINUOUS
 66
     1
 40
0.000000
 41
0.000000
  0
VERTEX
  8
0
  6
CONTINUOUS
 10
5.588000
 20
1.690480
  0
VERTEX
  8
0
  6
CONTINUOUS
 10
5.579200
 20
2.434080
  0
VERTEX
  8
0
  6
CONTINUOUS
 10
5.616160
 20
2.463120
  0
VERTEX
  8
0
  6
CONTINUOUS
 10
5.624520
 20
1.719520
  0
VERTEX
  8
0
  6
CONTINUOUS
 10
5.588000
 20
1.690480
  0
SEQEND
  8
0
  0
SOLID
  8
0
 62
    15
 10
5.624520
 20
1.719520
 11
5.616160
 21
2.463120
 12
5.665000
 22
1.743280
 13
5.656640
 23
2.486880
  0
POLYLINE
  8
0
  6
CONTINUOUS
 66
     1
 40
0.000000
 41
0.000000
  0
VERTEX
  8
0
  6
CONTINUOUS
 10
5.624520
 20
1.719520
  0
VERTEX
  8
0
  6
CONTINUOUS
 10
5.616160
 20
2.463120
  0
VERTEX
  8
0
  6
CONTINUOUS
 10
5.656640
 20
2.486880
  0
VERTEX
  8
0
  6
CONTINUOUS
 10
5.665000
 20
1.743280
  0
VERTEX
  8
0
  6
CONTINUOUS
 10
5.624520
 20
1.719520
  0
SEQEND
  8
0
  0
SOLID
  8
0
 62
    15
 10
5.665000
 20
1.743280
 11
5.656640
 21
2.486880
 12
5.709000
 22
1.760880
 13
5.700200
 23
2.504480
  0
POLYLINE
  8
0
  6
CONTINUOUS
 66
     1
 40
0.000000
 41
0.000000
  0
VERTEX
  8
0
  6
CONTINUOUS
 10
5.665000
 20
1.743280
  0
VERTEX
  8
0
  6
CONTINUOUS
 10
5.656640
 20
2.486880
  0
VERTEX
  8
0
  6
CONTINUOUS
 10
5.700200
 20
2.504480
  0
VERTEX
  8
0
  6
CONTINUOUS
 10
5.709000
 20
1.760880
  0
VERTEX
  8
0
  6
CONTINUOUS
 10
5.665000
 20
1.743280
  0
SEQEND
  8
0
  0
SOLID
  8
0
 62
    15
 10
5.709000
 20
1.760880
 11
5.700200
 21
2.504480
 12
5.755640
 22
1.771880
 13
5.747280
 23
2.515480
  0
POLYLINE
  8
0
  6
CONTINUOUS
 66
     1
 40
0.000000
 41
0.000000
  0
VERTEX
  8
0
  6
CONTINUOUS
 10
5.709000
 20
1.760880
  0
VERTEX
  8
0
  6
CONTINUOUS
 10
5.700200
 20
2.504480
  0
VERTEX
  8
0
  6
CONTINUOUS
 10
5.747280
 20
2.515480
  0
VERTEX
  8
0
  6
CONTINUOUS
 10
5.755640
 20
1.771880
  0
VERTEX
  8
0
  6
CONTINUOUS
 10
5.709000
 20
1.760880
  0
SEQEND
  8
0
  0
SOLID
  8
0
 62
    15
 10
5.755640
 20
1.771880
 11
5.747280
 21
2.515480
 12
5.804920
 22
1.775840
 13
5.796120
 23
2.519440
  0
POLYLINE
  8
0
  6
CONTINUOUS
 66
     1
 40
0.000000
 41
0.000000
  0
VERTEX
  8
0
  6
CONTINUOUS
 10
5.755640
 20
1.771880
  0
VERTEX
  8
0
  6
CONTINUOUS
 10
5.747280
 20
2.515480
  0
VERTEX
  8
0
  6
CONTINUOUS
 10
5.796120
 20
2.519440
  0
VERTEX
  8
0
  6
CONTINUOUS
 10
5.804920
 20
1.775840
  0
VERTEX
  8
0
  6
CONTINUOUS
 10
5.755640
 20
1.771880
  0
SEQEND
  8
0
  0
SOLID
  8
0
 62
    15
 10
5.804920
 20
1.775840
 11
5.796120
 21
2.519440
 12
5.859920
 22
1.771000
 13
5.851120
 23
2.514600
  0
POLYLINE
  8
0
  6
CONTINUOUS
 66
     1
 40
0.000000
 41
0.000000
  0
VERTEX
  8
0
  6
CONTINUOUS
 10
5.804920
 20
1.775840
  0
VERTEX
  8
0
  6
CONTINUOUS
 10
5.796120
 20
2.519440
  0
VERTEX
  8
0
  6
CONTINUOUS
 10
5.851120
 20
2.514600
  0
VERTEX
  8
0
  6
CONTINUOUS
 10
5.859920
 20
1.771000
  0
VERTEX
  8
0
  6
CONTINUOUS
 10
5.804920
 20
1.775840
  0
SEQEND
  8
0
  0
SOLID
  8
0
 62
    15
 10
5.859920
 20
1.771000
 11
5.851120
 21
2.514600
 12
5.912720
 22
1.756480
 13
5.903920
 23
2.500080
  0
POLYLINE
  8
0
  6
CONTINUOUS
 66
     1
 40
0.000000
 41
0.000000
  0
VERTEX
  8
0
  6
CONTINUOUS
 10
5.859920
 20
1.771000
  0
VERTEX
  8
0
  6
CONTINUOUS
 10
5.851120
 20
2.514600
  0
VERTEX
  8
0
  6
CONTINUOUS
 10
5.903920
 20
2.500080
  0
VERTEX
  8
0
  6
CONTINUOUS
 10
5.912720
 20
1.756480
  0
VERTEX
  8
0
  6
CONTINUOUS
 10
5.859920
 20
1.771000
  0
SEQEND
  8
0
  0
SOLID
  8
0
 62
    15
 10
5.912720
 20
1.756480
 11
5.903920
 21
2.500080
 12
5.961560
 22
1.734040
 13
5.952760
 23
2.477640
  0
POLYLINE
  8
0
  6
CONTINUOUS
 66
     1
 40
0.000000
 41
0.000000
  0
VERTEX
  8
0
  6
CONTINUOUS
 10
5.912720
 20
1.756480
  0
VERTEX
  8
0
  6
CONTINUOUS
 10
5.903920
 20
2.500080
  0
VERTEX
  8
0
  6
CONTINUOUS
 10
5.952760
 20
2.477640
  0
VERTEX
  8
0
  6
CONTINUOUS
 10
5.961560
 20
1.734040
  0
VERTEX
  8
0
  6
CONTINUOUS
 10
5.912720
 20
1.756480
  0
SEQEND
  8
0
  0
SOLID
  8
0
 62
    15
 10
5.961560
 20
1.734040
 11
5.952760
 21
2.477640
 12
6.006000
 22
1.704120
 13
5.997640
 23
2.447720
  0
POLYLINE
  8
0
  6
CONTINUOUS
 66
     1
 40
0.000000
 41
0.000000
  0
VERTEX
  8
0
  6
CONTINUOUS
 10
5.961560
 20
1.734040
  0
VERTEX
  8
0
  6
CONTINUOUS
 10
5.952760
 20
2.477640
  0
VERTEX
  8
0
  6
CONTINUOUS
 10
5.997640
 20
2.447720
  0
VERTEX
  8
0
  6
CONTINUOUS
 10
6.006000
 20
1.704120
  0
VERTEX
  8
0
  6
CONTINUOUS
 10
5.961560
 20
1.734040
  0
SEQEND
  8
0
  0
SOLID
  8
0
 62
    15
 10
6.006000
 20
1.704120
 11
5.997640
 21
2.447720
 12
6.045160
 22
1.667160
 13
6.036360
 23
2.410760
  0
POLYLINE
  8
0
  6
CONTINUOUS
 66
     1
 40
0.000000
 41
0.000000
  0
VERTEX
  8
0
  6
CONTINUOUS
 10
6.006000
 20
1.704120
  0
VERTEX
  8
0
  6
CONTINUOUS
 10
5.997640
 20
2.447720
  0
VERTEX
  8
0
  6
CONTINUOUS
 10
6.036360
 20
2.410760
  0
VERTEX
  8
0
  6
CONTINUOUS
 10
6.045160
 20
1.667160
  0
VERTEX
  8
0
  6
CONTINUOUS
 10
6.006000
 20
1.704120
  0
SEQEND
  8
0
  0
SOLID
  8
0
 62
    15
 10
6.078160
 20
1.624480
 11
6.069360
 21
2.368080
 12
6.103680
 22
1.577400
 13
6.095320
 23
2.321000
  0
POLYLINE
  8
0
  6
CONTINUOUS
 66
     1
 40
0.000000
 41
0.000000
  0
VERTEX
  8
0
  6
CONTINUOUS
 10
6.078160
 20
1.624480
  0
VERTEX
  8
0
  6
CONTINUOUS
 10
6.069360
 20
2.368080
  0
VERTEX
  8
0
  6
CONTINUOUS
 10
6.095320
 20
2.321000
  0
VERTEX
  8
0
  6
CONTINUOUS
 10
6.103680
 20
1.577400
  0
VERTEX
  8
0
  6
CONTINUOUS
 10
6.078160
 20
1.624480
  0
SEQEND
  8
0
  0
SOLID
  8
0
 62
    15
 10
6.045160
 20
1.667160
 11
6.036360
 21
2.410760
 12
6.078160
 22
1.624480
 13
6.069360
 23
2.368080
  0
POLYLINE
  8
0
  6
CONTINUOUS
 66
     1
 40
0.000000
 41
0.000000
  0
VERTEX
  8
0
  6
CONTINUOUS
 10
6.045160
 20
1.667160
  0
VERTEX
  8
0
  6
CONTINUOUS
 10
6.036360
 20
2.410760
  0
VERTEX
  8
0
  6
CONTINUOUS
 10
6.069360
 20
2.368080
  0
VERTEX
  8
0
  6
CONTINUOUS
 10
6.078160
 20
1.624480
  0
VERTEX
  8
0
  6
CONTINUOUS
 10
6.045160
 20
1.667160
  0
SEQEND
  8
0
  0
SOLID
  8
0
 62
    15
 10
6.121720
 20
1.525920
 11
6.112920
 21
2.269520
 12
6.121720
 22
1.527680
 13
6.112920
 23
2.271720
  0
POLYLINE
  8
0
  6
CONTINUOUS
 66
     1
 40
0.000000
 41
0.000000
  0
VERTEX
  8
0
  6
CONTINUOUS
 10
6.121720
 20
1.525920
  0
VERTEX
  8
0
  6
CONTINUOUS
 10
6.112920
 20
2.269520
  0
VERTEX
  8
0
  6
CONTINUOUS
 10
6.112920
 20
2.271720
  0
VERTEX
  8
0
  6
CONTINUOUS
 10
6.121720
 20
1.527680
  0
VERTEX
  8
0
  6
CONTINUOUS
 10
6.121720
 20
1.525920
  0
SEQEND
  8
0
  0
SOLID
  8
0
 62
    15
 10
6.103680
 20
1.577400
 11
6.095320
 21
2.321000
 12
6.121720
 22
1.525920
 13
6.112920
 23
2.269520
  0
POLYLINE
  8
0
  6
CONTINUOUS
 66
     1
 40
0.000000
 41
0.000000
  0
VERTEX
  8
0
  6
CONTINUOUS
 10
6.103680
 20
1.577400
  0
VERTEX
  8
0
  6
CONTINUOUS
 10
6.095320
 20
2.321000
  0
VERTEX
  8
0
  6
CONTINUOUS
 10
6.112920
 20
2.269520
  0
VERTEX
  8
0
  6
CONTINUOUS
 10
6.121720
 20
1.525920
  0
VERTEX
  8
0
  6
CONTINUOUS
 10
6.103680
 20
1.577400
  0
SEQEND
  8
0
  0
SOLID
  8
0
 62
    15
 10
6.211040
 20
1.540440
 11
6.202240
 21
2.284040
 12
6.221160
 22
1.465200
 13
6.212360
 23
2.208800
  0
POLYLINE
  8
0
  6
CONTINUOUS
 66
     1
 40
0.000000
 41
0.000000
  0
VERTEX
  8
0
  6
CONTINUOUS
 10
6.211040
 20
1.540440
  0
VERTEX
  8
0
  6
CONTINUOUS
 10
6.202240
 20
2.284040
  0
VERTEX
  8
0
  6
CONTINUOUS
 10
6.212360
 20
2.208800
  0
VERTEX
  8
0
  6
CONTINUOUS
 10
6.221160
 20
1.465200
  0
VERTEX
  8
0
  6
CONTINUOUS
 10
6.211040
 20
1.540440
  0
SEQEND
  8
0
  0
SOLID
  8
0
 62
    15
 10
6.121720
 20
1.527680
 11
6.112920
 21
2.271720
 12
6.211040
 22
1.540440
 13
6.202240
 23
2.284040
  0
POLYLINE
  8
0
  6
CONTINUOUS
 66
     1
 40
0.000000
 41
0.000000
  0
VERTEX
  8
0
  6
CONTINUOUS
 10
6.121720
 20
1.527680
  0
VERTEX
  8
0
  6
CONTINUOUS
 10
6.112920
 20
2.271720
  0
VERTEX
  8
0
  6
CONTINUOUS
 10
6.202240
 20
2.284040
  0
VERTEX
  8
0
  6
CONTINUOUS
 10
6.211040
 20
1.540440
  0
VERTEX
  8
0
  6
CONTINUOUS
 10
6.121720
 20
1.527680
  0
SEQEND
  8
0
  0
SOLID
  8
0
 62
    15
 10
6.248880
 20
1.399640
 11
6.240520
 21
2.143240
 12
6.290240
 22
1.343320
 13
6.281440
 23
2.087360
  0
POLYLINE
  8
0
  6
CONTINUOUS
 66
     1
 40
0.000000
 41
0.000000
  0
VERTEX
  8
0
  6
CONTINUOUS
 10
6.248880
 20
1.399640
  0
VERTEX
  8
0
  6
CONTINUOUS
 10
6.240520
 20
2.143240
  0
VERTEX
  8
0
  6
CONTINUOUS
 10
6.281440
 20
2.087360
  0
VERTEX
  8
0
  6
CONTINUOUS
 10
6.290240
 20
1.343320
  0
VERTEX
  8
0
  6
CONTINUOUS
 10
6.248880
 20
1.399640
  0
SEQEND
  8
0
  0
SOLID
  8
0
 62
    15
 10
6.221160
 20
1.465200
 11
6.212360
 21
2.208800
 12
6.248880
 22
1.399640
 13
6.240520
 23
2.143240
  0
POLYLINE
  8
0
  6
CONTINUOUS
 66
     1
 40
0.000000
 41
0.000000
  0
VERTEX
  8
0
  6
CONTINUOUS
 10
6.221160
 20
1.465200
  0
VERTEX
  8
0
  6
CONTINUOUS
 10
6.212360
 20
2.208800
  0
VERTEX
  8
0
  6
CONTINUOUS
 10
6.240520
 20
2.143240
  0
VERTEX
  8
0
  6
CONTINUOUS
 10
6.248880
 20
1.399640
  0
VERTEX
  8
0
  6
CONTINUOUS
 10
6.221160
 20
1.465200
  0
SEQEND
  8
0
  0
SOLID
  8
0
 62
    15
 10
6.290240
 20
1.343320
 11
6.281440
 21
2.087360
 12
6.341280
 22
1.297120
 13
6.332480
 23
2.040720
  0
POLYLINE
  8
0
  6
CONTINUOUS
 66
     1
 40
0.000000
 41
0.000000
  0
VERTEX
  8
0
  6
CONTINUOUS
 10
6.290240
 20
1.343320
  0
VERTEX
  8
0
  6
CONTINUOUS
 10
6.281440
 20
2.087360
  0
VERTEX
  8
0
  6
CONTINUOUS
 10
6.332480
 20
2.040720
  0
VERTEX
  8
0
  6
CONTINUOUS
 10
6.341280
 20
1.297120
  0
VERTEX
  8
0
  6
CONTINUOUS
 10
6.290240
 20
1.343320
  0
SEQEND
  8
0
  0
SOLID
  8
0
 62
    15
 10
6.341280
 20
1.297120
 11
6.332480
 21
2.040720
 12
6.397600
 22
1.260600
 13
6.388800
 23
2.004640
  0
POLYLINE
  8
0
  6
CONTINUOUS
 66
     1
 40
0.000000
 41
0.000000
  0
VERTEX
  8
0
  6
CONTINUOUS
 10
6.341280
 20
1.297120
  0
VERTEX
  8
0
  6
CONTINUOUS
 10
6.332480
 20
2.040720
  0
VERTEX
  8
0
  6
CONTINUOUS
 10
6.388800
 20
2.004640
  0
VERTEX
  8
0
  6
CONTINUOUS
 10
6.397600
 20
1.260600
  0
VERTEX
  8
0
  6
CONTINUOUS
 10
6.341280
 20
1.297120
  0
SEQEND
  8
0
  0
SOLID
  8
0
 62
    15
 10
6.397600
 20
1.260600
 11
6.388800
 21
2.004640
 12
6.455240
 22
1.234640
 13
6.446880
 23
1.978240
  0
POLYLINE
  8
0
  6
CONTINUOUS
 66
     1
 40
0.000000
 41
0.000000
  0
VERTEX
  8
0
  6
CONTINUOUS
 10
6.397600
 20
1.260600
  0
VERTEX
  8
0
  6
CONTINUOUS
 10
6.388800
 20
2.004640
  0
VERTEX
  8
0
  6
CONTINUOUS
 10
6.446880
 20
1.978240
  0
VERTEX
  8
0
  6
CONTINUOUS
 10
6.455240
 20
1.234640
  0
VERTEX
  8
0
  6
CONTINUOUS
 10
6.397600
 20
1.260600
  0
SEQEND
  8
0
  0
SOLID
  8
0
 62
    15
 10
6.455240
 20
1.234640
 11
6.446880
 21
1.978240
 12
6.510680
 22
1.218800
 13
6.501880
 23
1.962400
  0
POLYLINE
  8
0
  6
CONTINUOUS
 66
     1
 40
0.000000
 41
0.000000
  0
VERTEX
  8
0
  6
CONTINUOUS
 10
6.455240
 20
1.234640
  0
VERTEX
  8
0
  6
CONTINUOUS
 10
6.446880
 20
1.978240
  0
VERTEX
  8
0
  6
CONTINUOUS
 10
6.501880
 20
1.962400
  0
VERTEX
  8
0
  6
CONTINUOUS
 10
6.510680
 20
1.218800
  0
VERTEX
  8
0
  6
CONTINUOUS
 10
6.455240
 20
1.234640
  0
SEQEND
  8
0
  0
SOLID
  8
0
 62
    15
 10
6.510680
 20
1.218800
 11
6.501880
 21
1.962400
 12
6.559080
 22
1.213080
 13
6.550280
 23
1.957120
  0
POLYLINE
  8
0
  6
CONTINUOUS
 66
     1
 40
0.000000
 41
0.000000
  0
VERTEX
  8
0
  6
CONTINUOUS
 10
6.510680
 20
1.218800
  0
VERTEX
  8
0
  6
CONTINUOUS
 10
6.501880
 20
1.962400
  0
VERTEX
  8
0
  6
CONTINUOUS
 10
6.550280
 20
1.957120
  0
VERTEX
  8
0
  6
CONTINUOUS
 10
6.559080
 20
1.213080
  0
VERTEX
  8
0
  6
CONTINUOUS
 10
6.510680
 20
1.218800
  0
SEQEND
  8
0
  0
SOLID
  8
0
 62
    15
 10
0.513040
 20
1.021680
 11
0.504680
 21
1.765280
 12
0.513040
 22
2.240480
 13
0.504680
 23
2.984080
  0
POLYLINE
  8
0
  6
CONTINUOUS
 66
     1
 40
0.000000
 41
0.000000
  0
VERTEX
  8
0
  6
CONTINUOUS
 10
0.513040
 20
1.021680
  0
VERTEX
  8
0
  6
CONTINUOUS
 10
0.504680
 20
1.765280
  0
VERTEX
  8
0
  6
CONTINUOUS
 10
0.504680
 20
2.984080
  0
VERTEX
  8
0
  6
CONTINUOUS
 10
0.513040
 20
2.240480
  0
VERTEX
  8
0
  6
CONTINUOUS
 10
0.513040
 20
1.021680
  0
SEQEND
  8
0
  0
SOLID
  8
0
 62
    15
 10
0.513040
 20
2.240480
 11
0.504680
 21
2.984080
 12
2.867480
 22
2.242240
 13
2.858680
 23
2.986280
  0
POLYLINE
  8
0
  6
CONTINUOUS
 66
     1
 40
0.000000
 41
0.000000
  0
VERTEX
  8
0
  6
CONTINUOUS
 10
0.513040
 20
2.240480
  0
VERTEX
  8
0
  6
CONTINUOUS
 10
0.504680
 20
2.984080
  0
VERTEX
  8
0
  6
CONTINUOUS
 10
2.858680
 20
2.986280
  0
VERTEX
  8
0
  6
CONTINUOUS
 10
2.867480
 20
2.242240
  0
VERTEX
  8
0
  6
CONTINUOUS
 10
0.513040
 20
2.240480
  0
SEQEND
  8
0
  0
SOLID
  8
0
 62
    15
 10
2.867480
 20
2.242240
 11
2.858680
 21
2.986280
 12
2.869680
 22
2.193840
 13
2.860880
 23
2.937440
  0
POLYLINE
  8
0
  6
CONTINUOUS
 66
     1
 40
0.000000
 41
0.000000
  0
VERTEX
  8
0
  6
CONTINUOUS
 10
2.867480
 20
2.242240
  0
VERTEX
  8
0
  6
CONTINUOUS
 10
2.858680
 20
2.986280
  0
VERTEX
  8
0
  6
CONTINUOUS
 10
2.860880
 20
2.937440
  0
VERTEX
  8
0
  6
CONTINUOUS
 10
2.869680
 20
2.193840
  0
VERTEX
  8
0
  6
CONTINUOUS
 10
2.867480
 20
2.242240
  0
SEQEND
  8
0
  0
SOLID
  8
0
 62
    15
 10
2.869680
 20
2.193840
 11
2.860880
 21
2.937440
 12
2.878920
 22
2.136200
 13
2.870120
 23
2.879800
  0
POLYLINE
  8
0
  6
CONTINUOUS
 66
     1
 40
0.000000
 41
0.000000
  0
VERTEX
  8
0
  6
CONTINUOUS
 10
2.869680
 20
2.193840
  0
VERTEX
  8
0
  6
CONTINUOUS
 10
2.860880
 20
2.937440
  0
VERTEX
  8
0
  6
CONTINUOUS
 10
2.870120
 20
2.879800
  0
VERTEX
  8
0
  6
CONTINUOUS
 10
2.878920
 20
2.136200
  0
VERTEX
  8
0
  6
CONTINUOUS
 10
2.869680
 20
2.193840
  0
SEQEND
  8
0
  0
SOLID
  8
0
 62
    15
 10
2.878920
 20
2.136200
 11
2.870120
 21
2.879800
 12
2.897400
 22
2.072840
 13
2.888600
 23
2.816440
  0
POLYLINE
  8
0
  6
CONTINUOUS
 66
     1
 40
0.000000
 41
0.000000
  0
VERTEX
  8
0
  6
CONTINUOUS
 10
2.878920
 20
2.136200
  0
VERTEX
  8
0
  6
CONTINUOUS
 10
2.870120
 20
2.879800
  0
VERTEX
  8
0
  6
CONTINUOUS
 10
2.888600
 20
2.816440
  0
VERTEX
  8
0
  6
CONTINUOUS
 10
2.897400
 20
2.072840
  0
VERTEX
  8
0
  6
CONTINUOUS
 10
2.878920
 20
2.136200
  0
SEQEND
  8
0
  0
SOLID
  8
0
 62
    15
 10
2.897400
 20
2.072840
 11
2.888600
 21
2.816440
 12
2.926000
 22
2.006400
 13
2.917200
 23
2.750000
  0
POLYLINE
  8
0
  6
CONTINUOUS
 66
     1
 40
0.000000
 41
0.000000
  0
VERTEX
  8
0
  6
CONTINUOUS
 10
2.897400
 20
2.072840
  0
VERTEX
  8
0
  6
CONTINUOUS
 10
2.888600
 20
2.816440
  0
VERTEX
  8
0
  6
CONTINUOUS
 10
2.917200
 20
2.750000
  0
VERTEX
  8
0
  6
CONTINUOUS
 10
2.926000
 20
2.006400
  0
VERTEX
  8
0
  6
CONTINUOUS
 10
2.897400
 20
2.072840
  0
SEQEND
  8
0
  0
SOLID
  8
0
 62
    15
 10
2.926000
 20
2.006400
 11
2.917200
 21
2.750000
 12
2.966920
 22
1.940840
 13
2.958120
 23
2.684440
  0
POLYLINE
  8
0
  6
CONTINUOUS
 66
     1
 40
0.000000
 41
0.000000
  0
VERTEX
  8
0
  6
CONTINUOUS
 10
2.926000
 20
2.006400
  0
VERTEX
  8
0
  6
CONTINUOUS
 10
2.917200
 20
2.750000
  0
VERTEX
  8
0
  6
CONTINUOUS
 10
2.958120
 20
2.684440
  0
VERTEX
  8
0
  6
CONTINUOUS
 10
2.966920
 20
1.940840
  0
VERTEX
  8
0
  6
CONTINUOUS
 10
2.926000
 20
2.006400
  0
SEQEND
  8
0
  0
SOLID
  8
0
 62
    15
 10
2.966920
 20
1.940840
 11
2.958120
 21
2.684440
 12
3.021920
 22
1.879240
 13
3.013120
 23
2.622840
  0
POLYLINE
  8
0
  6
CONTINUOUS
 66
     1
 40
0.000000
 41
0.000000
  0
VERTEX
  8
0
  6
CONTINUOUS
 10
2.966920
 20
1.940840
  0
VERTEX
  8
0
  6
CONTINUOUS
 10
2.958120
 20
2.684440
  0
VERTEX
  8
0
  6
CONTINUOUS
 10
3.013120
 20
2.622840
  0
VERTEX
  8
0
  6
CONTINUOUS
 10
3.021920
 20
1.879240
  0
VERTEX
  8
0
  6
CONTINUOUS
 10
2.966920
 20
1.940840
  0
SEQEND
  8
0
  0
SOLID
  8
0
 62
    15
 10
5.288360
 20
1.686080
 11
5.279560
 21
2.429680
 12
5.507040
 22
1.577840
 13
5.498240
 23
2.321440
  0
POLYLINE
  8
0
  6
CONTINUOUS
 66
     1
 40
0.000000
 41
0.000000
  0
VERTEX
  8
0
  6
CONTINUOUS
 10
5.288360
 20
1.686080
  0
VERTEX
  8
0
  6
CONTINUOUS
 10
5.279560
 20
2.429680
  0
VERTEX
  8
0
  6
CONTINUOUS
 10
5.498240
 20
2.321440
  0
VERTEX
  8
0
  6
CONTINUOUS
 10
5.507040
 20
1.577840
  0
VERTEX
  8
0
  6
CONTINUOUS
 10
5.288360
 20
1.686080
  0
SEQEND
  8
0
  0
SOLID
  8
0
 62
    15
 10
3.092320
 20
1.824240
 11
3.083520
 21
2.568280
 12
3.179880
 22
1.779800
 13
3.171080
 23
2.523400
  0
POLYLINE
  8
0
  6
CONTINUOUS
 66
     1
 40
0.000000
 41
0.000000
  0
VERTEX
  8
0
  6
CONTINUOUS
 10
3.092320
 20
1.824240
  0
VERTEX
  8
0
  6
CONTINUOUS
 10
3.083520
 20
2.568280
  0
VERTEX
  8
0
  6
CONTINUOUS
 10
3.171080
 20
2.523400
  0
VERTEX
  8
0
  6
CONTINUOUS
 10
3.179880
 20
1.779800
  0
VERTEX
  8
0
  6
CONTINUOUS
 10
3.092320
 20
1.824240
  0
SEQEND
  8
0
  0
SOLID
  8
0
 62
    15
 10
3.179880
 20
1.779800
 11
3.171080
 21
2.523400
 12
3.232680
 22
1.816760
 13
3.223880
 23
2.560800
  0
POLYLINE
  8
0
  6
CONTINUOUS
 66
     1
 40
0.000000
 41
0.000000
  0
VERTEX
  8
0
  6
CONTINUOUS
 10
3.179880
 20
1.779800
  0
VERTEX
  8
0
  6
CONTINUOUS
 10
3.171080
 20
2.523400
  0
VERTEX
  8
0
  6
CONTINUOUS
 10
3.223880
 20
2.560800
  0
VERTEX
  8
0
  6
CONTINUOUS
 10
3.232680
 20
1.816760
  0
VERTEX
  8
0
  6
CONTINUOUS
 10
3.179880
 20
1.779800
  0
SEQEND
  8
0
  0
SOLID
  8
0
 62
    15
 10
3.232680
 20
1.816760
 11
3.223880
 21
2.560800
 12
3.287680
 22
1.862520
 13
3.278880
 23
2.606560
  0
POLYLINE
  8
0
  6
CONTINUOUS
 66
     1
 40
0.000000
 41
0.000000
  0
VERTEX
  8
0
  6
CONTINUOUS
 10
3.232680
 20
1.816760
  0
VERTEX
  8
0
  6
CONTINUOUS
 10
3.223880
 20
2.560800
  0
VERTEX
  8
0
  6
CONTINUOUS
 10
3.278880
 20
2.606560
  0
VERTEX
  8
0
  6
CONTINUOUS
 10
3.287680
 20
1.862520
  0
VERTEX
  8
0
  6
CONTINUOUS
 10
3.232680
 20
1.816760
  0
SEQEND
  8
0
  0
SOLID
  8
0
 62
    15
 10
3.287680
 20
1.862520
 11
3.278880
 21
2.606560
 12
3.316280
 22
1.887600
 13
3.307480
 23
2.631200
  0
POLYLINE
  8
0
  6
CONTINUOUS
 66
     1
 40
0.000000
 41
0.000000
  0
VERTEX
  8
0
  6
CONTINUOUS
 10
3.287680
 20
1.862520
  0
VERTEX
  8
0
  6
CONTINUOUS
 10
3.278880
 20
2.606560
  0
VERTEX
  8
0
  6
CONTINUOUS
 10
3.307480
 20
2.631200
  0
VERTEX
  8
0
  6
CONTINUOUS
 10
3.316280
 20
1.887600
  0
VERTEX
  8
0
  6
CONTINUOUS
 10
3.287680
 20
1.862520
  0
SEQEND
  8
0
  0
SOLID
  8
0
 62
    15
 10
3.316280
 20
1.887600
 11
3.307480
 21
2.631200
 12
3.346200
 22
1.913120
 13
3.337400
 23
2.656720
  0
POLYLINE
  8
0
  6
CONTINUOUS
 66
     1
 40
0.000000
 41
0.000000
  0
VERTEX
  8
0
  6
CONTINUOUS
 10
3.316280
 20
1.887600
  0
VERTEX
  8
0
  6
CONTINUOUS
 10
3.307480
 20
2.631200
  0
VERTEX
  8
0
  6
CONTINUOUS
 10
3.337400
 20
2.656720
  0
VERTEX
  8
0
  6
CONTINUOUS
 10
3.346200
 20
1.913120
  0
VERTEX
  8
0
  6
CONTINUOUS
 10
3.316280
 20
1.887600
  0
SEQEND
  8
0
  0
SOLID
  8
0
 62
    15
 10
3.346200
 20
1.913120
 11
3.337400
 21
2.656720
 12
3.409120
 22
1.964160
 13
3.400760
 23
2.707760
  0
POLYLINE
  8
0
  6
CONTINUOUS
 66
     1
 40
0.000000
 41
0.000000
  0
VERTEX
  8
0
  6
CONTINUOUS
 10
3.346200
 20
1.913120
  0
VERTEX
  8
0
  6
CONTINUOUS
 10
3.337400
 20
2.656720
  0
VERTEX
  8
0
  6
CONTINUOUS
 10
3.400760
 20
2.707760
  0
VERTEX
  8
0
  6
CONTINUOUS
 10
3.409120
 20
1.964160
  0
VERTEX
  8
0
  6
CONTINUOUS
 10
3.346200
 20
1.913120
  0
SEQEND
  8
0
  0
SOLID
  8
0
 62
    15
 10
3.409120
 20
1.964160
 11
3.400760
 21
2.707760
 12
3.479080
 22
2.011240
 13
3.470280
 23
2.754840
  0
POLYLINE
  8
0
  6
CONTINUOUS
 66
     1
 40
0.000000
 41
0.000000
  0
VERTEX
  8
0
  6
CONTINUOUS
 10
3.409120
 20
1.964160
  0
VERTEX
  8
0
  6
CONTINUOUS
 10
3.400760
 20
2.707760
  0
VERTEX
  8
0
  6
CONTINUOUS
 10
3.470280
 20
2.754840
  0
VERTEX
  8
0
  6
CONTINUOUS
 10
3.479080
 20
2.011240
  0
VERTEX
  8
0
  6
CONTINUOUS
 10
3.409120
 20
1.964160
  0
SEQEND
  8
0
  0
SOLID
  8
0
 62
    15
 10
3.479080
 20
2.011240
 11
3.470280
 21
2.754840
 12
3.556520
 22
2.050840
 13
3.547720
 23
2.794440
  0
POLYLINE
  8
0
  6
CONTINUOUS
 66
     1
 40
0.000000
 41
0.000000
  0
VERTEX
  8
0
  6
CONTINUOUS
 10
3.479080
 20
2.011240
  0
VERTEX
  8
0
  6
CONTINUOUS
 10
3.470280
 20
2.754840
  0
VERTEX
  8
0
  6
CONTINUOUS
 10
3.547720
 20
2.794440
  0
VERTEX
  8
0
  6
CONTINUOUS
 10
3.556520
 20
2.050840
  0
VERTEX
  8
0
  6
CONTINUOUS
 10
3.479080
 20
2.011240
  0
SEQEND
  8
0
  0
SOLID
  8
0
 62
    15
 10
3.556520
 20
2.050840
 11
3.547720
 21
2.794440
 12
3.643200
 22
2.078560
 13
3.634400
 23
2.822160
  0
POLYLINE
  8
0
  6
CONTINUOUS
 66
     1
 40
0.000000
 41
0.000000
  0
VERTEX
  8
0
  6
CONTINUOUS
 10
3.556520
 20
2.050840
  0
VERTEX
  8
0
  6
CONTINUOUS
 10
3.547720
 20
2.794440
  0
VERTEX
  8
0
  6
CONTINUOUS
 10
3.634400
 20
2.822160
  0
VERTEX
  8
0
  6
CONTINUOUS
 10
3.643200
 20
2.078560
  0
VERTEX
  8
0
  6
CONTINUOUS
 10
3.556520
 20
2.050840
  0
SEQEND
  8
0
  0
SOLID
  8
0
 62
    15
 10
3.643200
 20
2.078560
 11
3.634400
 21
2.822160
 12
3.740440
 22
2.090440
 13
3.731640
 23
2.834040
  0
POLYLINE
  8
0
  6
CONTINUOUS
 66
     1
 40
0.000000
 41
0.000000
  0
VERTEX
  8
0
  6
CONTINUOUS
 10
3.643200
 20
2.078560
  0
VERTEX
  8
0
  6
CONTINUOUS
 10
3.634400
 20
2.822160
  0
VERTEX
  8
0
  6
CONTINUOUS
 10
3.731640
 20
2.834040
  0
VERTEX
  8
0
  6
CONTINUOUS
 10
3.740440
 20
2.090440
  0
VERTEX
  8
0
  6
CONTINUOUS
 10
3.643200
 20
2.078560
  0
SEQEND
  8
0
  0
SOLID
  8
0
 62
    15
 10
3.740440
 20
2.090440
 11
3.731640
 21
2.834040
 12
3.813480
 22
2.087360
 13
3.804680
 23
2.831400
  0
POLYLINE
  8
0
  6
CONTINUOUS
 66
     1
 40
0.000000
 41
0.000000
  0
VERTEX
  8
0
  6
CONTINUOUS
 10
3.740440
 20
2.090440
  0
VERTEX
  8
0
  6
CONTINUOUS
 10
3.731640
 20
2.834040
  0
VERTEX
  8
0
  6
CONTINUOUS
 10
3.804680
 20
2.831400
  0
VERTEX
  8
0
  6
CONTINUOUS
 10
3.813480
 20
2.087360
  0
VERTEX
  8
0
  6
CONTINUOUS
 10
3.740440
 20
2.090440
  0
SEQEND
  8
0
  0
SOLID
  8
0
 62
    15
 10
3.813480
 20
2.087360
 11
3.804680
 21
2.831400
 12
3.883000
 22
2.076800
 13
3.874200
 23
2.820400
  0
POLYLINE
  8
0
  6
CONTINUOUS
 66
     1
 40
0.000000
 41
0.000000
  0
VERTEX
  8
0
  6
CONTINUOUS
 10
3.813480
 20
2.087360
  0
VERTEX
  8
0
  6
CONTINUOUS
 10
3.804680
 20
2.831400
  0
VERTEX
  8
0
  6
CONTINUOUS
 10
3.874200
 20
2.820400
  0
VERTEX
  8
0
  6
CONTINUOUS
 10
3.883000
 20
2.076800
  0
VERTEX
  8
0
  6
CONTINUOUS
 10
3.813480
 20
2.087360
  0
SEQEND
  8
0
  0
SOLID
  8
0
 62
    15
 10
3.883000
 20
2.076800
 11
3.874200
 21
2.820400
 12
3.948560
 22
2.058760
 13
3.939760
 23
2.802360
  0
POLYLINE
  8
0
  6
CONTINUOUS
 66
     1
 40
0.000000
 41
0.000000
  0
VERTEX
  8
0
  6
CONTINUOUS
 10
3.883000
 20
2.076800
  0
VERTEX
  8
0
  6
CONTINUOUS
 10
3.874200
 20
2.820400
  0
VERTEX
  8
0
  6
CONTINUOUS
 10
3.939760
 20
2.802360
  0
VERTEX
  8
0
  6
CONTINUOUS
 10
3.948560
 20
2.058760
  0
VERTEX
  8
0
  6
CONTINUOUS
 10
3.883000
 20
2.076800
  0
SEQEND
  8
0
  0
SOLID
  8
0
 62
    15
 10
3.948560
 20
2.058760
 11
3.939760
 21
2.802360
 12
4.010600
 22
2.035000
 13
4.001800
 23
2.778600
  0
POLYLINE
  8
0
  6
CONTINUOUS
 66
     1
 40
0.000000
 41
0.000000
  0
VERTEX
  8
0
  6
CONTINUOUS
 10
3.948560
 20
2.058760
  0
VERTEX
  8
0
  6
CONTINUOUS
 10
3.939760
 20
2.802360
  0
VERTEX
  8
0
  6
CONTINUOUS
 10
4.001800
 20
2.778600
  0
VERTEX
  8
0
  6
CONTINUOUS
 10
4.010600
 20
2.035000
  0
VERTEX
  8
0
  6
CONTINUOUS
 10
3.948560
 20
2.058760
  0
SEQEND
  8
0
  0
SOLID
  8
0
 62
    15
 10
4.010600
 20
2.035000
 11
4.001800
 21
2.778600
 12
4.123680
 22
1.973400
 13
4.114880
 23
2.717000
  0
POLYLINE
  8
0
  6
CONTINUOUS
 66
     1
 40
0.000000
 41
0.000000
  0
VERTEX
  8
0
  6
CONTINUOUS
 10
4.010600
 20
2.035000
  0
VERTEX
  8
0
  6
CONTINUOUS
 10
4.001800
 20
2.778600
  0
VERTEX
  8
0
  6
CONTINUOUS
 10
4.114880
 20
2.717000
  0
VERTEX
  8
0
  6
CONTINUOUS
 10
4.123680
 20
1.973400
  0
VERTEX
  8
0
  6
CONTINUOUS
 10
4.010600
 20
2.035000
  0
SEQEND
  8
0
  0
SOLID
  8
0
 62
    15
 10
4.123680
 20
1.973400
 11
4.114880
 21
2.717000
 12
4.222240
 22
1.899920
 13
4.213440
 23
2.643520
  0
POLYLINE
  8
0
  6
CONTINUOUS
 66
     1
 40
0.000000
 41
0.000000
  0
VERTEX
  8
0
  6
CONTINUOUS
 10
4.123680
 20
1.973400
  0
VERTEX
  8
0
  6
CONTINUOUS
 10
4.114880
 20
2.717000
  0
VERTEX
  8
0
  6
CONTINUOUS
 10
4.213440
 20
2.643520
  0
VERTEX
  8
0
  6
CONTINUOUS
 10
4.222240
 20
1.899920
  0
VERTEX
  8
0
  6
CONTINUOUS
 10
4.123680
 20
1.973400
  0
SEQEND
  8
0
  0
SOLID
  8
0
 62
    15
 10
4.222240
 20
1.899920
 11
4.213440
 21
2.643520
 12
4.305840
 22
1.823360
 13
4.297040
 23
2.566960
  0
POLYLINE
  8
0
  6
CONTINUOUS
 66
     1
 40
0.000000
 41
0.000000
  0
VERTEX
  8
0
  6
CONTINUOUS
 10
4.222240
 20
1.899920
  0
VERTEX
  8
0
  6
CONTINUOUS
 10
4.213440
 20
2.643520
  0
VERTEX
  8
0
  6
CONTINUOUS
 10
4.297040
 20
2.566960
  0
VERTEX
  8
0
  6
CONTINUOUS
 10
4.305840
 20
1.823360
  0
VERTEX
  8
0
  6
CONTINUOUS
 10
4.222240
 20
1.899920
  0
SEQEND
  8
0
  0
SOLID
  8
0
 62
    15
 10
4.305840
 20
1.823360
 11
4.297040
 21
2.566960
 12
4.374920
 22
1.751200
 13
4.366120
 23
2.495240
  0
POLYLINE
  8
0
  6
CONTINUOUS
 66
     1
 40
0.000000
 41
0.000000
  0
VERTEX
  8
0
  6
CONTINUOUS
 10
4.305840
 20
1.823360
  0
VERTEX
  8
0
  6
CONTINUOUS
 10
4.297040
 20
2.566960
  0
VERTEX
  8
0
  6
CONTINUOUS
 10
4.366120
 20
2.495240
  0
VERTEX
  8
0
  6
CONTINUOUS
 10
4.374920
 20
1.751200
  0
VERTEX
  8
0
  6
CONTINUOUS
 10
4.305840
 20
1.823360
  0
SEQEND
  8
0
  0
SOLID
  8
0
 62
    15
 10
4.374920
 20
1.751200
 11
4.366120
 21
2.495240
 12
4.403960
 22
1.719960
 13
4.395160
 23
2.463560
  0
POLYLINE
  8
0
  6
CONTINUOUS
 66
     1
 40
0.000000
 41
0.000000
  0
VERTEX
  8
0
  6
CONTINUOUS
 10
4.374920
 20
1.751200
  0
VERTEX
  8
0
  6
CONTINUOUS
 10
4.366120
 20
2.495240
  0
VERTEX
  8
0
  6
CONTINUOUS
 10
4.395160
 20
2.463560
  0
VERTEX
  8
0
  6
CONTINUOUS
 10
4.403960
 20
1.719960
  0
VERTEX
  8
0
  6
CONTINUOUS
 10
4.374920
 20
1.751200
  0
SEQEND
  8
0
  0
SOLID
  8
0
 62
    15
 10
4.403960
 20
1.719960
 11
4.395160
 21
2.463560
 12
4.429480
 22
1.692680
 13
4.420680
 23
2.436280
  0
POLYLINE
  8
0
  6
CONTINUOUS
 66
     1
 40
0.000000
 41
0.000000
  0
VERTEX
  8
0
  6
CONTINUOUS
 10
4.403960
 20
1.719960
  0
VERTEX
  8
0
  6
CONTINUOUS
 10
4.395160
 20
2.463560
  0
VERTEX
  8
0
  6
CONTINUOUS
 10
4.420680
 20
2.436280
  0
VERTEX
  8
0
  6
CONTINUOUS
 10
4.429480
 20
1.692680
  0
VERTEX
  8
0
  6
CONTINUOUS
 10
4.403960
 20
1.719960
  0
SEQEND
  8
0
  0
SOLID
  8
0
 62
    15
 10
4.429480
 20
1.692680
 11
4.420680
 21
2.436280
 12
4.451040
 22
1.670680
 13
4.442680
 23
2.414280
  0
POLYLINE
  8
0
  6
CONTINUOUS
 66
     1
 40
0.000000
 41
0.000000
  0
VERTEX
  8
0
  6
CONTINUOUS
 10
4.429480
 20
1.692680
  0
VERTEX
  8
0
  6
CONTINUOUS
 10
4.420680
 20
2.436280
  0
VERTEX
  8
0
  6
CONTINUOUS
 10
4.442680
 20
2.414280
  0
VERTEX
  8
0
  6
CONTINUOUS
 10
4.451040
 20
1.670680
  0
VERTEX
  8
0
  6
CONTINUOUS
 10
4.429480
 20
1.692680
  0
SEQEND
  8
0
  0
SOLID
  8
0
 62
    15
 10
4.451040
 20
1.670680
 11
4.442680
 21
2.414280
 12
4.469520
 22
1.654840
 13
4.460720
 23
2.398440
  0
POLYLINE
  8
0
  6
CONTINUOUS
 66
     1
 40
0.000000
 41
0.000000
  0
VERTEX
  8
0
  6
CONTINUOUS
 10
4.451040
 20
1.670680
  0
VERTEX
  8
0
  6
CONTINUOUS
 10
4.442680
 20
2.414280
  0
VERTEX
  8
0
  6
CONTINUOUS
 10
4.460720
 20
2.398440
  0
VERTEX
  8
0
  6
CONTINUOUS
 10
4.469520
 20
1.654840
  0
VERTEX
  8
0
  6
CONTINUOUS
 10
4.451040
 20
1.670680
  0
SEQEND
  8
0
  0
SOLID
  8
0
 62
    15
 10
4.469520
 20
1.654840
 11
4.460720
 21
2.398440
 12
4.517480
 22
1.618760
 13
4.508680
 23
2.362360
  0
POLYLINE
  8
0
  6
CONTINUOUS
 66
     1
 40
0.000000
 41
0.000000
  0
VERTEX
  8
0
  6
CONTINUOUS
 10
4.469520
 20
1.654840
  0
VERTEX
  8
0
  6
CONTINUOUS
 10
4.460720
 20
2.398440
  0
VERTEX
  8
0
  6
CONTINUOUS
 10
4.508680
 20
2.362360
  0
VERTEX
  8
0
  6
CONTINUOUS
 10
4.517480
 20
1.618760
  0
VERTEX
  8
0
  6
CONTINUOUS
 10
4.469520
 20
1.654840
  0
SEQEND
  8
0
  0
SOLID
  8
0
 62
    15
 10
4.517480
 20
1.618760
 11
4.508680
 21
2.362360
 12
4.581280
 22
1.575640
 13
4.572480
 23
2.319240
  0
POLYLINE
  8
0
  6
CONTINUOUS
 66
     1
 40
0.000000
 41
0.000000
  0
VERTEX
  8
0
  6
CONTINUOUS
 10
4.517480
 20
1.618760
  0
VERTEX
  8
0
  6
CONTINUOUS
 10
4.508680
 20
2.362360
  0
VERTEX
  8
0
  6
CONTINUOUS
 10
4.572480
 20
2.319240
  0
VERTEX
  8
0
  6
CONTINUOUS
 10
4.581280
 20
1.575640
  0
VERTEX
  8
0
  6
CONTINUOUS
 10
4.517480
 20
1.618760
  0
SEQEND
  8
0
  0
SOLID
  8
0
 62
    15
 10
4.581280
 20
1.575640
 11
4.572480
 21
2.319240
 12
4.660920
 22
1.534720
 13
4.652120
 23
2.278320
  0
POLYLINE
  8
0
  6
CONTINUOUS
 66
     1
 40
0.000000
 41
0.000000
  0
VERTEX
  8
0
  6
CONTINUOUS
 10
4.581280
 20
1.575640
  0
VERTEX
  8
0
  6
CONTINUOUS
 10
4.572480
 20
2.319240
  0
VERTEX
  8
0
  6
CONTINUOUS
 10
4.652120
 20
2.278320
  0
VERTEX
  8
0
  6
CONTINUOUS
 10
4.660920
 20
1.534720
  0
VERTEX
  8
0
  6
CONTINUOUS
 10
4.581280
 20
1.575640
  0
SEQEND
  8
0
  0
SOLID
  8
0
 62
    15
 10
4.660920
 20
1.534720
 11
4.652120
 21
2.278320
 12
4.755960
 22
1.504800
 13
4.747160
 23
2.248840
  0
POLYLINE
  8
0
  6
CONTINUOUS
 66
     1
 40
0.000000
 41
0.000000
  0
VERTEX
  8
0
  6
CONTINUOUS
 10
4.660920
 20
1.534720
  0
VERTEX
  8
0
  6
CONTINUOUS
 10
4.652120
 20
2.278320
  0
VERTEX
  8
0
  6
CONTINUOUS
 10
4.747160
 20
2.248840
  0
VERTEX
  8
0
  6
CONTINUOUS
 10
4.755960
 20
1.504800
  0
VERTEX
  8
0
  6
CONTINUOUS
 10
4.660920
 20
1.534720
  0
SEQEND
  8
0
  0
SOLID
  8
0
 62
    15
 10
4.755960
 20
1.504800
 11
4.747160
 21
2.248840
 12
4.809200
 22
1.497320
 13
4.800400
 23
2.240920
  0
POLYLINE
  8
0
  6
CONTINUOUS
 66
     1
 40
0.000000
 41
0.000000
  0
VERTEX
  8
0
  6
CONTINUOUS
 10
4.755960
 20
1.504800
  0
VERTEX
  8
0
  6
CONTINUOUS
 10
4.747160
 20
2.248840
  0
VERTEX
  8
0
  6
CONTINUOUS
 10
4.800400
 20
2.240920
  0
VERTEX
  8
0
  6
CONTINUOUS
 10
4.809200
 20
1.497320
  0
VERTEX
  8
0
  6
CONTINUOUS
 10
4.755960
 20
1.504800
  0
SEQEND
  8
0
  0
SOLID
  8
0
 62
    15
 10
4.809200
 20
1.497320
 11
4.800400
 21
2.240920
 12
4.866400
 22
1.496000
 13
4.857600
 23
2.239600
  0
POLYLINE
  8
0
  6
CONTINUOUS
 66
     1
 40
0.000000
 41
0.000000
  0
VERTEX
  8
0
  6
CONTINUOUS
 10
4.809200
 20
1.497320
  0
VERTEX
  8
0
  6
CONTINUOUS
 10
4.800400
 20
2.240920
  0
VERTEX
  8
0
  6
CONTINUOUS
 10
4.857600
 20
2.239600
  0
VERTEX
  8
0
  6
CONTINUOUS
 10
4.866400
 20
1.496000
  0
VERTEX
  8
0
  6
CONTINUOUS
 10
4.809200
 20
1.497320
  0
SEQEND
  8
0
  0
SOLID
  8
0
 62
    15
 10
4.866400
 20
1.496000
 11
4.857600
 21
2.239600
 12
4.927120
 22
1.502600
 13
4.918320
 23
2.246200
  0
POLYLINE
  8
0
  6
CONTINUOUS
 66
     1
 40
0.000000
 41
0.000000
  0
VERTEX
  8
0
  6
CONTINUOUS
 10
4.866400
 20
1.496000
  0
VERTEX
  8
0
  6
CONTINUOUS
 10
4.857600
 20
2.239600
  0
VERTEX
  8
0
  6
CONTINUOUS
 10
4.918320
 20
2.246200
  0
VERTEX
  8
0
  6
CONTINUOUS
 10
4.927120
 20
1.502600
  0
VERTEX
  8
0
  6
CONTINUOUS
 10
4.866400
 20
1.496000
  0
SEQEND
  8
0
  0
SOLID
  8
0
 62
    15
 10
4.927120
 20
1.502600
 11
4.918320
 21
2.246200
 12
4.991360
 22
1.517120
 13
4.982560
 23
2.260720
  0
POLYLINE
  8
0
  6
CONTINUOUS
 66
     1
 40
0.000000
 41
0.000000
  0
VERTEX
  8
0
  6
CONTINUOUS
 10
4.927120
 20
1.502600
  0
VERTEX
  8
0
  6
CONTINUOUS
 10
4.918320
 20
2.246200
  0
VERTEX
  8
0
  6
CONTINUOUS
 10
4.982560
 20
2.260720
  0
VERTEX
  8
0
  6
CONTINUOUS
 10
4.991360
 20
1.517120
  0
VERTEX
  8
0
  6
CONTINUOUS
 10
4.927120
 20
1.502600
  0
SEQEND
  8
0
  0
SOLID
  8
0
 62
    15
 10
4.991360
 20
1.517120
 11
4.982560
 21
2.260720
 12
5.059560
 22
1.541760
 13
5.050760
 23
2.285800
  0
POLYLINE
  8
0
  6
CONTINUOUS
 66
     1
 40
0.000000
 41
0.000000
  0
VERTEX
  8
0
  6
CONTINUOUS
 10
4.991360
 20
1.517120
  0
VERTEX
  8
0
  6
CONTINUOUS
 10
4.982560
 20
2.260720
  0
VERTEX
  8
0
  6
CONTINUOUS
 10
5.050760
 20
2.285800
  0
VERTEX
  8
0
  6
CONTINUOUS
 10
5.059560
 20
1.541760
  0
VERTEX
  8
0
  6
CONTINUOUS
 10
4.991360
 20
1.517120
  0
SEQEND
  8
0
  0
SOLID
  8
0
 62
    15
 10
5.059560
 20
1.541760
 11
5.050760
 21
2.285800
 12
5.131720
 22
1.577400
 13
5.122920
 23
2.321000
  0
POLYLINE
  8
0
  6
CONTINUOUS
 66
     1
 40
0.000000
 41
0.000000
  0
VERTEX
  8
0
  6
CONTINUOUS
 10
5.059560
 20
1.541760
  0
VERTEX
  8
0
  6
CONTINUOUS
 10
5.050760
 20
2.285800
  0
VERTEX
  8
0
  6
CONTINUOUS
 10
5.122920
 20
2.321000
  0
VERTEX
  8
0
  6
CONTINUOUS
 10
5.131720
 20
1.577400
  0
VERTEX
  8
0
  6
CONTINUOUS
 10
5.059560
 20
1.541760
  0
SEQEND
  8
0
  0
SOLID
  8
0
 62
    15
 10
5.131720
 20
1.577400
 11
5.122920
 21
2.321000
 12
5.206960
 22
1.625360
 13
5.198160
 23
2.368960
  0
POLYLINE
  8
0
  6
CONTINUOUS
 66
     1
 40
0.000000
 41
0.000000
  0
VERTEX
  8
0
  6
CONTINUOUS
 10
5.131720
 20
1.577400
  0
VERTEX
  8
0
  6
CONTINUOUS
 10
5.122920
 20
2.321000
  0
VERTEX
  8
0
  6
CONTINUOUS
 10
5.198160
 20
2.368960
  0
VERTEX
  8
0
  6
CONTINUOUS
 10
5.206960
 20
1.625360
  0
VERTEX
  8
0
  6
CONTINUOUS
 10
5.131720
 20
1.577400
  0
SEQEND
  8
0
  0
SOLID
  8
0
 62
    15
 10
5.206960
 20
1.625360
 11
5.198160
 21
2.368960
 12
5.286160
 22
1.686080
 13
5.277360
 23
2.429680
  0
POLYLINE
  8
0
  6
CONTINUOUS
 66
     1
 40
0.000000
 41
0.000000
  0
VERTEX
  8
0
  6
CONTINUOUS
 10
5.206960
 20
1.625360
  0
VERTEX
  8
0
  6
CONTINUOUS
 10
5.198160
 20
2.368960
  0
VERTEX
  8
0
  6
CONTINUOUS
 10
5.277360
 20
2.429680
  0
VERTEX
  8
0
  6
CONTINUOUS
 10
5.286160
 20
1.686080
  0
VERTEX
  8
0
  6
CONTINUOUS
 10
5.206960
 20
1.625360
  0
SEQEND
  8
0
  0
SOLID
  8
0
 62
    15
 10
5.286160
 20
1.686080
 11
5.277360
 21
2.429680
 12
5.288360
 22
1.686080
 13
5.279560
 23
2.429680
  0
POLYLINE
  8
0
  6
CONTINUOUS
 66
     1
 40
0.000000
 41
0.000000
  0
VERTEX
  8
0
  6
CONTINUOUS
 10
5.286160
 20
1.686080
  0
VERTEX
  8
0
  6
CONTINUOUS
 10
5.277360
 20
2.429680
  0
VERTEX
  8
0
  6
CONTINUOUS
 10
5.279560
 20
2.429680
  0
VERTEX
  8
0
  6
CONTINUOUS
 10
5.288360
 20
1.686080
  0
VERTEX
  8
0
  6
CONTINUOUS
 10
5.286160
 20
1.686080
  0
SEQEND
  8
0
  0
POLYLINE
  8
0
  6
CONTINUOUS
 66
     1
 40
0.000000
 41
0.000000
  0
VERTEX
  8
0
  6
CONTINUOUS
 10
5.288360
 20
1.686080
  0
VERTEX
  8
0
  6
CONTINUOUS
 10
5.507040
 20
1.577840
  0
VERTEX
  8
0
  6
CONTINUOUS
 10
5.507040
 20
1.575640
  0
VERTEX
  8
0
  6
CONTINUOUS
 10
5.528600
 20
1.617880
  0
VERTEX
  8
0
  6
CONTINUOUS
 10
5.555880
 20
1.656160
  0
VERTEX
  8
0
  6
CONTINUOUS
 10
5.588000
 20
1.690480
  0
VERTEX
  8
0
  6
CONTINUOUS
 10
5.624520
 20
1.719520
  0
VERTEX
  8
0
  6
CONTINUOUS
 10
5.665000
 20
1.743280
  0
VERTEX
  8
0
  6
CONTINUOUS
 10
5.709000
 20
1.760880
  0
VERTEX
  8
0
  6
CONTINUOUS
 10
5.755640
 20
1.771880
  0
VERTEX
  8
0
  6
CONTINUOUS
 10
5.804920
 20
1.775840
  0
VERTEX
  8
0
  6
CONTINUOUS
 10
5.859920
 20
1.771000
  0
VERTEX
  8
0
  6
CONTINUOUS
 10
5.912720
 20
1.756480
  0
VERTEX
  8
0
  6
CONTINUOUS
 10
5.961560
 20
1.734040
  0
VERTEX
  8
0
  6
CONTINUOUS
 10
6.006000
 20
1.704120
  0
VERTEX
  8
0
  6
CONTINUOUS
 10
6.045160
 20
1.667160
  0
VERTEX
  8
0
  6
CONTINUOUS
 10
6.078160
 20
1.624480
  0
VERTEX
  8
0
  6
CONTINUOUS
 10
6.103680
 20
1.577400
  0
VERTEX
  8
0
  6
CONTINUOUS
 10
6.121720
 20
1.525920
  0
VERTEX
  8
0
  6
CONTINUOUS
 10
6.121720
 20
1.527680
  0
VERTEX
  8
0
  6
CONTINUOUS
 10
6.211040
 20
1.540440
  0
VERTEX
  8
0
  6
CONTINUOUS
 10
6.221160
 20
1.465200
  0
VERTEX
  8
0
  6
CONTINUOUS
 10
6.248880
 20
1.399640
  0
VERTEX
  8
0
  6
CONTINUOUS
 10
6.290240
 20
1.343320
  0
VERTEX
  8
0
  6
CONTINUOUS
 10
6.341280
 20
1.297120
  0
VERTEX
  8
0
  6
CONTINUOUS
 10
6.397600
 20
1.260600
  0
VERTEX
  8
0
  6
CONTINUOUS
 10
6.455240
 20
1.234640
  0
VERTEX
  8
0
  6
CONTINUOUS
 10
6.510680
 20
1.218800
  0
VERTEX
  8
0
  6
CONTINUOUS
 10
6.559080
 20
1.213080
  0
VERTEX
  8
0
  6
CONTINUOUS
 10
6.559080
 20
1.021680
  0
VERTEX
  8
0
  6
CONTINUOUS
 10
0.513040
 20
1.021680
  0
VERTEX
  8
0
  6
CONTINUOUS
 10
0.513040
 20
2.240480
  0
VERTEX
  8
0
  6
CONTINUOUS
 10
2.867480
 20
2.242240
  0
VERTEX
  8
0
  6
CONTINUOUS
 10
2.869680
 20
2.193840
  0
VERTEX
  8
0
  6
CONTINUOUS
 10
2.878920
 20
2.136200
  0
VERTEX
  8
0
  6
CONTINUOUS
 10
2.897400
 20
2.072840
  0
VERTEX
  8
0
  6
CONTINUOUS
 10
2.926000
 20
2.006400
  0
VERTEX
  8
0
  6
CONTINUOUS
 10
2.966920
 20
1.940840
  0
VERTEX
  8
0
  6
CONTINUOUS
 10
3.021920
 20
1.879240
  0
VERTEX
  8
0
  6
CONTINUOUS
 10
3.092320
 20
1.824240
  0
VERTEX
  8
0
  6
CONTINUOUS
 10
3.179880
 20
1.779800
  0
VERTEX
  8
0
  6
CONTINUOUS
 10
3.232680
 20
1.816760
  0
VERTEX
  8
0
  6
CONTINUOUS
 10
3.346200
 20
1.913120
  0
VERTEX
  8
0
  6
CONTINUOUS
 10
3.409120
 20
1.964160
  0
VERTEX
  8
0
  6
CONTINUOUS
 10
3.479080
 20
2.011240
  0
VERTEX
  8
0
  6
CONTINUOUS
 10
3.556520
 20
2.050840
  0
VERTEX
  8
0
  6
CONTINUOUS
 10
3.643200
 20
2.078560
  0
VERTEX
  8
0
  6
CONTINUOUS
 10
3.740440
 20
2.090440
  0
VERTEX
  8
0
  6
CONTINUOUS
 10
3.813480
 20
2.087360
  0
VERTEX
  8
0
  6
CONTINUOUS
 10
3.883000
 20
2.076800
  0
VERTEX
  8
0
  6
CONTINUOUS
 10
3.948560
 20
2.058760
  0
VERTEX
  8
0
  6
CONTINUOUS
 10
4.010600
 20
2.035000
  0
VERTEX
  8
0
  6
CONTINUOUS
 10
4.123680
 20
1.973400
  0
VERTEX
  8
0
  6
CONTINUOUS
 10
4.222240
 20
1.899920
  0
VERTEX
  8
0
  6
CONTINUOUS
 10
4.305840
 20
1.823360
  0
VERTEX
  8
0
  6
CONTINUOUS
 10
4.451040
 20
1.670680
  0
VERTEX
  8
0
  6
CONTINUOUS
 10
4.469520
 20
1.654840
  0
VERTEX
  8
0
  6
CONTINUOUS
 10
4.517480
 20
1.618760
  0
VERTEX
  8
0
  6
CONTINUOUS
 10
4.581280
 20
1.575640
  0
VERTEX
  8
0
  6
CONTINUOUS
 10
4.660920
 20
1.534720
  0
VERTEX
  8
0
  6
CONTINUOUS
 10
4.755960
 20
1.504800
  0
VERTEX
  8
0
  6
CONTINUOUS
 10
4.809200
 20
1.497320
  0
VERTEX
  8
0
  6
CONTINUOUS
 10
4.866400
 20
1.496000
  0
VERTEX
  8
0
  6
CONTINUOUS
 10
4.927120
 20
1.502600
  0
VERTEX
  8
0
  6
CONTINUOUS
 10
4.991360
 20
1.517120
  0
VERTEX
  8
0
  6
CONTINUOUS
 10
5.059560
 20
1.541760
  0
VERTEX
  8
0
  6
CONTINUOUS
 10
5.131720
 20
1.577400
  0
VERTEX
  8
0
  6
CONTINUOUS
 10
5.206960
 20
1.625360
  0
VERTEX
  8
0
  6
CONTINUOUS
 10
5.286160
 20
1.686080
  0
VERTEX
  8
0
  6
CONTINUOUS
 10
5.288360
 20
1.686080
  0
SEQEND
  8
0
  0
SOLID
  8
0
 62
     7
 10
1.075360
 20
2.798840
 11
1.078440
 21
3.545520
 12
1.132560
 22
2.796200
 13
1.135640
 23
3.542880
  0
POLYLINE
  8
0
  6
CONTINUOUS
 66
     1
 40
0.000000
 41
0.000000
  0
VERTEX
  8
0
  6
CONTINUOUS
 10
1.075360
 20
2.798840
  0
VERTEX
  8
0
  6
CONTINUOUS
 10
1.078440
 20
3.545520
  0
VERTEX
  8
0
  6
CONTINUOUS
 10
1.135640
 20
3.542880
  0
VERTEX
  8
0
  6
CONTINUOUS
 10
1.132560
 20
2.796200
  0
VERTEX
  8
0
  6
CONTINUOUS
 10
1.075360
 20
2.798840
  0
SEQEND
  8
0
  0
SOLID
  8
0
 62
    15
 10
0.517880
 20
2.295920
 11
0.520960
 21
3.042160
 12
0.526240
 22
2.351360
 13
0.529320
 23
3.097600
  0
POLYLINE
  8
0
  6
CONTINUOUS
 66
     1
 40
0.000000
 41
0.000000
  0
VERTEX
  8
0
  6
CONTINUOUS
 10
0.517880
 20
2.295920
  0
VERTEX
  8
0
  6
CONTINUOUS
 10
0.520960
 20
3.042160
  0
VERTEX
  8
0
  6
CONTINUOUS
 10
0.529320
 20
3.097600
  0
VERTEX
  8
0
  6
CONTINUOUS
 10
0.526240
 20
2.351360
  0
VERTEX
  8
0
  6
CONTINUOUS
 10
0.517880
 20
2.295920
  0
SEQEND
  8
0
  0
SOLID
  8
0
 62
    15
 10
0.526240
 20
2.351360
 11
0.529320
 21
3.097600
 12
0.540320
 22
2.405040
 13
0.543400
 23
3.151280
  0
POLYLINE
  8
0
  6
CONTINUOUS
 66
     1
 40
0.000000
 41
0.000000
  0
VERTEX
  8
0
  6
CONTINUOUS
 10
0.526240
 20
2.351360
  0
VERTEX
  8
0
  6
CONTINUOUS
 10
0.529320
 20
3.097600
  0
VERTEX
  8
0
  6
CONTINUOUS
 10
0.543400
 20
3.151280
  0
VERTEX
  8
0
  6
CONTINUOUS
 10
0.540320
 20
2.405040
  0
VERTEX
  8
0
  6
CONTINUOUS
 10
0.526240
 20
2.351360
  0
SEQEND
  8
0
  0
SOLID
  8
0
 62
    15
 10
0.540320
 20
2.405040
 11
0.543400
 21
3.151280
 12
0.559240
 22
2.456080
 13
0.562320
 23
3.202760
  0
POLYLINE
  8
0
  6
CONTINUOUS
 66
     1
 40
0.000000
 41
0.000000
  0
VERTEX
  8
0
  6
CONTINUOUS
 10
0.540320
 20
2.405040
  0
VERTEX
  8
0
  6
CONTINUOUS
 10
0.543400
 20
3.151280
  0
VERTEX
  8
0
  6
CONTINUOUS
 10
0.562320
 20
3.202760
  0
VERTEX
  8
0
  6
CONTINUOUS
 10
0.559240
 20
2.456080
  0
VERTEX
  8
0
  6
CONTINUOUS
 10
0.540320
 20
2.405040
  0
SEQEND
  8
0
  0
SOLID
  8
0
 62
    15
 10
0.559240
 20
2.456080
 11
0.562320
 21
3.202760
 12
0.582560
 22
2.505360
 13
0.586080
 23
3.251600
  0
POLYLINE
  8
0
  6
CONTINUOUS
 66
     1
 40
0.000000
 41
0.000000
  0
VERTEX
  8
0
  6
CONTINUOUS
 10
0.559240
 20
2.456080
  0
VERTEX
  8
0
  6
CONTINUOUS
 10
0.562320
 20
3.202760
  0
VERTEX
  8
0
  6
CONTINUOUS
 10
0.586080
 20
3.251600
  0
VERTEX
  8
0
  6
CONTINUOUS
 10
0.582560
 20
2.505360
  0
VERTEX
  8
0
  6
CONTINUOUS
 10
0.559240
 20
2.456080
  0
SEQEND
  8
0
  0
SOLID
  8
0
 62
    15
 10
0.582560
 20
2.505360
 11
0.586080
 21
3.251600
 12
0.610720
 22
2.551560
 13
0.613800
 23
3.298240
  0
POLYLINE
  8
0
  6
CONTINUOUS
 66
     1
 40
0.000000
 41
0.000000
  0
VERTEX
  8
0
  6
CONTINUOUS
 10
0.582560
 20
2.505360
  0
VERTEX
  8
0
  6
CONTINUOUS
 10
0.586080
 20
3.251600
  0
VERTEX
  8
0
  6
CONTINUOUS
 10
0.613800
 20
3.298240
  0
VERTEX
  8
0
  6
CONTINUOUS
 10
0.610720
 20
2.551560
  0
VERTEX
  8
0
  6
CONTINUOUS
 10
0.582560
 20
2.505360
  0
SEQEND
  8
0
  0
SOLID
  8
0
 62
    15
 10
0.610720
 20
2.551560
 11
0.613800
 21
3.298240
 12
0.643280
 22
2.594680
 13
0.646360
 23
3.341360
  0
POLYLINE
  8
0
  6
CONTINUOUS
 66
     1
 40
0.000000
 41
0.000000
  0
VERTEX
  8
0
  6
CONTINUOUS
 10
0.610720
 20
2.551560
  0
VERTEX
  8
0
  6
CONTINUOUS
 10
0.613800
 20
3.298240
  0
VERTEX
  8
0
  6
CONTINUOUS
 10
0.646360
 20
3.341360
  0
VERTEX
  8
0
  6
CONTINUOUS
 10
0.643280
 20
2.594680
  0
VERTEX
  8
0
  6
CONTINUOUS
 10
0.610720
 20
2.551560
  0
SEQEND
  8
0
  0
SOLID
  8
0
 62
    15
 10
0.643280
 20
2.594680
 11
0.646360
 21
3.341360
 12
0.679360
 22
2.634280
 13
0.682440
 23
3.380960
  0
POLYLINE
  8
0
  6
CONTINUOUS
 66
     1
 40
0.000000
 41
0.000000
  0
VERTEX
  8
0
  6
CONTINUOUS
 10
0.643280
 20
2.594680
  0
VERTEX
  8
0
  6
CONTINUOUS
 10
0.646360
 20
3.341360
  0
VERTEX
  8
0
  6
CONTINUOUS
 10
0.682440
 20
3.380960
  0
VERTEX
  8
0
  6
CONTINUOUS
 10
0.679360
 20
2.634280
  0
VERTEX
  8
0
  6
CONTINUOUS
 10
0.643280
 20
2.594680
  0
SEQEND
  8
0
  0
SOLID
  8
0
 62
    15
 10
0.679360
 20
2.634280
 11
0.682440
 21
3.380960
 12
0.719400
 22
2.670800
 13
0.722480
 23
3.417040
  0
POLYLINE
  8
0
  6
CONTINUOUS
 66
     1
 40
0.000000
 41
0.000000
  0
VERTEX
  8
0
  6
CONTINUOUS
 10
0.679360
 20
2.634280
  0
VERTEX
  8
0
  6
CONTINUOUS
 10
0.682440
 20
3.380960
  0
VERTEX
  8
0
  6
CONTINUOUS
 10
0.722480
 20
3.417040
  0
VERTEX
  8
0
  6
CONTINUOUS
 10
0.719400
 20
2.670800
  0
VERTEX
  8
0
  6
CONTINUOUS
 10
0.679360
 20
2.634280
  0
SEQEND
  8
0
  0
SOLID
  8
0
 62
    15
 10
0.719400
 20
2.670800
 11
0.722480
 21
3.417040
 12
0.762520
 22
2.702920
 13
0.765600
 23
3.449600
  0
POLYLINE
  8
0
  6
CONTINUOUS
 66
     1
 40
0.000000
 41
0.000000
  0
VERTEX
  8
0
  6
CONTINUOUS
 10
0.719400
 20
2.670800
  0
VERTEX
  8
0
  6
CONTINUOUS
 10
0.722480
 20
3.417040
  0
VERTEX
  8
0
  6
CONTINUOUS
 10
0.765600
 20
3.449600
  0
VERTEX
  8
0
  6
CONTINUOUS
 10
0.762520
 20
2.702920
  0
VERTEX
  8
0
  6
CONTINUOUS
 10
0.719400
 20
2.670800
  0
SEQEND
  8
0
  0
SOLID
  8
0
 62
    15
 10
0.762520
 20
2.702920
 11
0.765600
 21
3.449600
 12
0.808720
 22
2.731080
 13
0.811800
 23
3.477760
  0
POLYLINE
  8
0
  6
CONTINUOUS
 66
     1
 40
0.000000
 41
0.000000
  0
VERTEX
  8
0
  6
CONTINUOUS
 10
0.762520
 20
2.702920
  0
VERTEX
  8
0
  6
CONTINUOUS
 10
0.765600
 20
3.449600
  0
VERTEX
  8
0
  6
CONTINUOUS
 10
0.811800
 20
3.477760
  0
VERTEX
  8
0
  6
CONTINUOUS
 10
0.808720
 20
2.731080
  0
VERTEX
  8
0
  6
CONTINUOUS
 10
0.762520
 20
2.702920
  0
SEQEND
  8
0
  0
SOLID
  8
0
 62
    15
 10
0.808720
 20
2.731080
 11
0.811800
 21
3.477760
 12
0.857560
 22
2.754840
 13
0.860640
 23
3.501520
  0
POLYLINE
  8
0
  6
CONTINUOUS
 66
     1
 40
0.000000
 41
0.000000
  0
VERTEX
  8
0
  6
CONTINUOUS
 10
0.808720
 20
2.731080
  0
VERTEX
  8
0
  6
CONTINUOUS
 10
0.811800
 20
3.477760
  0
VERTEX
  8
0
  6
CONTINUOUS
 10
0.860640
 20
3.501520
  0
VERTEX
  8
0
  6
CONTINUOUS
 10
0.857560
 20
2.754840
  0
VERTEX
  8
0
  6
CONTINUOUS
 10
0.808720
 20
2.731080
  0
SEQEND
  8
0
  0
SOLID
  8
0
 62
    15
 10
0.857560
 20
2.754840
 11
0.860640
 21
3.501520
 12
0.909040
 22
2.773760
 13
0.912120
 23
3.520440
  0
POLYLINE
  8
0
  6
CONTINUOUS
 66
     1
 40
0.000000
 41
0.000000
  0
VERTEX
  8
0
  6
CONTINUOUS
 10
0.857560
 20
2.754840
  0
VERTEX
  8
0
  6
CONTINUOUS
 10
0.860640
 20
3.501520
  0
VERTEX
  8
0
  6
CONTINUOUS
 10
0.912120
 20
3.520440
  0
VERTEX
  8
0
  6
CONTINUOUS
 10
0.909040
 20
2.773760
  0
VERTEX
  8
0
  6
CONTINUOUS
 10
0.857560
 20
2.754840
  0
SEQEND
  8
0
  0
SOLID
  8
0
 62
    15
 10
0.909040
 20
2.773760
 11
0.912120
 21
3.520440
 12
0.962720
 22
2.787400
 13
0.965800
 23
3.534080
  0
POLYLINE
  8
0
  6
CONTINUOUS
 66
     1
 40
0.000000
 41
0.000000
  0
VERTEX
  8
0
  6
CONTINUOUS
 10
0.909040
 20
2.773760
  0
VERTEX
  8
0
  6
CONTINUOUS
 10
0.912120
 20
3.520440
  0
VERTEX
  8
0
  6
CONTINUOUS
 10
0.965800
 20
3.534080
  0
VERTEX
  8
0
  6
CONTINUOUS
 10
0.962720
 20
2.787400
  0
VERTEX
  8
0
  6
CONTINUOUS
 10
0.909040
 20
2.773760
  0
SEQEND
  8
0
  0
SOLID
  8
0
 62
    15
 10
0.962720
 20
2.787400
 11
0.965800
 21
3.534080
 12
1.018160
 22
2.796200
 13
1.021240
 23
3.542880
  0
POLYLINE
  8
0
  6
CONTINUOUS
 66
     1
 40
0.000000
 41
0.000000
  0
VERTEX
  8
0
  6
CONTINUOUS
 10
0.962720
 20
2.787400
  0
VERTEX
  8
0
  6
CONTINUOUS
 10
0.965800
 20
3.534080
  0
VERTEX
  8
0
  6
CONTINUOUS
 10
1.021240
 20
3.542880
  0
VERTEX
  8
0
  6
CONTINUOUS
 10
1.018160
 20
2.796200
  0
VERTEX
  8
0
  6
CONTINUOUS
 10
0.962720
 20
2.787400
  0
SEQEND
  8
0
  0
SOLID
  8
0
 62
     7
 10
1.018160
 20
2.796200
 11
1.021240
 21
3.542880
 12
1.075360
 22
2.798840
 13
1.078440
 23
3.545520
  0
POLYLINE
  8
0
  6
CONTINUOUS
 66
     1
 40
0.000000
 41
0.000000
  0
VERTEX
  8
0
  6
CONTINUOUS
 10
1.018160
 20
2.796200
  0
VERTEX
  8
0
  6
CONTINUOUS
 10
1.021240
 20
3.542880
  0
VERTEX
  8
0
  6
CONTINUOUS
 10
1.078440
 20
3.545520
  0
VERTEX
  8
0
  6
CONTINUOUS
 10
1.075360
 20
2.798840
  0
VERTEX
  8
0
  6
CONTINUOUS
 10
1.018160
 20
2.796200
  0
SEQEND
  8
0
  0
SOLID
  8
0
 62
    15
 10
0.514800
 20
2.238720
 11
0.517880
 21
2.985400
 12
0.517880
 22
2.295920
 13
0.520960
 23
3.042160
  0
POLYLINE
  8
0
  6
CONTINUOUS
 66
     1
 40
0.000000
 41
0.000000
  0
VERTEX
  8
0
  6
CONTINUOUS
 10
0.514800
 20
2.238720
  0
VERTEX
  8
0
  6
CONTINUOUS
 10
0.517880
 20
2.985400
  0
VERTEX
  8
0
  6
CONTINUOUS
 10
0.520960
 20
3.042160
  0
VERTEX
  8
0
  6
CONTINUOUS
 10
0.517880
 20
2.295920
  0
VERTEX
  8
0
  6
CONTINUOUS
 10
0.514800
 20
2.238720
  0
SEQEND
  8
0
  0
SOLID
  8
0
 62
     7
 10
1.132560
 20
2.796200
 11
1.135640
 21
3.542880
 12
1.188000
 22
2.787400
 13
1.191080
 23
3.534080
  0
POLYLINE
  8
0
  6
CONTINUOUS
 66
     1
 40
0.000000
 41
0.000000
  0
VERTEX
  8
0
  6
CONTINUOUS
 10
1.132560
 20
2.796200
  0
VERTEX
  8
0
  6
CONTINUOUS
 10
1.135640
 20
3.542880
  0
VERTEX
  8
0
  6
CONTINUOUS
 10
1.191080
 20
3.534080
  0
VERTEX
  8
0
  6
CONTINUOUS
 10
1.188000
 20
2.787400
  0
VERTEX
  8
0
  6
CONTINUOUS
 10
1.132560
 20
2.796200
  0
SEQEND
  8
0
  0
SOLID
  8
0
 62
     7
 10
1.188000
 20
2.787400
 11
1.191080
 21
3.534080
 12
1.242120
 22
2.773760
 13
1.245200
 23
3.520440
  0
POLYLINE
  8
0
  6
CONTINUOUS
 66
     1
 40
0.000000
 41
0.000000
  0
VERTEX
  8
0
  6
CONTINUOUS
 10
1.188000
 20
2.787400
  0
VERTEX
  8
0
  6
CONTINUOUS
 10
1.191080
 20
3.534080
  0
VERTEX
  8
0
  6
CONTINUOUS
 10
1.245200
 20
3.520440
  0
VERTEX
  8
0
  6
CONTINUOUS
 10
1.242120
 20
2.773760
  0
VERTEX
  8
0
  6
CONTINUOUS
 10
1.188000
 20
2.787400
  0
SEQEND
  8
0
  0
SOLID
  8
0
 62
     7
 10
1.242120
 20
2.773760
 11
1.245200
 21
3.520440
 12
1.294040
 22
2.754840
 13
1.297120
 23
3.501520
  0
POLYLINE
  8
0
  6
CONTINUOUS
 66
     1
 40
0.000000
 41
0.000000
  0
VERTEX
  8
0
  6
CONTINUOUS
 10
1.242120
 20
2.773760
  0
VERTEX
  8
0
  6
CONTINUOUS
 10
1.245200
 20
3.520440
  0
VERTEX
  8
0
  6
CONTINUOUS
 10
1.297120
 20
3.501520
  0
VERTEX
  8
0
  6
CONTINUOUS
 10
1.294040
 20
2.754840
  0
VERTEX
  8
0
  6
CONTINUOUS
 10
1.242120
 20
2.773760
  0
SEQEND
  8
0
  0
SOLID
  8
0
 62
     7
 10
1.294040
 20
2.754840
 11
1.297120
 21
3.501520
 12
1.343320
 22
2.731080
 13
1.346400
 23
3.477760
  0
POLYLINE
  8
0
  6
CONTINUOUS
 66
     1
 40
0.000000
 41
0.000000
  0
VERTEX
  8
0
  6
CONTINUOUS
 10
1.294040
 20
2.754840
  0
VERTEX
  8
0
  6
CONTINUOUS
 10
1.297120
 20
3.501520
  0
VERTEX
  8
0
  6
CONTINUOUS
 10
1.346400
 20
3.477760
  0
VERTEX
  8
0
  6
CONTINUOUS
 10
1.343320
 20
2.731080
  0
VERTEX
  8
0
  6
CONTINUOUS
 10
1.294040
 20
2.754840
  0
SEQEND
  8
0
  0
SOLID
  8
0
 62
     7
 10
1.343320
 20
2.731080
 11
1.346400
 21
3.477760
 12
1.389960
 22
2.702920
 13
1.393040
 23
3.449600
  0
POLYLINE
  8
0
  6
CONTINUOUS
 66
     1
 40
0.000000
 41
0.000000
  0
VERTEX
  8
0
  6
CONTINUOUS
 10
1.343320
 20
2.731080
  0
VERTEX
  8
0
  6
CONTINUOUS
 10
1.346400
 20
3.477760
  0
VERTEX
  8
0
  6
CONTINUOUS
 10
1.393040
 20
3.449600
  0
VERTEX
  8
0
  6
CONTINUOUS
 10
1.389960
 20
2.702920
  0
VERTEX
  8
0
  6
CONTINUOUS
 10
1.343320
 20
2.731080
  0
SEQEND
  8
0
  0
SOLID
  8
0
 62
     7
 10
1.389960
 20
2.702920
 11
1.393040
 21
3.449600
 12
1.433960
 22
2.670800
 13
1.437040
 23
3.417040
  0
POLYLINE
  8
0
  6
CONTINUOUS
 66
     1
 40
0.000000
 41
0.000000
  0
VERTEX
  8
0
  6
CONTINUOUS
 10
1.389960
 20
2.702920
  0
VERTEX
  8
0
  6
CONTINUOUS
 10
1.393040
 20
3.449600
  0
VERTEX
  8
0
  6
CONTINUOUS
 10
1.437040
 20
3.417040
  0
VERTEX
  8
0
  6
CONTINUOUS
 10
1.433960
 20
2.670800
  0
VERTEX
  8
0
  6
CONTINUOUS
 10
1.389960
 20
2.702920
  0
SEQEND
  8
0
  0
SOLID
  8
0
 62
     7
 10
1.433960
 20
2.670800
 11
1.437040
 21
3.417040
 12
1.474440
 22
2.634280
 13
1.477520
 23
3.380960
  0
POLYLINE
  8
0
  6
CONTINUOUS
 66
     1
 40
0.000000
 41
0.000000
  0
VERTEX
  8
0
  6
CONTINUOUS
 10
1.433960
 20
2.670800
  0
VERTEX
  8
0
  6
CONTINUOUS
 10
1.437040
 20
3.417040
  0
VERTEX
  8
0
  6
CONTINUOUS
 10
1.477520
 20
3.380960
  0
VERTEX
  8
0
  6
CONTINUOUS
 10
1.474440
 20
2.634280
  0
VERTEX
  8
0
  6
CONTINUOUS
 10
1.433960
 20
2.670800
  0
SEQEND
  8
0
  0
SOLID
  8
0
 62
     7
 10
1.474440
 20
2.634280
 11
1.477520
 21
3.380960
 12
1.510960
 22
2.594680
 13
1.514040
 23
3.341360
  0
POLYLINE
  8
0
  6
CONTINUOUS
 66
     1
 40
0.000000
 41
0.000000
  0
VERTEX
  8
0
  6
CONTINUOUS
 10
1.474440
 20
2.634280
  0
VERTEX
  8
0
  6
CONTINUOUS
 10
1.477520
 20
3.380960
  0
VERTEX
  8
0
  6
CONTINUOUS
 10
1.514040
 20
3.341360
  0
VERTEX
  8
0
  6
CONTINUOUS
 10
1.510960
 20
2.594680
  0
VERTEX
  8
0
  6
CONTINUOUS
 10
1.474440
 20
2.634280
  0
SEQEND
  8
0
  0
SOLID
  8
0
 62
    15
 10
1.510960
 20
2.594680
 11
1.514040
 21
3.341360
 12
1.543960
 22
2.551560
 13
1.547040
 23
3.298240
  0
POLYLINE
  8
0
  6
CONTINUOUS
 66
     1
 40
0.000000
 41
0.000000
  0
VERTEX
  8
0
  6
CONTINUOUS
 10
1.510960
 20
2.594680
  0
VERTEX
  8
0
  6
CONTINUOUS
 10
1.514040
 20
3.341360
  0
VERTEX
  8
0
  6
CONTINUOUS
 10
1.547040
 20
3.298240
  0
VERTEX
  8
0
  6
CONTINUOUS
 10
1.543960
 20
2.551560
  0
VERTEX
  8
0
  6
CONTINUOUS
 10
1.510960
 20
2.594680
  0
SEQEND
  8
0
  0
SOLID
  8
0
 62
    15
 10
1.543960
 20
2.551560
 11
1.547040
 21
3.298240
 12
1.572560
 22
2.505360
 13
1.575640
 23
3.251600
  0
POLYLINE
  8
0
  6
CONTINUOUS
 66
     1
 40
0.000000
 41
0.000000
  0
VERTEX
  8
0
  6
CONTINUOUS
 10
1.543960
 20
2.551560
  0
VERTEX
  8
0
  6
CONTINUOUS
 10
1.547040
 20
3.298240
  0
VERTEX
  8
0
  6
CONTINUOUS
 10
1.575640
 20
3.251600
  0
VERTEX
  8
0
  6
CONTINUOUS
 10
1.572560
 20
2.505360
  0
VERTEX
  8
0
  6
CONTINUOUS
 10
1.543960
 20
2.551560
  0
SEQEND
  8
0
  0
SOLID
  8
0
 62
    15
 10
1.572560
 20
2.505360
 11
1.575640
 21
3.251600
 12
1.596760
 22
2.456080
 13
1.599840
 23
3.202760
  0
POLYLINE
  8
0
  6
CONTINUOUS
 66
     1
 40
0.000000
 41
0.000000
  0
VERTEX
  8
0
  6
CONTINUOUS
 10
1.572560
 20
2.505360
  0
VERTEX
  8
0
  6
CONTINUOUS
 10
1.575640
 20
3.251600
  0
VERTEX
  8
0
  6
CONTINUOUS
 10
1.599840
 20
3.202760
  0
VERTEX
  8
0
  6
CONTINUOUS
 10
1.596760
 20
2.456080
  0
VERTEX
  8
0
  6
CONTINUOUS
 10
1.572560
 20
2.505360
  0
SEQEND
  8
0
  0
SOLID
  8
0
 62
    15
 10
1.596760
 20
2.456080
 11
1.599840
 21
3.202760
 12
1.616120
 22
2.405040
 13
1.619200
 23
3.151280
  0
POLYLINE
  8
0
  6
CONTINUOUS
 66
     1
 40
0.000000
 41
0.000000
  0
VERTEX
  8
0
  6
CONTINUOUS
 10
1.596760
 20
2.456080
  0
VERTEX
  8
0
  6
CONTINUOUS
 10
1.599840
 20
3.202760
  0
VERTEX
  8
0
  6
CONTINUOUS
 10
1.619200
 20
3.151280
  0
VERTEX
  8
0
  6
CONTINUOUS
 10
1.616120
 20
2.405040
  0
VERTEX
  8
0
  6
CONTINUOUS
 10
1.596760
 20
2.456080
  0
SEQEND
  8
0
  0
SOLID
  8
0
 62
    15
 10
1.616120
 20
2.405040
 11
1.619200
 21
3.151280
 12
1.630200
 22
2.351360
 13
1.633280
 23
3.097600
  0
POLYLINE
  8
0
  6
CONTINUOUS
 66
     1
 40
0.000000
 41
0.000000
  0
VERTEX
  8
0
  6
CONTINUOUS
 10
1.616120
 20
2.405040
  0
VERTEX
  8
0
  6
CONTINUOUS
 10
1.619200
 20
3.151280
  0
VERTEX
  8
0
  6
CONTINUOUS
 10
1.633280
 20
3.097600
  0
VERTEX
  8
0
  6
CONTINUOUS
 10
1.630200
 20
2.351360
  0
VERTEX
  8
0
  6
CONTINUOUS
 10
1.616120
 20
2.405040
  0
SEQEND
  8
0
  0
SOLID
  8
0
 62
    15
 10
1.630200
 20
2.351360
 11
1.633280
 21
3.097600
 12
1.639000
 22
2.295920
 13
1.642080
 23
3.042160
  0
POLYLINE
  8
0
  6
CONTINUOUS
 66
     1
 40
0.000000
 41
0.000000
  0
VERTEX
  8
0
  6
CONTINUOUS
 10
1.630200
 20
2.351360
  0
VERTEX
  8
0
  6
CONTINUOUS
 10
1.633280
 20
3.097600
  0
VERTEX
  8
0
  6
CONTINUOUS
 10
1.642080
 20
3.042160
  0
VERTEX
  8
0
  6
CONTINUOUS
 10
1.639000
 20
2.295920
  0
VERTEX
  8
0
  6
CONTINUOUS
 10
1.630200
 20
2.351360
  0
SEQEND
  8
0
  0
SOLID
  8
0
 62
    15
 10
1.639000
 20
2.295920
 11
1.642080
 21
3.042160
 12
1.642080
 22
2.238720
 13
1.645160
 23
2.985400
  0
POLYLINE
  8
0
  6
CONTINUOUS
 66
     1
 40
0.000000
 41
0.000000
  0
VERTEX
  8
0
  6
CONTINUOUS
 10
1.639000
 20
2.295920
  0
VERTEX
  8
0
  6
CONTINUOUS
 10
1.642080
 20
3.042160
  0
VERTEX
  8
0
  6
CONTINUOUS
 10
1.645160
 20
2.985400
  0
VERTEX
  8
0
  6
CONTINUOUS
 10
1.642080
 20
2.238720
  0
VERTEX
  8
0
  6
CONTINUOUS
 10
1.639000
 20
2.295920
  0
SEQEND
  8
0
  0
POLYLINE
  8
0
  6
CONTINUOUS
 66
     1
 40
0.000000
 41
0.000000
  0
VERTEX
  8
0
  6
CONTINUOUS
 10
1.642080
 20
2.238720
  0
VERTEX
  8
0
  6
CONTINUOUS
 10
0.514800
 20
2.238720
  0
VERTEX
  8
0
  6
CONTINUOUS
 10
0.517880
 20
2.295920
  0
VERTEX
  8
0
  6
CONTINUOUS
 10
0.526240
 20
2.351360
  0
VERTEX
  8
0
  6
CONTINUOUS
 10
0.540320
 20
2.405040
  0
VERTEX
  8
0
  6
CONTINUOUS
 10
0.559240
 20
2.456080
  0
VERTEX
  8
0
  6
CONTINUOUS
 10
0.582560
 20
2.505360
  0
VERTEX
  8
0
  6
CONTINUOUS
 10
0.610720
 20
2.551560
  0
VERTEX
  8
0
  6
CONTINUOUS
 10
0.643280
 20
2.594680
  0
VERTEX
  8
0
  6
CONTINUOUS
 10
0.679360
 20
2.634280
  0
VERTEX
  8
0
  6
CONTINUOUS
 10
0.719400
 20
2.670800
  0
VERTEX
  8
0
  6
CONTINUOUS
 10
0.762520
 20
2.702920
  0
VERTEX
  8
0
  6
CONTINUOUS
 10
0.808720
 20
2.731080
  0
VERTEX
  8
0
  6
CONTINUOUS
 10
0.857560
 20
2.754840
  0
VERTEX
  8
0
  6
CONTINUOUS
 10
0.909040
 20
2.773760
  0
VERTEX
  8
0
  6
CONTINUOUS
 10
0.962720
 20
2.787400
  0
VERTEX
  8
0
  6
CONTINUOUS
 10
1.018160
 20
2.796200
  0
VERTEX
  8
0
  6
CONTINUOUS
 10
1.075360
 20
2.798840
  0
VERTEX
  8
0
  6
CONTINUOUS
 10
1.132560
 20
2.796200
  0
VERTEX
  8
0
  6
CONTINUOUS
 10
1.188000
 20
2.787400
  0
VERTEX
  8
0
  6
CONTINUOUS
 10
1.242120
 20
2.773760
  0
VERTEX
  8
0
  6
CONTINUOUS
 10
1.294040
 20
2.754840
  0
VERTEX
  8
0
  6
CONTINUOUS
 10
1.343320
 20
2.731080
  0
VERTEX
  8
0
  6
CONTINUOUS
 10
1.389960
 20
2.702920
  0
VERTEX
  8
0
  6
CONTINUOUS
 10
1.433960
 20
2.670800
  0
VERTEX
  8
0
  6
CONTINUOUS
 10
1.474440
 20
2.634280
  0
VERTEX
  8
0
  6
CONTINUOUS
 10
1.510960
 20
2.594680
  0
VERTEX
  8
0
  6
CONTINUOUS
 10
1.543960
 20
2.551560
  0
VERTEX
  8
0
  6
CONTINUOUS
 10
1.572560
 20
2.505360
  0
VERTEX
  8
0
  6
CONTINUOUS
 10
1.596760
 20
2.456080
  0
VERTEX
  8
0
  6
CONTINUOUS
 10
1.616120
 20
2.405040
  0
VERTEX
  8
0
  6
CONTINUOUS
 10
1.630200
 20
2.351360
  0
VERTEX
  8
0
  6
CONTINUOUS
 10
1.639000
 20
2.295920
  0
VERTEX
  8
0
  6
CONTINUOUS
 10
1.642080
 20
2.238720
  0
SEQEND
  8
0
  0
TEXT
  8
0
 10
2.797960
 20
0.737880
 40
0.137858
  1
BA  341 1-1/4" x 6-1/16"
 41
1.000000
  7
SN0
 71
     0
 72
     5
 11
4.571800
 21
0.737880
  0
TEXT
  8
0
 10
2.797960
 20
0.546040
 40
0.137858
  1
BA  342 1-1/8"
 41
1.000000
  7
SN0
 71
     0
 72
     5
 11
3.869058
 21
0.546040
  0
TEXT
  8
0
 10
0.720280
 20
1.118480
 40
0.137858
  1
341
 41
1.000000
  7
SN0
 71
     0
 72
     5
 11
0.996635
 21
1.118480
  0
TEXT
  8
0
 10
0.718080
 20
2.335080
 40
0.137858
  1
342
 41
1.000000
  7
SN0
 71
     0
 72
     5
 11
0.994435
 21
2.335080
  0
SOLID
  8
0
 62
    15
 10
6.639160
 20
3.509000
 11
7.282000
 21
3.885200
 12
6.685800
 22
3.480840
 13
7.328640
 23
3.857040
  0
POLYLINE
  8
0
  6
CONTINUOUS
 66
     1
 40
0.000000
 41
0.000000
  0
VERTEX
  8
0
  6
CONTINUOUS
 10
6.639160
 20
3.509000
  0
VERTEX
  8
0
  6
CONTINUOUS
 10
7.282000
 20
3.885200
  0
VERTEX
  8
0
  6
CONTINUOUS
 10
7.328640
 20
3.857040
  0
VERTEX
  8
0
  6
CONTINUOUS
 10
6.685800
 20
3.480840
  0
VERTEX
  8
0
  6
CONTINUOUS
 10
6.639160
 20
3.509000
  0
SEQEND
  8
0
  0
SOLID
  8
0
 62
    15
 10
6.153400
 20
3.532760
 11
6.796240
 21
3.908960
 12
6.204880
 22
3.551680
 13
6.847720
 23
3.927880
  0
POLYLINE
  8
0
  6
CONTINUOUS
 66
     1
 40
0.000000
 41
0.000000
  0
VERTEX
  8
0
  6
CONTINUOUS
 10
6.153400
 20
3.532760
  0
VERTEX
  8
0
  6
CONTINUOUS
 10
6.796240
 20
3.908960
  0
VERTEX
  8
0
  6
CONTINUOUS
 10
6.847720
 20
3.927880
  0
VERTEX
  8
0
  6
CONTINUOUS
 10
6.204880
 20
3.551680
  0
VERTEX
  8
0
  6
CONTINUOUS
 10
6.153400
 20
3.532760
  0
SEQEND
  8
0
  0
SOLID
  8
0
 62
    15
 10
6.204880
 20
3.551680
 11
6.847720
 21
3.927880
 12
6.258560
 22
3.565760
 13
6.901400
 23
3.941520
  0
POLYLINE
  8
0
  6
CONTINUOUS
 66
     1
 40
0.000000
 41
0.000000
  0
VERTEX
  8
0
  6
CONTINUOUS
 10
6.204880
 20
3.551680
  0
VERTEX
  8
0
  6
CONTINUOUS
 10
6.847720
 20
3.927880
  0
VERTEX
  8
0
  6
CONTINUOUS
 10
6.901400
 20
3.941520
  0
VERTEX
  8
0
  6
CONTINUOUS
 10
6.258560
 20
3.565760
  0
VERTEX
  8
0
  6
CONTINUOUS
 10
6.204880
 20
3.551680
  0
SEQEND
  8
0
  0
SOLID
  8
0
 62
    15
 10
6.258560
 20
3.565760
 11
6.901400
 21
3.941520
 12
6.314000
 22
3.574120
 13
6.956840
 23
3.950320
  0
POLYLINE
  8
0
  6
CONTINUOUS
 66
     1
 40
0.000000
 41
0.000000
  0
VERTEX
  8
0
  6
CONTINUOUS
 10
6.258560
 20
3.565760
  0
VERTEX
  8
0
  6
CONTINUOUS
 10
6.901400
 20
3.941520
  0
VERTEX
  8
0
  6
CONTINUOUS
 10
6.956840
 20
3.950320
  0
VERTEX
  8
0
  6
CONTINUOUS
 10
6.314000
 20
3.574120
  0
VERTEX
  8
0
  6
CONTINUOUS
 10
6.258560
 20
3.565760
  0
SEQEND
  8
0
  0
SOLID
  8
0
 62
    15
 10
6.314000
 20
3.574120
 11
6.956840
 21
3.950320
 12
6.370760
 22
3.576760
 13
7.013600
 23
3.952960
  0
POLYLINE
  8
0
  6
CONTINUOUS
 66
     1
 40
0.000000
 41
0.000000
  0
VERTEX
  8
0
  6
CONTINUOUS
 10
6.314000
 20
3.574120
  0
VERTEX
  8
0
  6
CONTINUOUS
 10
6.956840
 20
3.950320
  0
VERTEX
  8
0
  6
CONTINUOUS
 10
7.013600
 20
3.952960
  0
VERTEX
  8
0
  6
CONTINUOUS
 10
6.370760
 20
3.576760
  0
VERTEX
  8
0
  6
CONTINUOUS
 10
6.314000
 20
3.574120
  0
SEQEND
  8
0
  0
SOLID
  8
0
 62
    15
 10
6.370760
 20
3.576760
 11
7.013600
 21
3.952960
 12
6.427960
 22
3.574120
 13
7.070800
 23
3.950320
  0
POLYLINE
  8
0
  6
CONTINUOUS
 66
     1
 40
0.000000
 41
0.000000
  0
VERTEX
  8
0
  6
CONTINUOUS
 10
6.370760
 20
3.576760
  0
VERTEX
  8
0
  6
CONTINUOUS
 10
7.013600
 20
3.952960
  0
VERTEX
  8
0
  6
CONTINUOUS
 10
7.070800
 20
3.950320
  0
VERTEX
  8
0
  6
CONTINUOUS
 10
6.427960
 20
3.574120
  0
VERTEX
  8
0
  6
CONTINUOUS
 10
6.370760
 20
3.576760
  0
SEQEND
  8
0
  0
SOLID
  8
0
 62
    15
 10
6.427960
 20
3.574120
 11
7.070800
 21
3.950320
 12
6.483840
 22
3.565760
 13
7.126680
 23
3.941520
  0
POLYLINE
  8
0
  6
CONTINUOUS
 66
     1
 40
0.000000
 41
0.000000
  0
VERTEX
  8
0
  6
CONTINUOUS
 10
6.427960
 20
3.574120
  0
VERTEX
  8
0
  6
CONTINUOUS
 10
7.070800
 20
3.950320
  0
VERTEX
  8
0
  6
CONTINUOUS
 10
7.126680
 20
3.941520
  0
VERTEX
  8
0
  6
CONTINUOUS
 10
6.483840
 20
3.565760
  0
VERTEX
  8
0
  6
CONTINUOUS
 10
6.427960
 20
3.574120
  0
SEQEND
  8
0
  0
SOLID
  8
0
 62
    15
 10
6.483840
 20
3.565760
 11
7.126680
 21
3.941520
 12
6.537960
 22
3.551680
 13
7.180800
 23
3.927880
  0
POLYLINE
  8
0
  6
CONTINUOUS
 66
     1
 40
0.000000
 41
0.000000
  0
VERTEX
  8
0
  6
CONTINUOUS
 10
6.483840
 20
3.565760
  0
VERTEX
  8
0
  6
CONTINUOUS
 10
7.126680
 20
3.941520
  0
VERTEX
  8
0
  6
CONTINUOUS
 10
7.180800
 20
3.927880
  0
VERTEX
  8
0
  6
CONTINUOUS
 10
6.537960
 20
3.551680
  0
VERTEX
  8
0
  6
CONTINUOUS
 10
6.483840
 20
3.565760
  0
SEQEND
  8
0
  0
SOLID
  8
0
 62
    15
 10
6.537960
 20
3.551680
 11
7.180800
 21
3.927880
 12
6.589440
 22
3.532760
 13
7.232280
 23
3.908960
  0
POLYLINE
  8
0
  6
CONTINUOUS
 66
     1
 40
0.000000
 41
0.000000
  0
VERTEX
  8
0
  6
CONTINUOUS
 10
6.537960
 20
3.551680
  0
VERTEX
  8
0
  6
CONTINUOUS
 10
7.180800
 20
3.927880
  0
VERTEX
  8
0
  6
CONTINUOUS
 10
7.232280
 20
3.908960
  0
VERTEX
  8
0
  6
CONTINUOUS
 10
6.589440
 20
3.532760
  0
VERTEX
  8
0
  6
CONTINUOUS
 10
6.537960
 20
3.551680
  0
SEQEND
  8
0
  0
SOLID
  8
0
 62
    15
 10
6.589440
 20
3.532760
 11
7.232280
 21
3.908960
 12
6.639160
 22
3.509000
 13
7.282000
 23
3.885200
  0
POLYLINE
  8
0
  6
CONTINUOUS
 66
     1
 40
0.000000
 41
0.000000
  0
VERTEX
  8
0
  6
CONTINUOUS
 10
6.589440
 20
3.532760
  0
VERTEX
  8
0
  6
CONTINUOUS
 10
7.232280
 20
3.908960
  0
VERTEX
  8
0
  6
CONTINUOUS
 10
7.282000
 20
3.885200
  0
VERTEX
  8
0
  6
CONTINUOUS
 10
6.639160
 20
3.509000
  0
VERTEX
  8
0
  6
CONTINUOUS
 10
6.589440
 20
3.532760
  0
SEQEND
  8
0
  0
SOLID
  8
0
 62
    15
 10
6.104120
 20
3.509000
 11
6.747400
 21
3.885200
 12
6.153400
 22
3.532760
 13
6.796240
 23
3.908960
  0
POLYLINE
  8
0
  6
CONTINUOUS
 66
     1
 40
0.000000
 41
0.000000
  0
VERTEX
  8
0
  6
CONTINUOUS
 10
6.104120
 20
3.509000
  0
VERTEX
  8
0
  6
CONTINUOUS
 10
6.747400
 20
3.885200
  0
VERTEX
  8
0
  6
CONTINUOUS
 10
6.796240
 20
3.908960
  0
VERTEX
  8
0
  6
CONTINUOUS
 10
6.153400
 20
3.532760
  0
VERTEX
  8
0
  6
CONTINUOUS
 10
6.104120
 20
3.509000
  0
SEQEND
  8
0
  0
SOLID
  8
0
 62
     7
 10
6.685800
 20
3.480840
 11
7.328640
 21
3.857040
 12
6.729360
 22
3.448720
 13
7.372200
 23
3.824480
  0
POLYLINE
  8
0
  6
CONTINUOUS
 66
     1
 40
0.000000
 41
0.000000
  0
VERTEX
  8
0
  6
CONTINUOUS
 10
6.685800
 20
3.480840
  0
VERTEX
  8
0
  6
CONTINUOUS
 10
7.328640
 20
3.857040
  0
VERTEX
  8
0
  6
CONTINUOUS
 10
7.372200
 20
3.824480
  0
VERTEX
  8
0
  6
CONTINUOUS
 10
6.729360
 20
3.448720
  0
VERTEX
  8
0
  6
CONTINUOUS
 10
6.685800
 20
3.480840
  0
SEQEND
  8
0
  0
SOLID
  8
0
 62
     7
 10
6.729360
 20
3.448720
 11
7.372200
 21
3.824480
 12
6.769840
 22
3.412200
 13
7.412680
 23
3.788400
  0
POLYLINE
  8
0
  6
CONTINUOUS
 66
     1
 40
0.000000
 41
0.000000
  0
VERTEX
  8
0
  6
CONTINUOUS
 10
6.729360
 20
3.448720
  0
VERTEX
  8
0
  6
CONTINUOUS
 10
7.372200
 20
3.824480
  0
VERTEX
  8
0
  6
CONTINUOUS
 10
7.412680
 20
3.788400
  0
VERTEX
  8
0
  6
CONTINUOUS
 10
6.769840
 20
3.412200
  0
VERTEX
  8
0
  6
CONTINUOUS
 10
6.729360
 20
3.448720
  0
SEQEND
  8
0
  0
SOLID
  8
0
 62
     7
 10
6.769840
 20
3.412200
 11
7.412680
 21
3.788400
 12
6.806800
 22
3.372600
 13
7.449640
 23
3.748800
  0
POLYLINE
  8
0
  6
CONTINUOUS
 66
     1
 40
0.000000
 41
0.000000
  0
VERTEX
  8
0
  6
CONTINUOUS
 10
6.769840
 20
3.412200
  0
VERTEX
  8
0
  6
CONTINUOUS
 10
7.412680
 20
3.788400
  0
VERTEX
  8
0
  6
CONTINUOUS
 10
7.449640
 20
3.748800
  0
VERTEX
  8
0
  6
CONTINUOUS
 10
6.806800
 20
3.372600
  0
VERTEX
  8
0
  6
CONTINUOUS
 10
6.769840
 20
3.412200
  0
SEQEND
  8
0
  0
SOLID
  8
0
 62
     7
 10
6.806800
 20
3.372600
 11
7.449640
 21
3.748800
 12
6.839800
 22
3.329480
 13
7.482640
 23
3.705680
  0
POLYLINE
  8
0
  6
CONTINUOUS
 66
     1
 40
0.000000
 41
0.000000
  0
VERTEX
  8
0
  6
CONTINUOUS
 10
6.806800
 20
3.372600
  0
VERTEX
  8
0
  6
CONTINUOUS
 10
7.449640
 20
3.748800
  0
VERTEX
  8
0
  6
CONTINUOUS
 10
7.482640
 20
3.705680
  0
VERTEX
  8
0
  6
CONTINUOUS
 10
6.839800
 20
3.329480
  0
VERTEX
  8
0
  6
CONTINUOUS
 10
6.806800
 20
3.372600
  0
SEQEND
  8
0
  0
SOLID
  8
0
 62
     7
 10
6.839800
 20
3.329480
 11
7.482640
 21
3.705680
 12
6.868400
 22
3.283280
 13
7.511240
 23
3.659040
  0
POLYLINE
  8
0
  6
CONTINUOUS
 66
     1
 40
0.000000
 41
0.000000
  0
VERTEX
  8
0
  6
CONTINUOUS
 10
6.839800
 20
3.329480
  0
VERTEX
  8
0
  6
CONTINUOUS
 10
7.482640
 20
3.705680
  0
VERTEX
  8
0
  6
CONTINUOUS
 10
7.511240
 20
3.659040
  0
VERTEX
  8
0
  6
CONTINUOUS
 10
6.868400
 20
3.283280
  0
VERTEX
  8
0
  6
CONTINUOUS
 10
6.839800
 20
3.329480
  0
SEQEND
  8
0
  0
SOLID
  8
0
 62
     7
 10
6.868400
 20
3.283280
 11
7.511240
 21
3.659040
 12
6.892600
 22
3.234440
 13
7.535440
 23
3.610200
  0
POLYLINE
  8
0
  6
CONTINUOUS
 66
     1
 40
0.000000
 41
0.000000
  0
VERTEX
  8
0
  6
CONTINUOUS
 10
6.868400
 20
3.283280
  0
VERTEX
  8
0
  6
CONTINUOUS
 10
7.511240
 20
3.659040
  0
VERTEX
  8
0
  6
CONTINUOUS
 10
7.535440
 20
3.610200
  0
VERTEX
  8
0
  6
CONTINUOUS
 10
6.892600
 20
3.234440
  0
VERTEX
  8
0
  6
CONTINUOUS
 10
6.868400
 20
3.283280
  0
SEQEND
  8
0
  0
SOLID
  8
0
 62
     7
 10
6.892600
 20
3.234440
 11
7.535440
 21
3.610200
 12
6.911520
 22
3.182960
 13
7.554800
 23
3.558720
  0
POLYLINE
  8
0
  6
CONTINUOUS
 66
     1
 40
0.000000
 41
0.000000
  0
VERTEX
  8
0
  6
CONTINUOUS
 10
6.892600
 20
3.234440
  0
VERTEX
  8
0
  6
CONTINUOUS
 10
7.535440
 20
3.610200
  0
VERTEX
  8
0
  6
CONTINUOUS
 10
7.554800
 20
3.558720
  0
VERTEX
  8
0
  6
CONTINUOUS
 10
6.911520
 20
3.182960
  0
VERTEX
  8
0
  6
CONTINUOUS
 10
6.892600
 20
3.234440
  0
SEQEND
  8
0
  0
SOLID
  8
0
 62
    15
 10
6.911520
 20
3.182960
 11
7.554800
 21
3.558720
 12
6.926040
 22
3.129280
 13
7.568880
 23
3.505040
  0
POLYLINE
  8
0
  6
CONTINUOUS
 66
     1
 40
0.000000
 41
0.000000
  0
VERTEX
  8
0
  6
CONTINUOUS
 10
6.911520
 20
3.182960
  0
VERTEX
  8
0
  6
CONTINUOUS
 10
7.554800
 20
3.558720
  0
VERTEX
  8
0
  6
CONTINUOUS
 10
7.568880
 20
3.505040
  0
VERTEX
  8
0
  6
CONTINUOUS
 10
6.926040
 20
3.129280
  0
VERTEX
  8
0
  6
CONTINUOUS
 10
6.911520
 20
3.182960
  0
SEQEND
  8
0
  0
SOLID
  8
0
 62
    15
 10
6.926040
 20
3.129280
 11
7.568880
 21
3.505040
 12
6.934400
 22
3.073840
 13
7.577680
 23
3.449600
  0
POLYLINE
  8
0
  6
CONTINUOUS
 66
     1
 40
0.000000
 41
0.000000
  0
VERTEX
  8
0
  6
CONTINUOUS
 10
6.926040
 20
3.129280
  0
VERTEX
  8
0
  6
CONTINUOUS
 10
7.568880
 20
3.505040
  0
VERTEX
  8
0
  6
CONTINUOUS
 10
7.577680
 20
3.449600
  0
VERTEX
  8
0
  6
CONTINUOUS
 10
6.934400
 20
3.073840
  0
VERTEX
  8
0
  6
CONTINUOUS
 10
6.926040
 20
3.129280
  0
SEQEND
  8
0
  0
SOLID
  8
0
 62
    15
 10
6.934400
 20
3.073840
 11
7.577680
 21
3.449600
 12
6.937480
 22
3.016640
 13
7.580320
 23
3.392840
  0
POLYLINE
  8
0
  6
CONTINUOUS
 66
     1
 40
0.000000
 41
0.000000
  0
VERTEX
  8
0
  6
CONTINUOUS
 10
6.934400
 20
3.073840
  0
VERTEX
  8
0
  6
CONTINUOUS
 10
7.577680
 20
3.449600
  0
VERTEX
  8
0
  6
CONTINUOUS
 10
7.580320
 20
3.392840
  0
VERTEX
  8
0
  6
CONTINUOUS
 10
6.937480
 20
3.016640
  0
VERTEX
  8
0
  6
CONTINUOUS
 10
6.934400
 20
3.073840
  0
SEQEND
  8
0
  0
POLYLINE
  8
0
  6
CONTINUOUS
 66
     1
 40
0.000000
 41
0.000000
  0
VERTEX
  8
0
  6
CONTINUOUS
 10
6.937480
 20
3.016640
  0
VERTEX
  8
0
  6
CONTINUOUS
 10
5.810640
 20
3.016640
  0
VERTEX
  8
0
  6
CONTINUOUS
 10
5.813280
 20
3.073840
  0
VERTEX
  8
0
  6
CONTINUOUS
 10
5.822080
 20
3.129280
  0
VERTEX
  8
0
  6
CONTINUOUS
 10
5.835720
 20
3.182960
  0
VERTEX
  8
0
  6
CONTINUOUS
 10
5.854640
 20
3.234440
  0
VERTEX
  8
0
  6
CONTINUOUS
 10
5.878400
 20
3.283280
  0
VERTEX
  8
0
  6
CONTINUOUS
 10
5.906560
 20
3.329480
  0
VERTEX
  8
0
  6
CONTINUOUS
 10
5.938680
 20
3.372600
  0
VERTEX
  8
0
  6
CONTINUOUS
 10
5.975200
 20
3.412200
  0
VERTEX
  8
0
  6
CONTINUOUS
 10
6.014800
 20
3.448720
  0
VERTEX
  8
0
  6
CONTINUOUS
 10
6.057920
 20
3.480840
  0
VERTEX
  8
0
  6
CONTINUOUS
 10
6.104120
 20
3.509000
  0
VERTEX
  8
0
  6
CONTINUOUS
 10
6.153400
 20
3.532760
  0
VERTEX
  8
0
  6
CONTINUOUS
 10
6.204880
 20
3.551680
  0
VERTEX
  8
0
  6
CONTINUOUS
 10
6.258560
 20
3.565760
  0
VERTEX
  8
0
  6
CONTINUOUS
 10
6.314000
 20
3.574120
  0
VERTEX
  8
0
  6
CONTINUOUS
 10
6.370760
 20
3.576760
  0
VERTEX
  8
0
  6
CONTINUOUS
 10
6.427960
 20
3.574120
  0
VERTEX
  8
0
  6
CONTINUOUS
 10
6.483840
 20
3.565760
  0
VERTEX
  8
0
  6
CONTINUOUS
 10
6.537960
 20
3.551680
  0
VERTEX
  8
0
  6
CONTINUOUS
 10
6.589440
 20
3.532760
  0
VERTEX
  8
0
  6
CONTINUOUS
 10
6.639160
 20
3.509000
  0
VERTEX
  8
0
  6
CONTINUOUS
 10
6.685800
 20
3.480840
  0
VERTEX
  8
0
  6
CONTINUOUS
 10
6.729360
 20
3.448720
  0
VERTEX
  8
0
  6
CONTINUOUS
 10
6.769840
 20
3.412200
  0
VERTEX
  8
0
  6
CONTINUOUS
 10
6.806800
 20
3.372600
  0
VERTEX
  8
0
  6
CONTINUOUS
 10
6.839800
 20
3.329480
  0
VERTEX
  8
0
  6
CONTINUOUS
 10
6.868400
 20
3.283280
  0
VERTEX
  8
0
  6
CONTINUOUS
 10
6.892600
 20
3.234440
  0
VERTEX
  8
0
  6
CONTINUOUS
 10
6.911520
 20
3.182960
  0
VERTEX
  8
0
  6
CONTINUOUS
 10
6.926040
 20
3.129280
  0
VERTEX
  8
0
  6
CONTINUOUS
 10
6.934400
 20
3.073840
  0
VERTEX
  8
0
  6
CONTINUOUS
 10
6.937480
 20
3.016640
  0
SEQEND
  8
0
  0
TEXT
  8
0
 10
6.556880
 20
2.809400
 40
0.137858
  1
342
 41
1.000000
  7
SN0
 71
     0
 72
     5
 11
6.833235
 21
2.809400
  0
TEXT
  8
0
 10
6.476360
 20
2.618000
 40
0.137858
  1
1-1/8"
 41
1.000000
  7
SN0
 71
     0
 72
     5
 11
6.912655
 21
2.618000
  0
ENDSEC
  0
EOF
