  0
SECTION
  2
HEADER
  9
$ACADVER
  1
AC1006
  9
$EXTMIN
 10
0.769560
 20
0.641520
  9
$EXTMAX
 10
7.624320
 20
7.635760
  9
$LTSCALE
 40
0.044000
  9
$PDMODE
 70
    35
  9
$PDSIZE
 40
0.035200
  0
ENDSEC
  0
SECTION
  2
TABLES
  0
TABLE
  2
LTYPE
 70
     9
  0
LTYPE
  2
CONTINUOUS
 70
    64
  3
Solid line
 72
    65
 73
     0
 40
0.000000
  0
LTYPE
  2
DASHED
 70
    64
  3
__ __ __ __ __ __ __ __ __ __ __ __ __ __ __
 72
    65
 73
     2
 40
0.000330
 49
0.000220
 49
-0.000110
  0
LTYPE
  2
HIDDEN
 70
    64
  3
 _ _ _ _ _ _ _ _ _ _ _ _ _ _ _ _ _ _ _ _ _ _
 72
    65
 73
     2
 40
0.000165
 49
0.000110
 49
-0.000055
  0
LTYPE
  2
CENTER
 70
    64
  3
____ _ ____ _ ____ _ ____ _ ____ _ ____ _ ____
 72
    65
 73
     4
 40
0.000880
 49
0.000550
 49
-0.000110
 49
0.000110
 49
-0.000110
  0
LTYPE
  2
PHANTOM
 70
    64
  3
_____ _ _ _____ _ _ _____ _ _ _____ _ _ ____
 72
    65
 73
     6
 40
0.001100
 49
0.000550
 49
-0.000110
 49
0.000110
 49
-0.000110
 49
0.000110
 49
-0.000110
  0
LTYPE
  2
DOT
 70
    64
  3
...............................................
 72
    65
 73
     2
 40
0.000110
 49
0.000000
 49
-0.000110
  0
LTYPE
  2
DASHDOT
 70
    64
  3
__ . __ . __ . __ . __ . __ . __ . __ . __ . __
 72
    65
 73
     4
 40
0.000440
 49
0.000220
 49
-0.000110
 49
0.000000
 49
-0.000110
  0
LTYPE
  2
BORDER
 70
    64
  3
__ __ . __ __ . __ __ . __ __ . __ __ . __ __
 72
    65
 73
     6
 40
0.000770
 49
0.000220
 49
-0.000110
 49
0.000220
 49
-0.000110
 49
0.000000
 49
-0.000110
  0
LTYPE
  2
DIVIDE
 70
    64
  3
__ . . __ . . __ . . __ . . __ . . __ . . __
 72
    65
 73
     6
 40
0.000550
 49
0.000220
 49
-0.000110
 49
0.000000
 49
-0.000110
 49
0.000000
 49
-0.000110
  0
LTYPE
  2
DOTDOT
 70
    64
  3
 . .  . .  . .  . .  . .  . . 
 72
    65
 73
     5
 40
0.000242
 49
-0.000110
 49
0.000000
 49
-0.000110
 49
0.000000
 49
-0.000110
  0
ENDTAB
  0
TABLE
  2
STYLE
 70
     2
  0
STYLE
 70
     0
  2
SN0
 40
0.000000
 41
0.000440
 50
0.000000
 71
     0
 42
0.000000
  3
ROMAND
  0
STYLE
 70
    68
  2
SV0
 40
0.000000
 41
0.000440
 50
0.000000
 71
     0
 42
0.000000
  3
ROMAND
  0
ENDTAB
  0
TABLE
  2
LAYER
 70
     3
  0
LAYER
  2
FOREGROUND
 70
    64
 62
     7
  6
CONTINUOUS
  0
LAYER
  2
BACKGROUND
 70
    65
 62
    -7
  6
CONTINUOUS
  0
LAYER
  2
0
 70
    64
 62
     7
  6
CONTINUOUS
  0
ENDTAB
  0
ENDSEC
  0
SECTION
  2
ENTITIES
  0
POLYLINE
  8
FOREGROUND
  6
CONTINUOUS
 66
     1
 40
0.000000
 41
0.000000
  0
VERTEX
  8
FOREGROUND
  6
CONTINUOUS
 10
0.000000
 20
8.277280
  0
VERTEX
  8
FOREGROUND
  6
CONTINUOUS
 10
8.499920
 20
8.277280
  0
VERTEX
  8
FOREGROUND
  6
CONTINUOUS
 10
8.499920
 20
-2.722720
  0
VERTEX
  8
FOREGROUND
  6
CONTINUOUS
 10
0.000000
 20
-2.722720
  0
VERTEX
  8
FOREGROUND
  6
CONTINUOUS
 10
0.000000
 20
8.277280
  0
SEQEND
  8
0
  0
POLYLINE
  8
FOREGROUND
  6
CONTINUOUS
 66
     1
 40
0.000000
 41
0.000000
  0
VERTEX
  8
FOREGROUND
  6
CONTINUOUS
 10
0.000000
 20
8.277280
  0
VERTEX
  8
FOREGROUND
  6
CONTINUOUS
 10
8.499920
 20
8.277280
  0
VERTEX
  8
FOREGROUND
  6
CONTINUOUS
 10
8.499920
 20
-2.722720
  0
VERTEX
  8
FOREGROUND
  6
CONTINUOUS
 10
0.000000
 20
-2.722720
  0
VERTEX
  8
FOREGROUND
  6
CONTINUOUS
 10
0.000000
 20
8.277280
  0
SEQEND
  8
0
  0
POLYLINE
  8
0
  6
CONTINUOUS
 66
     1
 40
0.014080
 41
0.014080
  0
VERTEX
  8
0
  6
CONTINUOUS
 10
3.346640
 20
5.069240
  0
VERTEX
  8
0
  6
CONTINUOUS
 10
3.594800
 20
5.069240
  0
VERTEX
  8
0
  6
CONTINUOUS
 10
3.594800
 20
4.704920
  0
VERTEX
  8
0
  6
CONTINUOUS
 10
3.346640
 20
4.704920
  0
VERTEX
  8
0
  6
CONTINUOUS
 10
3.346640
 20
2.735920
  0
VERTEX
  8
0
  6
CONTINUOUS
 10
3.449160
 20
2.753960
  0
VERTEX
  8
0
  6
CONTINUOUS
 10
3.542440
 20
2.765400
  0
VERTEX
  8
0
  6
CONTINUOUS
 10
3.627360
 20
2.772000
  0
VERTEX
  8
0
  6
CONTINUOUS
 10
3.705680
 20
2.773320
  0
VERTEX
  8
0
  6
CONTINUOUS
 10
3.777840
 20
2.770240
  0
VERTEX
  8
0
  6
CONTINUOUS
 10
3.844720
 20
2.763640
  0
VERTEX
  8
0
  6
CONTINUOUS
 10
3.928320
 20
2.750440
  0
VERTEX
  8
0
  6
CONTINUOUS
 10
4.007080
 20
2.732840
  0
VERTEX
  8
0
  6
CONTINUOUS
 10
4.239400
 20
2.670360
  0
VERTEX
  8
0
  6
CONTINUOUS
 10
4.368320
 20
2.642640
  0
VERTEX
  8
0
  6
CONTINUOUS
 10
4.464680
 20
2.628560
  0
VERTEX
  8
0
  6
CONTINUOUS
 10
4.543880
 20
2.621520
  0
VERTEX
  8
0
  6
CONTINUOUS
 10
4.630560
 20
2.618000
  0
VERTEX
  8
0
  6
CONTINUOUS
 10
4.725600
 20
2.618880
  0
VERTEX
  8
0
  6
CONTINUOUS
 10
4.829440
 20
2.624160
  0
VERTEX
  8
0
  6
CONTINUOUS
 10
4.943840
 20
2.635160
  0
VERTEX
  8
0
  6
CONTINUOUS
 10
4.984320
 20
2.640000
  0
VERTEX
  8
0
  6
CONTINUOUS
 10
4.984320
 20
4.088040
  0
VERTEX
  8
0
  6
CONTINUOUS
 10
4.488440
 20
4.088040
  0
VERTEX
  8
0
  6
CONTINUOUS
 10
4.488440
 20
5.594160
  0
VERTEX
  8
0
  6
CONTINUOUS
 10
4.757720
 20
5.594600
  0
VERTEX
  8
0
  6
CONTINUOUS
 10
4.781920
 20
5.597240
  0
VERTEX
  8
0
  6
CONTINUOUS
 10
4.817120
 20
5.605600
  0
VERTEX
  8
0
  6
CONTINUOUS
 10
4.839560
 20
5.614400
  0
VERTEX
  8
0
  6
CONTINUOUS
 10
4.860240
 20
5.624960
  0
VERTEX
  8
0
  6
CONTINUOUS
 10
4.880040
 20
5.637720
  0
VERTEX
  8
0
  6
CONTINUOUS
 10
4.898520
 20
5.652240
  0
VERTEX
  8
0
  6
CONTINUOUS
 10
4.915240
 20
5.668520
  0
VERTEX
  8
0
  6
CONTINUOUS
 10
4.930640
 20
5.686560
  0
VERTEX
  8
0
  6
CONTINUOUS
 10
4.944280
 20
5.705920
  0
VERTEX
  8
0
  6
CONTINUOUS
 10
4.956160
 20
5.726600
  0
VERTEX
  8
0
  6
CONTINUOUS
 10
4.965840
 20
5.748160
  0
VERTEX
  8
0
  6
CONTINUOUS
 10
4.973760
 20
5.771040
  0
VERTEX
  8
0
  6
CONTINUOUS
 10
4.979480
 20
5.794800
  0
VERTEX
  8
0
  6
CONTINUOUS
 10
4.983000
 20
5.819440
  0
VERTEX
  8
0
  6
CONTINUOUS
 10
4.984320
 20
5.846280
  0
VERTEX
  8
0
  6
CONTINUOUS
 10
4.984320
 20
6.279680
  0
VERTEX
  8
0
  6
CONTINUOUS
 10
4.983440
 20
6.321480
  0
VERTEX
  8
0
  6
CONTINUOUS
 10
4.979920
 20
6.362840
  0
VERTEX
  8
0
  6
CONTINUOUS
 10
4.974640
 20
6.403320
  0
VERTEX
  8
0
  6
CONTINUOUS
 10
4.967600
 20
6.443360
  0
VERTEX
  8
0
  6
CONTINUOUS
 10
4.958360
 20
6.482520
  0
VERTEX
  8
0
  6
CONTINUOUS
 10
4.947360
 20
6.521240
  0
VERTEX
  8
0
  6
CONTINUOUS
 10
4.934600
 20
6.559080
  0
VERTEX
  8
0
  6
CONTINUOUS
 10
4.903360
 20
6.632560
  0
VERTEX
  8
0
  6
CONTINUOUS
 10
4.885320
 20
6.667760
  0
VERTEX
  8
0
  6
CONTINUOUS
 10
4.843960
 20
6.735080
  0
VERTEX
  8
0
  6
CONTINUOUS
 10
4.796880
 20
6.798000
  0
VERTEX
  8
0
  6
CONTINUOUS
 10
4.744080
 20
6.856080
  0
VERTEX
  8
0
  6
CONTINUOUS
 10
4.686000
 20
6.908880
  0
VERTEX
  8
0
  6
CONTINUOUS
 10
4.623080
 20
6.955960
  0
VERTEX
  8
0
  6
CONTINUOUS
 10
4.555760
 20
6.997320
  0
VERTEX
  8
0
  6
CONTINUOUS
 10
4.520560
 20
7.015360
  0
VERTEX
  8
0
  6
CONTINUOUS
 10
4.447080
 20
7.046600
  0
VERTEX
  8
0
  6
CONTINUOUS
 10
4.409240
 20
7.059360
  0
VERTEX
  8
0
  6
CONTINUOUS
 10
4.370520
 20
7.070360
  0
VERTEX
  8
0
  6
CONTINUOUS
 10
4.331360
 20
7.079600
  0
VERTEX
  8
0
  6
CONTINUOUS
 10
4.291320
 20
7.086640
  0
VERTEX
  8
0
  6
CONTINUOUS
 10
4.250840
 20
7.091920
  0
VERTEX
  8
0
  6
CONTINUOUS
 10
4.209480
 20
7.095440
  0
VERTEX
  8
0
  6
CONTINUOUS
 10
4.167680
 20
7.096320
  0
VERTEX
  8
0
  6
CONTINUOUS
 10
4.125880
 20
7.095440
  0
VERTEX
  8
0
  6
CONTINUOUS
 10
4.084520
 20
7.091920
  0
VERTEX
  8
0
  6
CONTINUOUS
 10
4.044040
 20
7.086640
  0
VERTEX
  8
0
  6
CONTINUOUS
 10
4.004000
 20
7.079160
  0
VERTEX
  8
0
  6
CONTINUOUS
 10
3.964400
 20
7.069920
  0
VERTEX
  8
0
  6
CONTINUOUS
 10
3.925680
 20
7.058920
  0
VERTEX
  8
0
  6
CONTINUOUS
 10
3.887840
 20
7.045720
  0
VERTEX
  8
0
  6
CONTINUOUS
 10
3.850880
 20
7.030760
  0
VERTEX
  8
0
  6
CONTINUOUS
 10
3.814360
 20
7.014040
  0
VERTEX
  8
0
  6
CONTINUOUS
 10
3.744840
 20
6.975760
  0
VERTEX
  8
0
  6
CONTINUOUS
 10
3.711840
 20
6.954200
  0
VERTEX
  8
0
  6
CONTINUOUS
 10
3.648480
 20
6.906240
  0
VERTEX
  8
0
  6
CONTINUOUS
 10
3.590400
 20
6.853000
  0
VERTEX
  8
0
  6
CONTINUOUS
 10
3.537160
 20
6.794040
  0
VERTEX
  8
0
  6
CONTINUOUS
 10
3.489640
 20
6.730680
  0
VERTEX
  8
0
  6
CONTINUOUS
 10
3.448720
 20
6.662920
  0
VERTEX
  8
0
  6
CONTINUOUS
 10
3.430240
 20
6.627280
  0
VERTEX
  8
0
  6
CONTINUOUS
 10
3.399000
 20
6.553800
  0
VERTEX
  8
0
  6
CONTINUOUS
 10
3.374800
 20
6.476800
  0
VERTEX
  8
0
  6
CONTINUOUS
 10
3.365560
 20
6.437640
  0
VERTEX
  8
0
  6
CONTINUOUS
 10
3.358520
 20
6.397160
  0
VERTEX
  8
0
  6
CONTINUOUS
 10
3.353240
 20
6.356680
  0
VERTEX
  8
0
  6
CONTINUOUS
 10
3.349720
 20
6.315320
  0
VERTEX
  8
0
  6
CONTINUOUS
 10
3.348840
 20
6.273520
  0
VERTEX
  8
0
  6
CONTINUOUS
 10
3.346640
 20
5.069240
  0
SEQEND
  8
0
  0
POLYLINE
  8
0
  6
CONTINUOUS
 66
     1
 40
0.014080
 41
0.014080
  0
VERTEX
  8
0
  6
CONTINUOUS
 10
5.004560
 20
2.411200
  0
VERTEX
  8
0
  6
CONTINUOUS
 10
5.004560
 20
1.446720
  0
VERTEX
  8
0
  6
CONTINUOUS
 10
3.362920
 20
1.446720
  0
VERTEX
  8
0
  6
CONTINUOUS
 10
3.362920
 20
2.504920
  0
VERTEX
  8
0
  6
CONTINUOUS
 10
3.465440
 20
2.522960
  0
VERTEX
  8
0
  6
CONTINUOUS
 10
3.558720
 20
2.534400
  0
VERTEX
  8
0
  6
CONTINUOUS
 10
3.643640
 20
2.541000
  0
VERTEX
  8
0
  6
CONTINUOUS
 10
3.721960
 20
2.542320
  0
VERTEX
  8
0
  6
CONTINUOUS
 10
3.794120
 20
2.539240
  0
VERTEX
  8
0
  6
CONTINUOUS
 10
3.861000
 20
2.532640
  0
VERTEX
  8
0
  6
CONTINUOUS
 10
3.944600
 20
2.519440
  0
VERTEX
  8
0
  6
CONTINUOUS
 10
4.023360
 20
2.501840
  0
VERTEX
  8
0
  6
CONTINUOUS
 10
4.255680
 20
2.439800
  0
VERTEX
  8
0
  6
CONTINUOUS
 10
4.339720
 20
2.420440
  0
VERTEX
  8
0
  6
CONTINUOUS
 10
4.431680
 20
2.404160
  0
VERTEX
  8
0
  6
CONTINUOUS
 10
4.532880
 20
2.392720
  0
VERTEX
  8
0
  6
CONTINUOUS
 10
4.616920
 20
2.388320
  0
VERTEX
  8
0
  6
CONTINUOUS
 10
4.677200
 20
2.387000
  0
VERTEX
  8
0
  6
CONTINUOUS
 10
4.775320
 20
2.389200
  0
VERTEX
  8
0
  6
CONTINUOUS
 10
4.882680
 20
2.396680
  0
VERTEX
  8
0
  6
CONTINUOUS
 10
5.000600
 20
2.409440
  0
VERTEX
  8
0
  6
CONTINUOUS
 10
5.004560
 20
2.411200
  0
SEQEND
  8
0
  0
SOLID
  8
0
 62
    15
 10
2.352240
 20
6.707360
 11
3.077800
 21
7.135480
 12
2.379960
 22
6.632560
 13
3.105520
 23
7.060240
  0
POLYLINE
  8
0
  6
CONTINUOUS
 66
     1
 40
0.000000
 41
0.000000
  0
VERTEX
  8
0
  6
CONTINUOUS
 10
2.352240
 20
6.707360
  0
VERTEX
  8
0
  6
CONTINUOUS
 10
3.077800
 20
7.135480
  0
VERTEX
  8
0
  6
CONTINUOUS
 10
3.105520
 20
7.060240
  0
VERTEX
  8
0
  6
CONTINUOUS
 10
2.379960
 20
6.632560
  0
VERTEX
  8
0
  6
CONTINUOUS
 10
2.352240
 20
6.707360
  0
SEQEND
  8
0
  0
SOLID
  8
0
 62
    15
 10
1.283480
 20
7.142080
 11
2.009040
 21
7.569760
 12
1.358280
 22
7.169800
 13
2.083840
 23
7.597920
  0
POLYLINE
  8
0
  6
CONTINUOUS
 66
     1
 40
0.000000
 41
0.000000
  0
VERTEX
  8
0
  6
CONTINUOUS
 10
1.283480
 20
7.142080
  0
VERTEX
  8
0
  6
CONTINUOUS
 10
2.009040
 20
7.569760
  0
VERTEX
  8
0
  6
CONTINUOUS
 10
2.083840
 20
7.597920
  0
VERTEX
  8
0
  6
CONTINUOUS
 10
1.358280
 20
7.169800
  0
VERTEX
  8
0
  6
CONTINUOUS
 10
1.283480
 20
7.142080
  0
SEQEND
  8
0
  0
SOLID
  8
0
 62
    15
 10
1.358280
 20
7.169800
 11
2.083840
 21
7.597920
 12
1.436600
 22
7.190480
 13
2.162160
 23
7.618600
  0
POLYLINE
  8
0
  6
CONTINUOUS
 66
     1
 40
0.000000
 41
0.000000
  0
VERTEX
  8
0
  6
CONTINUOUS
 10
1.358280
 20
7.169800
  0
VERTEX
  8
0
  6
CONTINUOUS
 10
2.083840
 20
7.597920
  0
VERTEX
  8
0
  6
CONTINUOUS
 10
2.162160
 20
7.618600
  0
VERTEX
  8
0
  6
CONTINUOUS
 10
1.436600
 20
7.190480
  0
VERTEX
  8
0
  6
CONTINUOUS
 10
1.358280
 20
7.169800
  0
SEQEND
  8
0
  0
SOLID
  8
0
 62
    15
 10
1.436600
 20
7.190480
 11
2.162160
 21
7.618600
 12
1.517560
 22
7.203240
 13
2.242680
 23
7.630920
  0
POLYLINE
  8
0
  6
CONTINUOUS
 66
     1
 40
0.000000
 41
0.000000
  0
VERTEX
  8
0
  6
CONTINUOUS
 10
1.436600
 20
7.190480
  0
VERTEX
  8
0
  6
CONTINUOUS
 10
2.162160
 20
7.618600
  0
VERTEX
  8
0
  6
CONTINUOUS
 10
2.242680
 20
7.630920
  0
VERTEX
  8
0
  6
CONTINUOUS
 10
1.517560
 20
7.203240
  0
VERTEX
  8
0
  6
CONTINUOUS
 10
1.436600
 20
7.190480
  0
SEQEND
  8
0
  0
SOLID
  8
0
 62
    15
 10
1.517560
 20
7.203240
 11
2.242680
 21
7.630920
 12
1.600280
 22
7.207640
 13
2.325840
 23
7.635320
  0
POLYLINE
  8
0
  6
CONTINUOUS
 66
     1
 40
0.000000
 41
0.000000
  0
VERTEX
  8
0
  6
CONTINUOUS
 10
1.517560
 20
7.203240
  0
VERTEX
  8
0
  6
CONTINUOUS
 10
2.242680
 20
7.630920
  0
VERTEX
  8
0
  6
CONTINUOUS
 10
2.325840
 20
7.635320
  0
VERTEX
  8
0
  6
CONTINUOUS
 10
1.600280
 20
7.207640
  0
VERTEX
  8
0
  6
CONTINUOUS
 10
1.517560
 20
7.203240
  0
SEQEND
  8
0
  0
SOLID
  8
0
 62
    15
 10
1.600280
 20
7.207640
 11
2.325840
 21
7.635320
 12
1.683440
 22
7.203240
 13
2.409000
 23
7.630920
  0
POLYLINE
  8
0
  6
CONTINUOUS
 66
     1
 40
0.000000
 41
0.000000
  0
VERTEX
  8
0
  6
CONTINUOUS
 10
1.600280
 20
7.207640
  0
VERTEX
  8
0
  6
CONTINUOUS
 10
2.325840
 20
7.635320
  0
VERTEX
  8
0
  6
CONTINUOUS
 10
2.409000
 20
7.630920
  0
VERTEX
  8
0
  6
CONTINUOUS
 10
1.683440
 20
7.203240
  0
VERTEX
  8
0
  6
CONTINUOUS
 10
1.600280
 20
7.207640
  0
SEQEND
  8
0
  0
SOLID
  8
0
 62
    15
 10
1.683440
 20
7.203240
 11
2.409000
 21
7.630920
 12
1.763960
 22
7.190920
 13
2.489520
 23
7.618600
  0
POLYLINE
  8
0
  6
CONTINUOUS
 66
     1
 40
0.000000
 41
0.000000
  0
VERTEX
  8
0
  6
CONTINUOUS
 10
1.683440
 20
7.203240
  0
VERTEX
  8
0
  6
CONTINUOUS
 10
2.409000
 20
7.630920
  0
VERTEX
  8
0
  6
CONTINUOUS
 10
2.489520
 20
7.618600
  0
VERTEX
  8
0
  6
CONTINUOUS
 10
1.763960
 20
7.190920
  0
VERTEX
  8
0
  6
CONTINUOUS
 10
1.683440
 20
7.203240
  0
SEQEND
  8
0
  0
SOLID
  8
0
 62
    15
 10
1.763960
 20
7.190920
 11
2.489520
 21
7.618600
 12
1.841840
 22
7.170680
 13
2.567400
 23
7.598360
  0
POLYLINE
  8
0
  6
CONTINUOUS
 66
     1
 40
0.000000
 41
0.000000
  0
VERTEX
  8
0
  6
CONTINUOUS
 10
1.763960
 20
7.190920
  0
VERTEX
  8
0
  6
CONTINUOUS
 10
2.489520
 20
7.618600
  0
VERTEX
  8
0
  6
CONTINUOUS
 10
2.567400
 20
7.598360
  0
VERTEX
  8
0
  6
CONTINUOUS
 10
1.841840
 20
7.170680
  0
VERTEX
  8
0
  6
CONTINUOUS
 10
1.763960
 20
7.190920
  0
SEQEND
  8
0
  0
SOLID
  8
0
 62
    15
 10
1.841840
 20
7.170680
 11
2.567400
 21
7.598360
 12
1.917080
 22
7.142960
 13
2.642640
 23
7.570640
  0
POLYLINE
  8
0
  6
CONTINUOUS
 66
     1
 40
0.000000
 41
0.000000
  0
VERTEX
  8
0
  6
CONTINUOUS
 10
1.841840
 20
7.170680
  0
VERTEX
  8
0
  6
CONTINUOUS
 10
2.567400
 20
7.598360
  0
VERTEX
  8
0
  6
CONTINUOUS
 10
2.642640
 20
7.570640
  0
VERTEX
  8
0
  6
CONTINUOUS
 10
1.917080
 20
7.142960
  0
VERTEX
  8
0
  6
CONTINUOUS
 10
1.841840
 20
7.170680
  0
SEQEND
  8
0
  0
SOLID
  8
0
 62
    15
 10
1.917080
 20
7.142960
 11
2.642640
 21
7.570640
 12
1.988360
 22
7.108200
 13
2.713920
 23
7.536320
  0
POLYLINE
  8
0
  6
CONTINUOUS
 66
     1
 40
0.000000
 41
0.000000
  0
VERTEX
  8
0
  6
CONTINUOUS
 10
1.917080
 20
7.142960
  0
VERTEX
  8
0
  6
CONTINUOUS
 10
2.642640
 20
7.570640
  0
VERTEX
  8
0
  6
CONTINUOUS
 10
2.713920
 20
7.536320
  0
VERTEX
  8
0
  6
CONTINUOUS
 10
1.988360
 20
7.108200
  0
VERTEX
  8
0
  6
CONTINUOUS
 10
1.917080
 20
7.142960
  0
SEQEND
  8
0
  0
SOLID
  8
0
 62
    15
 10
1.988360
 20
7.108200
 11
2.713920
 21
7.536320
 12
2.055680
 22
7.067280
 13
2.781240
 23
7.494960
  0
POLYLINE
  8
0
  6
CONTINUOUS
 66
     1
 40
0.000000
 41
0.000000
  0
VERTEX
  8
0
  6
CONTINUOUS
 10
1.988360
 20
7.108200
  0
VERTEX
  8
0
  6
CONTINUOUS
 10
2.713920
 20
7.536320
  0
VERTEX
  8
0
  6
CONTINUOUS
 10
2.781240
 20
7.494960
  0
VERTEX
  8
0
  6
CONTINUOUS
 10
2.055680
 20
7.067280
  0
VERTEX
  8
0
  6
CONTINUOUS
 10
1.988360
 20
7.108200
  0
SEQEND
  8
0
  0
SOLID
  8
0
 62
    15
 10
2.055680
 20
7.067280
 11
2.781240
 21
7.494960
 12
2.176680
 22
6.966960
 13
2.902240
 23
7.395080
  0
POLYLINE
  8
0
  6
CONTINUOUS
 66
     1
 40
0.000000
 41
0.000000
  0
VERTEX
  8
0
  6
CONTINUOUS
 10
2.055680
 20
7.067280
  0
VERTEX
  8
0
  6
CONTINUOUS
 10
2.781240
 20
7.494960
  0
VERTEX
  8
0
  6
CONTINUOUS
 10
2.902240
 20
7.395080
  0
VERTEX
  8
0
  6
CONTINUOUS
 10
2.176680
 20
6.966960
  0
VERTEX
  8
0
  6
CONTINUOUS
 10
2.055680
 20
7.067280
  0
SEQEND
  8
0
  0
SOLID
  8
0
 62
    15
 10
2.176680
 20
6.966960
 11
2.902240
 21
7.395080
 12
2.276560
 22
6.845960
 13
3.002120
 23
7.274080
  0
POLYLINE
  8
0
  6
CONTINUOUS
 66
     1
 40
0.000000
 41
0.000000
  0
VERTEX
  8
0
  6
CONTINUOUS
 10
2.176680
 20
6.966960
  0
VERTEX
  8
0
  6
CONTINUOUS
 10
2.902240
 20
7.395080
  0
VERTEX
  8
0
  6
CONTINUOUS
 10
3.002120
 20
7.274080
  0
VERTEX
  8
0
  6
CONTINUOUS
 10
2.276560
 20
6.845960
  0
VERTEX
  8
0
  6
CONTINUOUS
 10
2.176680
 20
6.966960
  0
SEQEND
  8
0
  0
SOLID
  8
0
 62
    15
 10
2.276560
 20
6.845960
 11
3.002120
 21
7.274080
 12
2.317920
 22
6.778640
 13
3.043480
 23
7.206760
  0
POLYLINE
  8
0
  6
CONTINUOUS
 66
     1
 40
0.000000
 41
0.000000
  0
VERTEX
  8
0
  6
CONTINUOUS
 10
2.276560
 20
6.845960
  0
VERTEX
  8
0
  6
CONTINUOUS
 10
3.002120
 20
7.274080
  0
VERTEX
  8
0
  6
CONTINUOUS
 10
3.043480
 20
7.206760
  0
VERTEX
  8
0
  6
CONTINUOUS
 10
2.317920
 20
6.778640
  0
VERTEX
  8
0
  6
CONTINUOUS
 10
2.276560
 20
6.845960
  0
SEQEND
  8
0
  0
SOLID
  8
0
 62
    15
 10
2.317920
 20
6.778640
 11
3.043480
 21
7.206760
 12
2.352240
 22
6.707360
 13
3.077800
 23
7.135480
  0
POLYLINE
  8
0
  6
CONTINUOUS
 66
     1
 40
0.000000
 41
0.000000
  0
VERTEX
  8
0
  6
CONTINUOUS
 10
2.317920
 20
6.778640
  0
VERTEX
  8
0
  6
CONTINUOUS
 10
3.043480
 20
7.206760
  0
VERTEX
  8
0
  6
CONTINUOUS
 10
3.077800
 20
7.135480
  0
VERTEX
  8
0
  6
CONTINUOUS
 10
2.352240
 20
6.707360
  0
VERTEX
  8
0
  6
CONTINUOUS
 10
2.317920
 20
6.778640
  0
SEQEND
  8
0
  0
SOLID
  8
0
 62
    15
 10
1.211760
 20
7.106880
 11
1.937320
 21
7.534560
 12
1.283480
 22
7.142080
 13
2.009040
 23
7.569760
  0
POLYLINE
  8
0
  6
CONTINUOUS
 66
     1
 40
0.000000
 41
0.000000
  0
VERTEX
  8
0
  6
CONTINUOUS
 10
1.211760
 20
7.106880
  0
VERTEX
  8
0
  6
CONTINUOUS
 10
1.937320
 20
7.534560
  0
VERTEX
  8
0
  6
CONTINUOUS
 10
2.009040
 20
7.569760
  0
VERTEX
  8
0
  6
CONTINUOUS
 10
1.283480
 20
7.142080
  0
VERTEX
  8
0
  6
CONTINUOUS
 10
1.211760
 20
7.106880
  0
SEQEND
  8
0
  0
SOLID
  8
0
 62
    15
 10
2.379960
 20
6.632560
 11
3.105520
 21
7.060240
 12
2.400200
 22
6.554680
 13
3.125760
 23
6.982360
  0
POLYLINE
  8
0
  6
CONTINUOUS
 66
     1
 40
0.000000
 41
0.000000
  0
VERTEX
  8
0
  6
CONTINUOUS
 10
2.379960
 20
6.632560
  0
VERTEX
  8
0
  6
CONTINUOUS
 10
3.105520
 20
7.060240
  0
VERTEX
  8
0
  6
CONTINUOUS
 10
3.125760
 20
6.982360
  0
VERTEX
  8
0
  6
CONTINUOUS
 10
2.400200
 20
6.554680
  0
VERTEX
  8
0
  6
CONTINUOUS
 10
2.379960
 20
6.632560
  0
SEQEND
  8
0
  0
SOLID
  8
0
 62
    15
 10
2.400200
 20
6.554680
 11
3.125760
 21
6.982360
 12
2.412960
 22
6.473720
 13
3.138080
 23
6.901840
  0
POLYLINE
  8
0
  6
CONTINUOUS
 66
     1
 40
0.000000
 41
0.000000
  0
VERTEX
  8
0
  6
CONTINUOUS
 10
2.400200
 20
6.554680
  0
VERTEX
  8
0
  6
CONTINUOUS
 10
3.125760
 20
6.982360
  0
VERTEX
  8
0
  6
CONTINUOUS
 10
3.138080
 20
6.901840
  0
VERTEX
  8
0
  6
CONTINUOUS
 10
2.412960
 20
6.473720
  0
VERTEX
  8
0
  6
CONTINUOUS
 10
2.400200
 20
6.554680
  0
SEQEND
  8
0
  0
SOLID
  8
0
 62
    15
 10
2.412960
 20
6.473720
 11
3.138080
 21
6.901840
 12
2.416920
 22
6.391000
 13
3.142480
 23
6.818680
  0
POLYLINE
  8
0
  6
CONTINUOUS
 66
     1
 40
0.000000
 41
0.000000
  0
VERTEX
  8
0
  6
CONTINUOUS
 10
2.412960
 20
6.473720
  0
VERTEX
  8
0
  6
CONTINUOUS
 10
3.138080
 20
6.901840
  0
VERTEX
  8
0
  6
CONTINUOUS
 10
3.142480
 20
6.818680
  0
VERTEX
  8
0
  6
CONTINUOUS
 10
2.416920
 20
6.391000
  0
VERTEX
  8
0
  6
CONTINUOUS
 10
2.412960
 20
6.473720
  0
SEQEND
  8
0
  0
SOLID
  8
0
 62
    15
 10
2.416920
 20
6.391000
 11
3.142480
 21
6.818680
 12
2.416920
 22
6.386600
 13
3.142480
 23
6.814280
  0
POLYLINE
  8
0
  6
CONTINUOUS
 66
     1
 40
0.000000
 41
0.000000
  0
VERTEX
  8
0
  6
CONTINUOUS
 10
2.416920
 20
6.391000
  0
VERTEX
  8
0
  6
CONTINUOUS
 10
3.142480
 20
6.818680
  0
VERTEX
  8
0
  6
CONTINUOUS
 10
3.142480
 20
6.814280
  0
VERTEX
  8
0
  6
CONTINUOUS
 10
2.416920
 20
6.386600
  0
VERTEX
  8
0
  6
CONTINUOUS
 10
2.416920
 20
6.391000
  0
SEQEND
  8
0
  0
SOLID
  8
0
 62
    15
 10
1.921040
 20
5.705480
 11
2.646600
 21
6.133160
 12
1.921040
 22
4.198920
 13
2.646600
 23
4.627040
  0
POLYLINE
  8
0
  6
CONTINUOUS
 66
     1
 40
0.000000
 41
0.000000
  0
VERTEX
  8
0
  6
CONTINUOUS
 10
1.921040
 20
5.705480
  0
VERTEX
  8
0
  6
CONTINUOUS
 10
2.646600
 20
6.133160
  0
VERTEX
  8
0
  6
CONTINUOUS
 10
2.646600
 20
4.627040
  0
VERTEX
  8
0
  6
CONTINUOUS
 10
1.921040
 20
4.198920
  0
VERTEX
  8
0
  6
CONTINUOUS
 10
1.921040
 20
5.705480
  0
SEQEND
  8
0
  0
SOLID
  8
0
 62
    15
 10
2.416920
 20
5.955400
 11
3.142480
 21
6.383080
 12
2.412520
 22
5.905680
 13
3.137640
 23
6.333800
  0
POLYLINE
  8
0
  6
CONTINUOUS
 66
     1
 40
0.000000
 41
0.000000
  0
VERTEX
  8
0
  6
CONTINUOUS
 10
2.416920
 20
5.955400
  0
VERTEX
  8
0
  6
CONTINUOUS
 10
3.142480
 20
6.383080
  0
VERTEX
  8
0
  6
CONTINUOUS
 10
3.137640
 20
6.333800
  0
VERTEX
  8
0
  6
CONTINUOUS
 10
2.412520
 20
5.905680
  0
VERTEX
  8
0
  6
CONTINUOUS
 10
2.416920
 20
5.955400
  0
SEQEND
  8
0
  0
SOLID
  8
0
 62
    15
 10
2.412520
 20
5.905680
 11
3.137640
 21
6.333800
 12
2.398880
 22
5.859040
 13
3.124000
 23
6.287160
  0
POLYLINE
  8
0
  6
CONTINUOUS
 66
     1
 40
0.000000
 41
0.000000
  0
VERTEX
  8
0
  6
CONTINUOUS
 10
2.412520
 20
5.905680
  0
VERTEX
  8
0
  6
CONTINUOUS
 10
3.137640
 20
6.333800
  0
VERTEX
  8
0
  6
CONTINUOUS
 10
3.124000
 20
6.287160
  0
VERTEX
  8
0
  6
CONTINUOUS
 10
2.398880
 20
5.859040
  0
VERTEX
  8
0
  6
CONTINUOUS
 10
2.412520
 20
5.905680
  0
SEQEND
  8
0
  0
SOLID
  8
0
 62
    15
 10
2.398880
 20
5.859040
 11
3.124000
 21
6.287160
 12
2.376880
 22
5.816800
 13
3.102440
 23
6.244480
  0
POLYLINE
  8
0
  6
CONTINUOUS
 66
     1
 40
0.000000
 41
0.000000
  0
VERTEX
  8
0
  6
CONTINUOUS
 10
2.398880
 20
5.859040
  0
VERTEX
  8
0
  6
CONTINUOUS
 10
3.124000
 20
6.287160
  0
VERTEX
  8
0
  6
CONTINUOUS
 10
3.102440
 20
6.244480
  0
VERTEX
  8
0
  6
CONTINUOUS
 10
2.376880
 20
5.816800
  0
VERTEX
  8
0
  6
CONTINUOUS
 10
2.398880
 20
5.859040
  0
SEQEND
  8
0
  0
SOLID
  8
0
 62
    15
 10
2.376880
 20
5.816800
 11
3.102440
 21
6.244480
 12
2.348280
 22
5.779400
 13
3.073400
 23
6.207520
  0
POLYLINE
  8
0
  6
CONTINUOUS
 66
     1
 40
0.000000
 41
0.000000
  0
VERTEX
  8
0
  6
CONTINUOUS
 10
2.376880
 20
5.816800
  0
VERTEX
  8
0
  6
CONTINUOUS
 10
3.102440
 20
6.244480
  0
VERTEX
  8
0
  6
CONTINUOUS
 10
3.073400
 20
6.207520
  0
VERTEX
  8
0
  6
CONTINUOUS
 10
2.348280
 20
5.779400
  0
VERTEX
  8
0
  6
CONTINUOUS
 10
2.376880
 20
5.816800
  0
SEQEND
  8
0
  0
SOLID
  8
0
 62
    15
 10
2.348280
 20
5.779400
 11
3.073400
 21
6.207520
 12
2.312640
 22
5.748600
 13
3.038200
 23
6.176720
  0
POLYLINE
  8
0
  6
CONTINUOUS
 66
     1
 40
0.000000
 41
0.000000
  0
VERTEX
  8
0
  6
CONTINUOUS
 10
2.348280
 20
5.779400
  0
VERTEX
  8
0
  6
CONTINUOUS
 10
3.073400
 20
6.207520
  0
VERTEX
  8
0
  6
CONTINUOUS
 10
3.038200
 20
6.176720
  0
VERTEX
  8
0
  6
CONTINUOUS
 10
2.312640
 20
5.748600
  0
VERTEX
  8
0
  6
CONTINUOUS
 10
2.348280
 20
5.779400
  0
SEQEND
  8
0
  0
SOLID
  8
0
 62
    15
 10
2.416920
 20
6.386600
 11
3.142480
 21
6.814280
 12
2.416920
 22
5.955400
 13
3.142480
 23
6.383080
  0
POLYLINE
  8
0
  6
CONTINUOUS
 66
     1
 40
0.000000
 41
0.000000
  0
VERTEX
  8
0
  6
CONTINUOUS
 10
2.416920
 20
6.386600
  0
VERTEX
  8
0
  6
CONTINUOUS
 10
3.142480
 20
6.814280
  0
VERTEX
  8
0
  6
CONTINUOUS
 10
3.142480
 20
6.383080
  0
VERTEX
  8
0
  6
CONTINUOUS
 10
2.416920
 20
5.955400
  0
VERTEX
  8
0
  6
CONTINUOUS
 10
2.416920
 20
6.386600
  0
SEQEND
  8
0
  0
SOLID
  8
0
 62
    15
 10
1.921040
 20
4.198920
 11
2.646600
 21
4.627040
 12
2.416920
 22
4.198920
 13
3.142480
 23
4.627040
  0
POLYLINE
  8
0
  6
CONTINUOUS
 66
     1
 40
0.000000
 41
0.000000
  0
VERTEX
  8
0
  6
CONTINUOUS
 10
1.921040
 20
4.198920
  0
VERTEX
  8
0
  6
CONTINUOUS
 10
2.646600
 20
4.627040
  0
VERTEX
  8
0
  6
CONTINUOUS
 10
3.142480
 20
4.627040
  0
VERTEX
  8
0
  6
CONTINUOUS
 10
2.416920
 20
4.198920
  0
VERTEX
  8
0
  6
CONTINUOUS
 10
1.921040
 20
4.198920
  0
SEQEND
  8
0
  0
SOLID
  8
0
 62
    15
 10
2.416920
 20
4.198920
 11
3.142480
 21
4.627040
 12
2.416920
 22
2.751320
 13
3.142480
 23
3.179000
  0
POLYLINE
  8
0
  6
CONTINUOUS
 66
     1
 40
0.000000
 41
0.000000
  0
VERTEX
  8
0
  6
CONTINUOUS
 10
2.416920
 20
4.198920
  0
VERTEX
  8
0
  6
CONTINUOUS
 10
3.142480
 20
4.627040
  0
VERTEX
  8
0
  6
CONTINUOUS
 10
3.142480
 20
3.179000
  0
VERTEX
  8
0
  6
CONTINUOUS
 10
2.416920
 20
2.751320
  0
VERTEX
  8
0
  6
CONTINUOUS
 10
2.416920
 20
4.198920
  0
SEQEND
  8
0
  0
SOLID
  8
0
 62
    15
 10
0.779680
 20
4.815800
 11
1.505240
 21
5.243480
 12
1.027400
 22
4.815800
 13
1.752960
 23
5.243480
  0
POLYLINE
  8
0
  6
CONTINUOUS
 66
     1
 40
0.000000
 41
0.000000
  0
VERTEX
  8
0
  6
CONTINUOUS
 10
0.779680
 20
4.815800
  0
VERTEX
  8
0
  6
CONTINUOUS
 10
1.505240
 20
5.243480
  0
VERTEX
  8
0
  6
CONTINUOUS
 10
1.752960
 20
5.243480
  0
VERTEX
  8
0
  6
CONTINUOUS
 10
1.027400
 20
4.815800
  0
VERTEX
  8
0
  6
CONTINUOUS
 10
0.779680
 20
4.815800
  0
SEQEND
  8
0
  0
POLYLINE
  8
0
  6
CONTINUOUS
 66
     1
 40
0.000000
 41
0.000000
  0
VERTEX
  8
0
  6
CONTINUOUS
 10
0.779680
 20
5.195080
  0
VERTEX
  8
0
  6
CONTINUOUS
 10
0.781880
 20
6.384400
  0
VERTEX
  8
0
  6
CONTINUOUS
 10
0.785840
 20
6.467560
  0
VERTEX
  8
0
  6
CONTINUOUS
 10
0.798600
 20
6.548520
  0
VERTEX
  8
0
  6
CONTINUOUS
 10
0.818840
 20
6.626840
  0
VERTEX
  8
0
  6
CONTINUOUS
 10
0.846560
 20
6.702080
  0
VERTEX
  8
0
  6
CONTINUOUS
 10
0.881320
 20
6.773800
  0
VERTEX
  8
0
  6
CONTINUOUS
 10
0.922680
 20
6.842000
  0
VERTEX
  8
0
  6
CONTINUOUS
 10
1.023000
 20
6.963880
  0
VERTEX
  8
0
  6
CONTINUOUS
 10
1.144440
 20
7.065080
  0
VERTEX
  8
0
  6
CONTINUOUS
 10
1.211760
 20
7.106880
  0
VERTEX
  8
0
  6
CONTINUOUS
 10
1.283480
 20
7.142080
  0
VERTEX
  8
0
  6
CONTINUOUS
 10
1.358280
 20
7.169800
  0
VERTEX
  8
0
  6
CONTINUOUS
 10
1.436600
 20
7.190480
  0
VERTEX
  8
0
  6
CONTINUOUS
 10
1.517560
 20
7.203240
  0
VERTEX
  8
0
  6
CONTINUOUS
 10
1.600280
 20
7.207640
  0
VERTEX
  8
0
  6
CONTINUOUS
 10
1.683440
 20
7.203240
  0
VERTEX
  8
0
  6
CONTINUOUS
 10
1.763960
 20
7.190920
  0
VERTEX
  8
0
  6
CONTINUOUS
 10
1.841840
 20
7.170680
  0
VERTEX
  8
0
  6
CONTINUOUS
 10
1.917080
 20
7.142960
  0
VERTEX
  8
0
  6
CONTINUOUS
 10
1.988360
 20
7.108200
  0
VERTEX
  8
0
  6
CONTINUOUS
 10
2.055680
 20
7.067280
  0
VERTEX
  8
0
  6
CONTINUOUS
 10
2.176680
 20
6.966960
  0
VERTEX
  8
0
  6
CONTINUOUS
 10
2.276560
 20
6.845960
  0
VERTEX
  8
0
  6
CONTINUOUS
 10
2.317920
 20
6.778640
  0
VERTEX
  8
0
  6
CONTINUOUS
 10
2.352240
 20
6.707360
  0
VERTEX
  8
0
  6
CONTINUOUS
 10
2.379960
 20
6.632560
  0
VERTEX
  8
0
  6
CONTINUOUS
 10
2.400200
 20
6.554680
  0
VERTEX
  8
0
  6
CONTINUOUS
 10
2.412960
 20
6.473720
  0
VERTEX
  8
0
  6
CONTINUOUS
 10
2.416920
 20
6.386600
  0
VERTEX
  8
0
  6
CONTINUOUS
 10
2.416920
 20
5.955400
  0
VERTEX
  8
0
  6
CONTINUOUS
 10
2.412520
 20
5.905680
  0
VERTEX
  8
0
  6
CONTINUOUS
 10
2.398880
 20
5.859040
  0
VERTEX
  8
0
  6
CONTINUOUS
 10
2.376880
 20
5.816800
  0
VERTEX
  8
0
  6
CONTINUOUS
 10
2.348280
 20
5.779400
  0
VERTEX
  8
0
  6
CONTINUOUS
 10
2.312640
 20
5.748600
  0
VERTEX
  8
0
  6
CONTINUOUS
 10
2.272160
 20
5.725280
  0
VERTEX
  8
0
  6
CONTINUOUS
 10
2.226840
 20
5.710760
  0
VERTEX
  8
0
  6
CONTINUOUS
 10
2.177560
 20
5.705480
  0
VERTEX
  8
0
  6
CONTINUOUS
 10
1.921040
 20
5.705480
  0
VERTEX
  8
0
  6
CONTINUOUS
 10
1.921040
 20
4.198920
  0
VERTEX
  8
0
  6
CONTINUOUS
 10
2.416920
 20
4.198920
  0
VERTEX
  8
0
  6
CONTINUOUS
 10
2.416920
 20
2.751320
  0
VERTEX
  8
0
  6
CONTINUOUS
 10
2.262040
 20
2.735480
  0
VERTEX
  8
0
  6
CONTINUOUS
 10
2.125640
 20
2.729320
  0
VERTEX
  8
0
  6
CONTINUOUS
 10
2.004640
 20
2.731080
  0
VERTEX
  8
0
  6
CONTINUOUS
 10
1.897720
 20
2.739880
  0
VERTEX
  8
0
  6
CONTINUOUS
 10
1.801360
 20
2.753960
  0
VERTEX
  8
0
  6
CONTINUOUS
 10
1.713800
 20
2.771560
  0
VERTEX
  8
0
  6
CONTINUOUS
 10
1.400960
 20
2.852960
  0
VERTEX
  8
0
  6
CONTINUOUS
 10
1.233320
 20
2.879800
  0
VERTEX
  8
0
  6
CONTINUOUS
 10
1.138280
 20
2.884200
  0
VERTEX
  8
0
  6
CONTINUOUS
 10
1.032680
 20
2.881560
  0
VERTEX
  8
0
  6
CONTINUOUS
 10
0.913880
 20
2.869680
  0
VERTEX
  8
0
  6
CONTINUOUS
 10
0.779680
 20
2.847240
  0
VERTEX
  8
0
  6
CONTINUOUS
 10
0.779680
 20
4.815800
  0
VERTEX
  8
0
  6
CONTINUOUS
 10
1.027400
 20
4.815800
  0
VERTEX
  8
0
  6
CONTINUOUS
 10
1.027400
 20
5.180560
  0
VERTEX
  8
0
  6
CONTINUOUS
 10
0.779680
 20
5.180560
  0
VERTEX
  8
0
  6
CONTINUOUS
 10
0.779680
 20
5.195080
  0
SEQEND
  8
0
  0
SOLID
  8
0
 62
    15
 10
1.583560
 20
2.205720
 11
2.219800
 21
2.574880
 12
1.623160
 22
2.194720
 13
2.258960
 23
2.564320
  0
POLYLINE
  8
0
  6
CONTINUOUS
 66
     1
 40
0.000000
 41
0.000000
  0
VERTEX
  8
0
  6
CONTINUOUS
 10
1.583560
 20
2.205720
  0
VERTEX
  8
0
  6
CONTINUOUS
 10
2.219800
 20
2.574880
  0
VERTEX
  8
0
  6
CONTINUOUS
 10
2.258960
 20
2.564320
  0
VERTEX
  8
0
  6
CONTINUOUS
 10
1.623160
 20
2.194720
  0
VERTEX
  8
0
  6
CONTINUOUS
 10
1.583560
 20
2.205720
  0
SEQEND
  8
0
  0
SOLID
  8
0
 62
    15
 10
0.770440
 20
2.250160
 11
1.406240
 21
2.619320
 12
0.904640
 22
2.272600
 13
1.540880
 23
2.641760
  0
POLYLINE
  8
0
  6
CONTINUOUS
 66
     1
 40
0.000000
 41
0.000000
  0
VERTEX
  8
0
  6
CONTINUOUS
 10
0.770440
 20
2.250160
  0
VERTEX
  8
0
  6
CONTINUOUS
 10
1.406240
 20
2.619320
  0
VERTEX
  8
0
  6
CONTINUOUS
 10
1.540880
 20
2.641760
  0
VERTEX
  8
0
  6
CONTINUOUS
 10
0.904640
 20
2.272600
  0
VERTEX
  8
0
  6
CONTINUOUS
 10
0.770440
 20
2.250160
  0
SEQEND
  8
0
  0
SOLID
  8
0
 62
    15
 10
0.904640
 20
2.272600
 11
1.540880
 21
2.641760
 12
1.023440
 22
2.284480
 13
1.659680
 23
2.653640
  0
POLYLINE
  8
0
  6
CONTINUOUS
 66
     1
 40
0.000000
 41
0.000000
  0
VERTEX
  8
0
  6
CONTINUOUS
 10
0.904640
 20
2.272600
  0
VERTEX
  8
0
  6
CONTINUOUS
 10
1.540880
 20
2.641760
  0
VERTEX
  8
0
  6
CONTINUOUS
 10
1.659680
 20
2.653640
  0
VERTEX
  8
0
  6
CONTINUOUS
 10
1.023440
 20
2.284480
  0
VERTEX
  8
0
  6
CONTINUOUS
 10
0.904640
 20
2.272600
  0
SEQEND
  8
0
  0
SOLID
  8
0
 62
    15
 10
1.023440
 20
2.284480
 11
1.659680
 21
2.653640
 12
1.129040
 22
2.287120
 13
1.765280
 23
2.656720
  0
POLYLINE
  8
0
  6
CONTINUOUS
 66
     1
 40
0.000000
 41
0.000000
  0
VERTEX
  8
0
  6
CONTINUOUS
 10
1.023440
 20
2.284480
  0
VERTEX
  8
0
  6
CONTINUOUS
 10
1.659680
 20
2.653640
  0
VERTEX
  8
0
  6
CONTINUOUS
 10
1.765280
 20
2.656720
  0
VERTEX
  8
0
  6
CONTINUOUS
 10
1.129040
 20
2.287120
  0
VERTEX
  8
0
  6
CONTINUOUS
 10
1.023440
 20
2.284480
  0
SEQEND
  8
0
  0
SOLID
  8
0
 62
    15
 10
1.129040
 20
2.287120
 11
1.765280
 21
2.656720
 12
1.224080
 22
2.282720
 13
1.860320
 23
2.651880
  0
POLYLINE
  8
0
  6
CONTINUOUS
 66
     1
 40
0.000000
 41
0.000000
  0
VERTEX
  8
0
  6
CONTINUOUS
 10
1.129040
 20
2.287120
  0
VERTEX
  8
0
  6
CONTINUOUS
 10
1.765280
 20
2.656720
  0
VERTEX
  8
0
  6
CONTINUOUS
 10
1.860320
 20
2.651880
  0
VERTEX
  8
0
  6
CONTINUOUS
 10
1.224080
 20
2.282720
  0
VERTEX
  8
0
  6
CONTINUOUS
 10
1.129040
 20
2.287120
  0
SEQEND
  8
0
  0
SOLID
  8
0
 62
    15
 10
1.224080
 20
2.282720
 11
1.860320
 21
2.651880
 12
1.310760
 22
2.271720
 13
1.947000
 23
2.640880
  0
POLYLINE
  8
0
  6
CONTINUOUS
 66
     1
 40
0.000000
 41
0.000000
  0
VERTEX
  8
0
  6
CONTINUOUS
 10
1.224080
 20
2.282720
  0
VERTEX
  8
0
  6
CONTINUOUS
 10
1.860320
 20
2.651880
  0
VERTEX
  8
0
  6
CONTINUOUS
 10
1.947000
 20
2.640880
  0
VERTEX
  8
0
  6
CONTINUOUS
 10
1.310760
 20
2.271720
  0
VERTEX
  8
0
  6
CONTINUOUS
 10
1.224080
 20
2.282720
  0
SEQEND
  8
0
  0
SOLID
  8
0
 62
    15
 10
1.310760
 20
2.271720
 11
1.947000
 21
2.640880
 12
1.391720
 22
2.255880
 13
2.027960
 23
2.625480
  0
POLYLINE
  8
0
  6
CONTINUOUS
 66
     1
 40
0.000000
 41
0.000000
  0
VERTEX
  8
0
  6
CONTINUOUS
 10
1.310760
 20
2.271720
  0
VERTEX
  8
0
  6
CONTINUOUS
 10
1.947000
 20
2.640880
  0
VERTEX
  8
0
  6
CONTINUOUS
 10
2.027960
 20
2.625480
  0
VERTEX
  8
0
  6
CONTINUOUS
 10
1.391720
 20
2.255880
  0
VERTEX
  8
0
  6
CONTINUOUS
 10
1.310760
 20
2.271720
  0
SEQEND
  8
0
  0
SOLID
  8
0
 62
    15
 10
1.391720
 20
2.255880
 11
2.027960
 21
2.625480
 12
1.545280
 22
2.216280
 13
2.181520
 23
2.585440
  0
POLYLINE
  8
0
  6
CONTINUOUS
 66
     1
 40
0.000000
 41
0.000000
  0
VERTEX
  8
0
  6
CONTINUOUS
 10
1.391720
 20
2.255880
  0
VERTEX
  8
0
  6
CONTINUOUS
 10
2.027960
 20
2.625480
  0
VERTEX
  8
0
  6
CONTINUOUS
 10
2.181520
 20
2.585440
  0
VERTEX
  8
0
  6
CONTINUOUS
 10
1.545280
 20
2.216280
  0
VERTEX
  8
0
  6
CONTINUOUS
 10
1.391720
 20
2.255880
  0
SEQEND
  8
0
  0
SOLID
  8
0
 62
    15
 10
1.545280
 20
2.216280
 11
2.181520
 21
2.585440
 12
1.583560
 22
2.205720
 13
2.219800
 23
2.574880
  0
POLYLINE
  8
0
  6
CONTINUOUS
 66
     1
 40
0.000000
 41
0.000000
  0
VERTEX
  8
0
  6
CONTINUOUS
 10
1.545280
 20
2.216280
  0
VERTEX
  8
0
  6
CONTINUOUS
 10
2.181520
 20
2.585440
  0
VERTEX
  8
0
  6
CONTINUOUS
 10
2.219800
 20
2.574880
  0
VERTEX
  8
0
  6
CONTINUOUS
 10
1.583560
 20
2.205720
  0
VERTEX
  8
0
  6
CONTINUOUS
 10
1.545280
 20
2.216280
  0
SEQEND
  8
0
  0
SOLID
  8
0
 62
    15
 10
2.412080
 20
2.156440
 11
3.048320
 21
2.525600
 12
2.412080
 22
1.191520
 13
3.048320
 23
1.561120
  0
POLYLINE
  8
0
  6
CONTINUOUS
 66
     1
 40
0.000000
 41
0.000000
  0
VERTEX
  8
0
  6
CONTINUOUS
 10
2.412080
 20
2.156440
  0
VERTEX
  8
0
  6
CONTINUOUS
 10
3.048320
 20
2.525600
  0
VERTEX
  8
0
  6
CONTINUOUS
 10
3.048320
 20
1.561120
  0
VERTEX
  8
0
  6
CONTINUOUS
 10
2.412080
 20
1.191520
  0
VERTEX
  8
0
  6
CONTINUOUS
 10
2.412080
 20
2.156440
  0
SEQEND
  8
0
  0
SOLID
  8
0
 62
    15
 10
1.623160
 20
2.194720
 11
2.258960
 21
2.564320
 12
1.704560
 22
2.174480
 13
2.340360
 23
2.544080
  0
POLYLINE
  8
0
  6
CONTINUOUS
 66
     1
 40
0.000000
 41
0.000000
  0
VERTEX
  8
0
  6
CONTINUOUS
 10
1.623160
 20
2.194720
  0
VERTEX
  8
0
  6
CONTINUOUS
 10
2.258960
 20
2.564320
  0
VERTEX
  8
0
  6
CONTINUOUS
 10
2.340360
 20
2.544080
  0
VERTEX
  8
0
  6
CONTINUOUS
 10
1.704560
 20
2.174480
  0
VERTEX
  8
0
  6
CONTINUOUS
 10
1.623160
 20
2.194720
  0
SEQEND
  8
0
  0
SOLID
  8
0
 62
    15
 10
1.704560
 20
2.174480
 11
2.340360
 21
2.544080
 12
1.792120
 22
2.156880
 13
2.428360
 23
2.526040
  0
POLYLINE
  8
0
  6
CONTINUOUS
 66
     1
 40
0.000000
 41
0.000000
  0
VERTEX
  8
0
  6
CONTINUOUS
 10
1.704560
 20
2.174480
  0
VERTEX
  8
0
  6
CONTINUOUS
 10
2.340360
 20
2.544080
  0
VERTEX
  8
0
  6
CONTINUOUS
 10
2.428360
 20
2.526040
  0
VERTEX
  8
0
  6
CONTINUOUS
 10
1.792120
 20
2.156880
  0
VERTEX
  8
0
  6
CONTINUOUS
 10
1.704560
 20
2.174480
  0
SEQEND
  8
0
  0
SOLID
  8
0
 62
    15
 10
1.792120
 20
2.156880
 11
2.428360
 21
2.526040
 12
1.888480
 22
2.142800
 13
2.524280
 23
2.512400
  0
POLYLINE
  8
0
  6
CONTINUOUS
 66
     1
 40
0.000000
 41
0.000000
  0
VERTEX
  8
0
  6
CONTINUOUS
 10
1.792120
 20
2.156880
  0
VERTEX
  8
0
  6
CONTINUOUS
 10
2.428360
 20
2.526040
  0
VERTEX
  8
0
  6
CONTINUOUS
 10
2.524280
 20
2.512400
  0
VERTEX
  8
0
  6
CONTINUOUS
 10
1.888480
 20
2.142800
  0
VERTEX
  8
0
  6
CONTINUOUS
 10
1.792120
 20
2.156880
  0
SEQEND
  8
0
  0
SOLID
  8
0
 62
    15
 10
1.888480
 20
2.142800
 11
2.524280
 21
2.512400
 12
1.995400
 22
2.134000
 13
2.631640
 23
2.503600
  0
POLYLINE
  8
0
  6
CONTINUOUS
 66
     1
 40
0.000000
 41
0.000000
  0
VERTEX
  8
0
  6
CONTINUOUS
 10
1.888480
 20
2.142800
  0
VERTEX
  8
0
  6
CONTINUOUS
 10
2.524280
 20
2.512400
  0
VERTEX
  8
0
  6
CONTINUOUS
 10
2.631640
 20
2.503600
  0
VERTEX
  8
0
  6
CONTINUOUS
 10
1.995400
 20
2.134000
  0
VERTEX
  8
0
  6
CONTINUOUS
 10
1.888480
 20
2.142800
  0
SEQEND
  8
0
  0
SOLID
  8
0
 62
    15
 10
1.995400
 20
2.134000
 11
2.631640
 21
2.503600
 12
2.116400
 22
2.132240
 13
2.752640
 23
2.501400
  0
POLYLINE
  8
0
  6
CONTINUOUS
 66
     1
 40
0.000000
 41
0.000000
  0
VERTEX
  8
0
  6
CONTINUOUS
 10
1.995400
 20
2.134000
  0
VERTEX
  8
0
  6
CONTINUOUS
 10
2.631640
 20
2.503600
  0
VERTEX
  8
0
  6
CONTINUOUS
 10
2.752640
 20
2.501400
  0
VERTEX
  8
0
  6
CONTINUOUS
 10
2.116400
 20
2.132240
  0
VERTEX
  8
0
  6
CONTINUOUS
 10
1.995400
 20
2.134000
  0
SEQEND
  8
0
  0
SOLID
  8
0
 62
    15
 10
2.116400
 20
2.132240
 11
2.752640
 21
2.501400
 12
2.252800
 22
2.138400
 13
2.889040
 23
2.508000
  0
POLYLINE
  8
0
  6
CONTINUOUS
 66
     1
 40
0.000000
 41
0.000000
  0
VERTEX
  8
0
  6
CONTINUOUS
 10
2.116400
 20
2.132240
  0
VERTEX
  8
0
  6
CONTINUOUS
 10
2.752640
 20
2.501400
  0
VERTEX
  8
0
  6
CONTINUOUS
 10
2.889040
 20
2.508000
  0
VERTEX
  8
0
  6
CONTINUOUS
 10
2.252800
 20
2.138400
  0
VERTEX
  8
0
  6
CONTINUOUS
 10
2.116400
 20
2.132240
  0
SEQEND
  8
0
  0
SOLID
  8
0
 62
    15
 10
2.252800
 20
2.138400
 11
2.889040
 21
2.508000
 12
2.328040
 22
2.145000
 13
2.963840
 23
2.514600
  0
POLYLINE
  8
0
  6
CONTINUOUS
 66
     1
 40
0.000000
 41
0.000000
  0
VERTEX
  8
0
  6
CONTINUOUS
 10
2.252800
 20
2.138400
  0
VERTEX
  8
0
  6
CONTINUOUS
 10
2.889040
 20
2.508000
  0
VERTEX
  8
0
  6
CONTINUOUS
 10
2.963840
 20
2.514600
  0
VERTEX
  8
0
  6
CONTINUOUS
 10
2.328040
 20
2.145000
  0
VERTEX
  8
0
  6
CONTINUOUS
 10
2.252800
 20
2.138400
  0
SEQEND
  8
0
  0
SOLID
  8
0
 62
    15
 10
2.328040
 20
2.145000
 11
2.963840
 21
2.514600
 12
2.407680
 22
2.154240
 13
3.043920
 23
2.523840
  0
POLYLINE
  8
0
  6
CONTINUOUS
 66
     1
 40
0.000000
 41
0.000000
  0
VERTEX
  8
0
  6
CONTINUOUS
 10
2.328040
 20
2.145000
  0
VERTEX
  8
0
  6
CONTINUOUS
 10
2.963840
 20
2.514600
  0
VERTEX
  8
0
  6
CONTINUOUS
 10
3.043920
 20
2.523840
  0
VERTEX
  8
0
  6
CONTINUOUS
 10
2.407680
 20
2.154240
  0
VERTEX
  8
0
  6
CONTINUOUS
 10
2.328040
 20
2.145000
  0
SEQEND
  8
0
  0
SOLID
  8
0
 62
    15
 10
2.407680
 20
2.154240
 11
3.043920
 21
2.523840
 12
2.412080
 22
2.156440
 13
3.048320
 23
2.525600
  0
POLYLINE
  8
0
  6
CONTINUOUS
 66
     1
 40
0.000000
 41
0.000000
  0
VERTEX
  8
0
  6
CONTINUOUS
 10
2.407680
 20
2.154240
  0
VERTEX
  8
0
  6
CONTINUOUS
 10
3.043920
 20
2.523840
  0
VERTEX
  8
0
  6
CONTINUOUS
 10
3.048320
 20
2.525600
  0
VERTEX
  8
0
  6
CONTINUOUS
 10
2.412080
 20
2.156440
  0
VERTEX
  8
0
  6
CONTINUOUS
 10
2.407680
 20
2.154240
  0
SEQEND
  8
0
  0
POLYLINE
  8
0
  6
CONTINUOUS
 66
     1
 40
0.000000
 41
0.000000
  0
VERTEX
  8
0
  6
CONTINUOUS
 10
2.412080
 20
2.156440
  0
VERTEX
  8
0
  6
CONTINUOUS
 10
2.412080
 20
1.191520
  0
VERTEX
  8
0
  6
CONTINUOUS
 10
0.770440
 20
1.191520
  0
VERTEX
  8
0
  6
CONTINUOUS
 10
0.770440
 20
2.250160
  0
VERTEX
  8
0
  6
CONTINUOUS
 10
0.904640
 20
2.272600
  0
VERTEX
  8
0
  6
CONTINUOUS
 10
1.023440
 20
2.284480
  0
VERTEX
  8
0
  6
CONTINUOUS
 10
1.129040
 20
2.287120
  0
VERTEX
  8
0
  6
CONTINUOUS
 10
1.224080
 20
2.282720
  0
VERTEX
  8
0
  6
CONTINUOUS
 10
1.310760
 20
2.271720
  0
VERTEX
  8
0
  6
CONTINUOUS
 10
1.391720
 20
2.255880
  0
VERTEX
  8
0
  6
CONTINUOUS
 10
1.545280
 20
2.216280
  0
VERTEX
  8
0
  6
CONTINUOUS
 10
1.583560
 20
2.205720
  0
VERTEX
  8
0
  6
CONTINUOUS
 10
1.623160
 20
2.194720
  0
VERTEX
  8
0
  6
CONTINUOUS
 10
1.704560
 20
2.174480
  0
VERTEX
  8
0
  6
CONTINUOUS
 10
1.792120
 20
2.156880
  0
VERTEX
  8
0
  6
CONTINUOUS
 10
1.888480
 20
2.142800
  0
VERTEX
  8
0
  6
CONTINUOUS
 10
1.995400
 20
2.134000
  0
VERTEX
  8
0
  6
CONTINUOUS
 10
2.116400
 20
2.132240
  0
VERTEX
  8
0
  6
CONTINUOUS
 10
2.252800
 20
2.138400
  0
VERTEX
  8
0
  6
CONTINUOUS
 10
2.328040
 20
2.145000
  0
VERTEX
  8
0
  6
CONTINUOUS
 10
2.407680
 20
2.154240
  0
VERTEX
  8
0
  6
CONTINUOUS
 10
2.412080
 20
2.156440
  0
SEQEND
  8
0
  0
TEXT
  8
0
 10
1.169520
 20
0.879120
 40
0.138170
  1
BA  340A, B & C
 41
1.000000
  7
SN0
 71
     0
 72
     5
 11
2.394211
 21
0.879120
  0
TEXT
  8
0
 10
1.169520
 20
0.687720
 40
0.138170
  1
1-5/8" x up to 8"
 41
1.000000
  7
SN0
 71
     0
 72
     5
 11
2.346651
 21
0.687720
  0
SOLID
  8
0
 62
    15
 10
6.715280
 20
4.420240
 11
7.352840
 21
4.794240
 12
6.749600
 22
4.349400
 13
7.386720
 23
4.723400
  0
POLYLINE
  8
0
  6
CONTINUOUS
 66
     1
 40
0.000000
 41
0.000000
  0
VERTEX
  8
0
  6
CONTINUOUS
 10
6.715280
 20
4.420240
  0
VERTEX
  8
0
  6
CONTINUOUS
 10
7.352840
 20
4.794240
  0
VERTEX
  8
0
  6
CONTINUOUS
 10
7.386720
 20
4.723400
  0
VERTEX
  8
0
  6
CONTINUOUS
 10
6.749600
 20
4.349400
  0
VERTEX
  8
0
  6
CONTINUOUS
 10
6.715280
 20
4.420240
  0
SEQEND
  8
0
  0
SOLID
  8
0
 62
    15
 10
5.684800
 20
4.781480
 11
6.322360
 21
5.155920
 12
5.759600
 22
4.808760
 13
6.396720
 23
5.183200
  0
POLYLINE
  8
0
  6
CONTINUOUS
 66
     1
 40
0.000000
 41
0.000000
  0
VERTEX
  8
0
  6
CONTINUOUS
 10
5.684800
 20
4.781480
  0
VERTEX
  8
0
  6
CONTINUOUS
 10
6.322360
 20
5.155920
  0
VERTEX
  8
0
  6
CONTINUOUS
 10
6.396720
 20
5.183200
  0
VERTEX
  8
0
  6
CONTINUOUS
 10
5.759600
 20
4.808760
  0
VERTEX
  8
0
  6
CONTINUOUS
 10
5.684800
 20
4.781480
  0
SEQEND
  8
0
  0
SOLID
  8
0
 62
    15
 10
5.759600
 20
4.808760
 11
6.396720
 21
5.183200
 12
5.837480
 22
4.829000
 13
6.474600
 23
5.203000
  0
POLYLINE
  8
0
  6
CONTINUOUS
 66
     1
 40
0.000000
 41
0.000000
  0
VERTEX
  8
0
  6
CONTINUOUS
 10
5.759600
 20
4.808760
  0
VERTEX
  8
0
  6
CONTINUOUS
 10
6.396720
 20
5.183200
  0
VERTEX
  8
0
  6
CONTINUOUS
 10
6.474600
 20
5.203000
  0
VERTEX
  8
0
  6
CONTINUOUS
 10
5.837480
 20
4.829000
  0
VERTEX
  8
0
  6
CONTINUOUS
 10
5.759600
 20
4.808760
  0
SEQEND
  8
0
  0
SOLID
  8
0
 62
    15
 10
5.837480
 20
4.829000
 11
6.474600
 21
5.203000
 12
5.918000
 22
4.841320
 13
6.555560
 23
5.215320
  0
POLYLINE
  8
0
  6
CONTINUOUS
 66
     1
 40
0.000000
 41
0.000000
  0
VERTEX
  8
0
  6
CONTINUOUS
 10
5.837480
 20
4.829000
  0
VERTEX
  8
0
  6
CONTINUOUS
 10
6.474600
 20
5.203000
  0
VERTEX
  8
0
  6
CONTINUOUS
 10
6.555560
 20
5.215320
  0
VERTEX
  8
0
  6
CONTINUOUS
 10
5.918000
 20
4.841320
  0
VERTEX
  8
0
  6
CONTINUOUS
 10
5.837480
 20
4.829000
  0
SEQEND
  8
0
  0
SOLID
  8
0
 62
    15
 10
5.918000
 20
4.841320
 11
6.555560
 21
5.215320
 12
6.001160
 22
4.845280
 13
6.638280
 23
5.219720
  0
POLYLINE
  8
0
  6
CONTINUOUS
 66
     1
 40
0.000000
 41
0.000000
  0
VERTEX
  8
0
  6
CONTINUOUS
 10
5.918000
 20
4.841320
  0
VERTEX
  8
0
  6
CONTINUOUS
 10
6.555560
 20
5.215320
  0
VERTEX
  8
0
  6
CONTINUOUS
 10
6.638280
 20
5.219720
  0
VERTEX
  8
0
  6
CONTINUOUS
 10
6.001160
 20
4.845280
  0
VERTEX
  8
0
  6
CONTINUOUS
 10
5.918000
 20
4.841320
  0
SEQEND
  8
0
  0
SOLID
  8
0
 62
    15
 10
6.001160
 20
4.845280
 11
6.638280
 21
5.219720
 12
6.084320
 22
4.841320
 13
6.721440
 23
5.215320
  0
POLYLINE
  8
0
  6
CONTINUOUS
 66
     1
 40
0.000000
 41
0.000000
  0
VERTEX
  8
0
  6
CONTINUOUS
 10
6.001160
 20
4.845280
  0
VERTEX
  8
0
  6
CONTINUOUS
 10
6.638280
 20
5.219720
  0
VERTEX
  8
0
  6
CONTINUOUS
 10
6.721440
 20
5.215320
  0
VERTEX
  8
0
  6
CONTINUOUS
 10
6.084320
 20
4.841320
  0
VERTEX
  8
0
  6
CONTINUOUS
 10
6.001160
 20
4.845280
  0
SEQEND
  8
0
  0
SOLID
  8
0
 62
    15
 10
6.084320
 20
4.841320
 11
6.721440
 21
5.215320
 12
6.164840
 22
4.829000
 13
6.801960
 23
5.203000
  0
POLYLINE
  8
0
  6
CONTINUOUS
 66
     1
 40
0.000000
 41
0.000000
  0
VERTEX
  8
0
  6
CONTINUOUS
 10
6.084320
 20
4.841320
  0
VERTEX
  8
0
  6
CONTINUOUS
 10
6.721440
 20
5.215320
  0
VERTEX
  8
0
  6
CONTINUOUS
 10
6.801960
 20
5.203000
  0
VERTEX
  8
0
  6
CONTINUOUS
 10
6.164840
 20
4.829000
  0
VERTEX
  8
0
  6
CONTINUOUS
 10
6.084320
 20
4.841320
  0
SEQEND
  8
0
  0
SOLID
  8
0
 62
    15
 10
6.164840
 20
4.829000
 11
6.801960
 21
5.203000
 12
6.242720
 22
4.808760
 13
6.879840
 23
5.183200
  0
POLYLINE
  8
0
  6
CONTINUOUS
 66
     1
 40
0.000000
 41
0.000000
  0
VERTEX
  8
0
  6
CONTINUOUS
 10
6.164840
 20
4.829000
  0
VERTEX
  8
0
  6
CONTINUOUS
 10
6.801960
 20
5.203000
  0
VERTEX
  8
0
  6
CONTINUOUS
 10
6.879840
 20
5.183200
  0
VERTEX
  8
0
  6
CONTINUOUS
 10
6.242720
 20
4.808760
  0
VERTEX
  8
0
  6
CONTINUOUS
 10
6.164840
 20
4.829000
  0
SEQEND
  8
0
  0
SOLID
  8
0
 62
    15
 10
6.242720
 20
4.808760
 11
6.879840
 21
5.183200
 12
6.317080
 22
4.781480
 13
6.954640
 23
5.155920
  0
POLYLINE
  8
0
  6
CONTINUOUS
 66
     1
 40
0.000000
 41
0.000000
  0
VERTEX
  8
0
  6
CONTINUOUS
 10
6.242720
 20
4.808760
  0
VERTEX
  8
0
  6
CONTINUOUS
 10
6.879840
 20
5.183200
  0
VERTEX
  8
0
  6
CONTINUOUS
 10
6.954640
 20
5.155920
  0
VERTEX
  8
0
  6
CONTINUOUS
 10
6.317080
 20
4.781480
  0
VERTEX
  8
0
  6
CONTINUOUS
 10
6.242720
 20
4.808760
  0
SEQEND
  8
0
  0
SOLID
  8
0
 62
    15
 10
6.317080
 20
4.781480
 11
6.954640
 21
5.155920
 12
6.388360
 22
4.747160
 13
7.025480
 23
5.121600
  0
POLYLINE
  8
0
  6
CONTINUOUS
 66
     1
 40
0.000000
 41
0.000000
  0
VERTEX
  8
0
  6
CONTINUOUS
 10
6.317080
 20
4.781480
  0
VERTEX
  8
0
  6
CONTINUOUS
 10
6.954640
 20
5.155920
  0
VERTEX
  8
0
  6
CONTINUOUS
 10
7.025480
 20
5.121600
  0
VERTEX
  8
0
  6
CONTINUOUS
 10
6.388360
 20
4.747160
  0
VERTEX
  8
0
  6
CONTINUOUS
 10
6.317080
 20
4.781480
  0
SEQEND
  8
0
  0
SOLID
  8
0
 62
    15
 10
6.388360
 20
4.747160
 11
7.025480
 21
5.121600
 12
6.455240
 22
4.706680
 13
7.092800
 23
5.080680
  0
POLYLINE
  8
0
  6
CONTINUOUS
 66
     1
 40
0.000000
 41
0.000000
  0
VERTEX
  8
0
  6
CONTINUOUS
 10
6.388360
 20
4.747160
  0
VERTEX
  8
0
  6
CONTINUOUS
 10
7.025480
 20
5.121600
  0
VERTEX
  8
0
  6
CONTINUOUS
 10
7.092800
 20
5.080680
  0
VERTEX
  8
0
  6
CONTINUOUS
 10
6.455240
 20
4.706680
  0
VERTEX
  8
0
  6
CONTINUOUS
 10
6.388360
 20
4.747160
  0
SEQEND
  8
0
  0
SOLID
  8
0
 62
    15
 10
6.455240
 20
4.706680
 11
7.092800
 21
5.080680
 12
6.575360
 22
4.607240
 13
7.212920
 23
4.981680
  0
POLYLINE
  8
0
  6
CONTINUOUS
 66
     1
 40
0.000000
 41
0.000000
  0
VERTEX
  8
0
  6
CONTINUOUS
 10
6.455240
 20
4.706680
  0
VERTEX
  8
0
  6
CONTINUOUS
 10
7.092800
 20
5.080680
  0
VERTEX
  8
0
  6
CONTINUOUS
 10
7.212920
 20
4.981680
  0
VERTEX
  8
0
  6
CONTINUOUS
 10
6.575360
 20
4.607240
  0
VERTEX
  8
0
  6
CONTINUOUS
 10
6.455240
 20
4.706680
  0
SEQEND
  8
0
  0
SOLID
  8
0
 62
     7
 10
6.575360
 20
4.607240
 11
7.212920
 21
4.981680
 12
6.674800
 22
4.487120
 13
7.311920
 23
4.861560
  0
POLYLINE
  8
0
  6
CONTINUOUS
 66
     1
 40
0.000000
 41
0.000000
  0
VERTEX
  8
0
  6
CONTINUOUS
 10
6.575360
 20
4.607240
  0
VERTEX
  8
0
  6
CONTINUOUS
 10
7.212920
 20
4.981680
  0
VERTEX
  8
0
  6
CONTINUOUS
 10
7.311920
 20
4.861560
  0
VERTEX
  8
0
  6
CONTINUOUS
 10
6.674800
 20
4.487120
  0
VERTEX
  8
0
  6
CONTINUOUS
 10
6.575360
 20
4.607240
  0
SEQEND
  8
0
  0
SOLID
  8
0
 62
     7
 10
6.674800
 20
4.487120
 11
7.311920
 21
4.861560
 12
6.715280
 22
4.420240
 13
7.352840
 23
4.794240
  0
POLYLINE
  8
0
  6
CONTINUOUS
 66
     1
 40
0.000000
 41
0.000000
  0
VERTEX
  8
0
  6
CONTINUOUS
 10
6.674800
 20
4.487120
  0
VERTEX
  8
0
  6
CONTINUOUS
 10
7.311920
 20
4.861560
  0
VERTEX
  8
0
  6
CONTINUOUS
 10
7.352840
 20
4.794240
  0
VERTEX
  8
0
  6
CONTINUOUS
 10
6.715280
 20
4.420240
  0
VERTEX
  8
0
  6
CONTINUOUS
 10
6.674800
 20
4.487120
  0
SEQEND
  8
0
  0
SOLID
  8
0
 62
    15
 10
5.613960
 20
4.747160
 11
6.251080
 21
5.121600
 12
5.684800
 22
4.781480
 13
6.322360
 23
5.155920
  0
POLYLINE
  8
0
  6
CONTINUOUS
 66
     1
 40
0.000000
 41
0.000000
  0
VERTEX
  8
0
  6
CONTINUOUS
 10
5.613960
 20
4.747160
  0
VERTEX
  8
0
  6
CONTINUOUS
 10
6.251080
 20
5.121600
  0
VERTEX
  8
0
  6
CONTINUOUS
 10
6.322360
 20
5.155920
  0
VERTEX
  8
0
  6
CONTINUOUS
 10
5.684800
 20
4.781480
  0
VERTEX
  8
0
  6
CONTINUOUS
 10
5.613960
 20
4.747160
  0
SEQEND
  8
0
  0
SOLID
  8
0
 62
    15
 10
6.749600
 20
4.349400
 11
7.386720
 21
4.723400
 12
6.776880
 22
4.274600
 13
7.414440
 23
4.648600
  0
POLYLINE
  8
0
  6
CONTINUOUS
 66
     1
 40
0.000000
 41
0.000000
  0
VERTEX
  8
0
  6
CONTINUOUS
 10
6.749600
 20
4.349400
  0
VERTEX
  8
0
  6
CONTINUOUS
 10
7.386720
 20
4.723400
  0
VERTEX
  8
0
  6
CONTINUOUS
 10
7.414440
 20
4.648600
  0
VERTEX
  8
0
  6
CONTINUOUS
 10
6.776880
 20
4.274600
  0
VERTEX
  8
0
  6
CONTINUOUS
 10
6.749600
 20
4.349400
  0
SEQEND
  8
0
  0
SOLID
  8
0
 62
    15
 10
6.776880
 20
4.274600
 11
7.414440
 21
4.648600
 12
6.797120
 22
4.196720
 13
7.434240
 23
4.571160
  0
POLYLINE
  8
0
  6
CONTINUOUS
 66
     1
 40
0.000000
 41
0.000000
  0
VERTEX
  8
0
  6
CONTINUOUS
 10
6.776880
 20
4.274600
  0
VERTEX
  8
0
  6
CONTINUOUS
 10
7.414440
 20
4.648600
  0
VERTEX
  8
0
  6
CONTINUOUS
 10
7.434240
 20
4.571160
  0
VERTEX
  8
0
  6
CONTINUOUS
 10
6.797120
 20
4.196720
  0
VERTEX
  8
0
  6
CONTINUOUS
 10
6.776880
 20
4.274600
  0
SEQEND
  8
0
  0
SOLID
  8
0
 62
    15
 10
6.797120
 20
4.196720
 11
7.434240
 21
4.571160
 12
6.809000
 22
4.116200
 13
7.446560
 23
4.490200
  0
POLYLINE
  8
0
  6
CONTINUOUS
 66
     1
 40
0.000000
 41
0.000000
  0
VERTEX
  8
0
  6
CONTINUOUS
 10
6.797120
 20
4.196720
  0
VERTEX
  8
0
  6
CONTINUOUS
 10
7.434240
 20
4.571160
  0
VERTEX
  8
0
  6
CONTINUOUS
 10
7.446560
 20
4.490200
  0
VERTEX
  8
0
  6
CONTINUOUS
 10
6.809000
 20
4.116200
  0
VERTEX
  8
0
  6
CONTINUOUS
 10
6.797120
 20
4.196720
  0
SEQEND
  8
0
  0
SOLID
  8
0
 62
    15
 10
6.809000
 20
4.116200
 11
7.446560
 21
4.490200
 12
6.813400
 22
4.033040
 13
7.450960
 23
4.407040
  0
POLYLINE
  8
0
  6
CONTINUOUS
 66
     1
 40
0.000000
 41
0.000000
  0
VERTEX
  8
0
  6
CONTINUOUS
 10
6.809000
 20
4.116200
  0
VERTEX
  8
0
  6
CONTINUOUS
 10
7.446560
 20
4.490200
  0
VERTEX
  8
0
  6
CONTINUOUS
 10
7.450960
 20
4.407040
  0
VERTEX
  8
0
  6
CONTINUOUS
 10
6.813400
 20
4.033040
  0
VERTEX
  8
0
  6
CONTINUOUS
 10
6.809000
 20
4.116200
  0
SEQEND
  8
0
  0
SOLID
  8
0
 62
    15
 10
6.813400
 20
4.033040
 11
7.450960
 21
4.407040
 12
6.809000
 22
3.949880
 13
7.446560
 23
4.324320
  0
POLYLINE
  8
0
  6
CONTINUOUS
 66
     1
 40
0.000000
 41
0.000000
  0
VERTEX
  8
0
  6
CONTINUOUS
 10
6.813400
 20
4.033040
  0
VERTEX
  8
0
  6
CONTINUOUS
 10
7.450960
 20
4.407040
  0
VERTEX
  8
0
  6
CONTINUOUS
 10
7.446560
 20
4.324320
  0
VERTEX
  8
0
  6
CONTINUOUS
 10
6.809000
 20
3.949880
  0
VERTEX
  8
0
  6
CONTINUOUS
 10
6.813400
 20
4.033040
  0
SEQEND
  8
0
  0
SOLID
  8
0
 62
    15
 10
6.809000
 20
3.949880
 11
7.446560
 21
4.324320
 12
6.797120
 22
3.869360
 13
7.434240
 23
4.243360
  0
POLYLINE
  8
0
  6
CONTINUOUS
 66
     1
 40
0.000000
 41
0.000000
  0
VERTEX
  8
0
  6
CONTINUOUS
 10
6.809000
 20
3.949880
  0
VERTEX
  8
0
  6
CONTINUOUS
 10
7.446560
 20
4.324320
  0
VERTEX
  8
0
  6
CONTINUOUS
 10
7.434240
 20
4.243360
  0
VERTEX
  8
0
  6
CONTINUOUS
 10
6.797120
 20
3.869360
  0
VERTEX
  8
0
  6
CONTINUOUS
 10
6.809000
 20
3.949880
  0
SEQEND
  8
0
  0
SOLID
  8
0
 62
    15
 10
6.797120
 20
3.869360
 11
7.434240
 21
4.243360
 12
6.776880
 22
3.791480
 13
7.414440
 23
4.165920
  0
POLYLINE
  8
0
  6
CONTINUOUS
 66
     1
 40
0.000000
 41
0.000000
  0
VERTEX
  8
0
  6
CONTINUOUS
 10
6.797120
 20
3.869360
  0
VERTEX
  8
0
  6
CONTINUOUS
 10
7.434240
 20
4.243360
  0
VERTEX
  8
0
  6
CONTINUOUS
 10
7.414440
 20
4.165920
  0
VERTEX
  8
0
  6
CONTINUOUS
 10
6.776880
 20
3.791480
  0
VERTEX
  8
0
  6
CONTINUOUS
 10
6.797120
 20
3.869360
  0
SEQEND
  8
0
  0
SOLID
  8
0
 62
    15
 10
6.776880
 20
3.791480
 11
7.414440
 21
4.165920
 12
6.749600
 22
3.716680
 13
7.386720
 23
4.091120
  0
POLYLINE
  8
0
  6
CONTINUOUS
 66
     1
 40
0.000000
 41
0.000000
  0
VERTEX
  8
0
  6
CONTINUOUS
 10
6.776880
 20
3.791480
  0
VERTEX
  8
0
  6
CONTINUOUS
 10
7.414440
 20
4.165920
  0
VERTEX
  8
0
  6
CONTINUOUS
 10
7.386720
 20
4.091120
  0
VERTEX
  8
0
  6
CONTINUOUS
 10
6.749600
 20
3.716680
  0
VERTEX
  8
0
  6
CONTINUOUS
 10
6.776880
 20
3.791480
  0
SEQEND
  8
0
  0
SOLID
  8
0
 62
    15
 10
6.749600
 20
3.716680
 11
7.386720
 21
4.091120
 12
6.715280
 22
3.645840
 13
7.352840
 23
4.020280
  0
POLYLINE
  8
0
  6
CONTINUOUS
 66
     1
 40
0.000000
 41
0.000000
  0
VERTEX
  8
0
  6
CONTINUOUS
 10
6.749600
 20
3.716680
  0
VERTEX
  8
0
  6
CONTINUOUS
 10
7.386720
 20
4.091120
  0
VERTEX
  8
0
  6
CONTINUOUS
 10
7.352840
 20
4.020280
  0
VERTEX
  8
0
  6
CONTINUOUS
 10
6.715280
 20
3.645840
  0
VERTEX
  8
0
  6
CONTINUOUS
 10
6.749600
 20
3.716680
  0
SEQEND
  8
0
  0
SOLID
  8
0
 62
    15
 10
6.715280
 20
3.645840
 11
7.352840
 21
4.020280
 12
6.674800
 22
3.578960
 13
7.311920
 23
3.952960
  0
POLYLINE
  8
0
  6
CONTINUOUS
 66
     1
 40
0.000000
 41
0.000000
  0
VERTEX
  8
0
  6
CONTINUOUS
 10
6.715280
 20
3.645840
  0
VERTEX
  8
0
  6
CONTINUOUS
 10
7.352840
 20
4.020280
  0
VERTEX
  8
0
  6
CONTINUOUS
 10
7.311920
 20
3.952960
  0
VERTEX
  8
0
  6
CONTINUOUS
 10
6.674800
 20
3.578960
  0
VERTEX
  8
0
  6
CONTINUOUS
 10
6.715280
 20
3.645840
  0
SEQEND
  8
0
  0
SOLID
  8
0
 62
    15
 10
6.674800
 20
3.578960
 11
7.311920
 21
3.952960
 12
6.575360
 22
3.458840
 13
7.212920
 23
3.832840
  0
POLYLINE
  8
0
  6
CONTINUOUS
 66
     1
 40
0.000000
 41
0.000000
  0
VERTEX
  8
0
  6
CONTINUOUS
 10
6.674800
 20
3.578960
  0
VERTEX
  8
0
  6
CONTINUOUS
 10
7.311920
 20
3.952960
  0
VERTEX
  8
0
  6
CONTINUOUS
 10
7.212920
 20
3.832840
  0
VERTEX
  8
0
  6
CONTINUOUS
 10
6.575360
 20
3.458840
  0
VERTEX
  8
0
  6
CONTINUOUS
 10
6.674800
 20
3.578960
  0
SEQEND
  8
0
  0
SOLID
  8
0
 62
    15
 10
6.455240
 20
3.359400
 11
7.092800
 21
3.733840
 12
6.388360
 22
3.318920
 13
7.025480
 23
3.692920
  0
POLYLINE
  8
0
  6
CONTINUOUS
 66
     1
 40
0.000000
 41
0.000000
  0
VERTEX
  8
0
  6
CONTINUOUS
 10
6.455240
 20
3.359400
  0
VERTEX
  8
0
  6
CONTINUOUS
 10
7.092800
 20
3.733840
  0
VERTEX
  8
0
  6
CONTINUOUS
 10
7.025480
 20
3.692920
  0
VERTEX
  8
0
  6
CONTINUOUS
 10
6.388360
 20
3.318920
  0
VERTEX
  8
0
  6
CONTINUOUS
 10
6.455240
 20
3.359400
  0
SEQEND
  8
0
  0
SOLID
  8
0
 62
    15
 10
6.575360
 20
3.458840
 11
7.212920
 21
3.832840
 12
6.455240
 22
3.359400
 13
7.092800
 23
3.733840
  0
POLYLINE
  8
0
  6
CONTINUOUS
 66
     1
 40
0.000000
 41
0.000000
  0
VERTEX
  8
0
  6
CONTINUOUS
 10
6.575360
 20
3.458840
  0
VERTEX
  8
0
  6
CONTINUOUS
 10
7.212920
 20
3.832840
  0
VERTEX
  8
0
  6
CONTINUOUS
 10
7.092800
 20
3.733840
  0
VERTEX
  8
0
  6
CONTINUOUS
 10
6.455240
 20
3.359400
  0
VERTEX
  8
0
  6
CONTINUOUS
 10
6.575360
 20
3.458840
  0
SEQEND
  8
0
  0
POLYLINE
  8
0
  6
CONTINUOUS
 66
     1
 40
0.000000
 41
0.000000
  0
VERTEX
  8
0
  6
CONTINUOUS
 10
5.192880
 20
4.116200
  0
VERTEX
  8
0
  6
CONTINUOUS
 10
5.205200
 20
4.196720
  0
VERTEX
  8
0
  6
CONTINUOUS
 10
5.225440
 20
4.274600
  0
VERTEX
  8
0
  6
CONTINUOUS
 10
5.252720
 20
4.349400
  0
VERTEX
  8
0
  6
CONTINUOUS
 10
5.287040
 20
4.420240
  0
VERTEX
  8
0
  6
CONTINUOUS
 10
5.327520
 20
4.487120
  0
VERTEX
  8
0
  6
CONTINUOUS
 10
5.426520
 20
4.607240
  0
VERTEX
  8
0
  6
CONTINUOUS
 10
5.547080
 20
4.706680
  0
VERTEX
  8
0
  6
CONTINUOUS
 10
5.613960
 20
4.747160
  0
VERTEX
  8
0
  6
CONTINUOUS
 10
5.684800
 20
4.781480
  0
VERTEX
  8
0
  6
CONTINUOUS
 10
5.759600
 20
4.808760
  0
VERTEX
  8
0
  6
CONTINUOUS
 10
5.837480
 20
4.829000
  0
VERTEX
  8
0
  6
CONTINUOUS
 10
5.918000
 20
4.841320
  0
VERTEX
  8
0
  6
CONTINUOUS
 10
6.001160
 20
4.845280
  0
VERTEX
  8
0
  6
CONTINUOUS
 10
6.084320
 20
4.841320
  0
VERTEX
  8
0
  6
CONTINUOUS
 10
6.164840
 20
4.829000
  0
VERTEX
  8
0
  6
CONTINUOUS
 10
6.242720
 20
4.808760
  0
VERTEX
  8
0
  6
CONTINUOUS
 10
6.317080
 20
4.781480
  0
VERTEX
  8
0
  6
CONTINUOUS
 10
6.388360
 20
4.747160
  0
VERTEX
  8
0
  6
CONTINUOUS
 10
6.455240
 20
4.706680
  0
VERTEX
  8
0
  6
CONTINUOUS
 10
6.575360
 20
4.607240
  0
VERTEX
  8
0
  6
CONTINUOUS
 10
6.674800
 20
4.487120
  0
VERTEX
  8
0
  6
CONTINUOUS
 10
6.715280
 20
4.420240
  0
VERTEX
  8
0
  6
CONTINUOUS
 10
6.749600
 20
4.349400
  0
VERTEX
  8
0
  6
CONTINUOUS
 10
6.776880
 20
4.274600
  0
VERTEX
  8
0
  6
CONTINUOUS
 10
6.797120
 20
4.196720
  0
VERTEX
  8
0
  6
CONTINUOUS
 10
6.809000
 20
4.116200
  0
VERTEX
  8
0
  6
CONTINUOUS
 10
6.813400
 20
4.033040
  0
VERTEX
  8
0
  6
CONTINUOUS
 10
6.809000
 20
3.949880
  0
VERTEX
  8
0
  6
CONTINUOUS
 10
6.797120
 20
3.869360
  0
VERTEX
  8
0
  6
CONTINUOUS
 10
6.776880
 20
3.791480
  0
VERTEX
  8
0
  6
CONTINUOUS
 10
6.749600
 20
3.716680
  0
VERTEX
  8
0
  6
CONTINUOUS
 10
6.715280
 20
3.645840
  0
VERTEX
  8
0
  6
CONTINUOUS
 10
6.674800
 20
3.578960
  0
VERTEX
  8
0
  6
CONTINUOUS
 10
6.575360
 20
3.458840
  0
VERTEX
  8
0
  6
CONTINUOUS
 10
6.455240
 20
3.359400
  0
VERTEX
  8
0
  6
CONTINUOUS
 10
6.388360
 20
3.318920
  0
VERTEX
  8
0
  6
CONTINUOUS
 10
6.317080
 20
3.284600
  0
VERTEX
  8
0
  6
CONTINUOUS
 10
6.242720
 20
3.257320
  0
VERTEX
  8
0
  6
CONTINUOUS
 10
6.164840
 20
3.237080
  0
VERTEX
  8
0
  6
CONTINUOUS
 10
6.084320
 20
3.224760
  0
VERTEX
  8
0
  6
CONTINUOUS
 10
6.001160
 20
3.220800
  0
VERTEX
  8
0
  6
CONTINUOUS
 10
5.918000
 20
3.224760
  0
VERTEX
  8
0
  6
CONTINUOUS
 10
5.837480
 20
3.237080
  0
VERTEX
  8
0
  6
CONTINUOUS
 10
5.759600
 20
3.257320
  0
VERTEX
  8
0
  6
CONTINUOUS
 10
5.684800
 20
3.284600
  0
VERTEX
  8
0
  6
CONTINUOUS
 10
5.613960
 20
3.318920
  0
VERTEX
  8
0
  6
CONTINUOUS
 10
5.547080
 20
3.359400
  0
VERTEX
  8
0
  6
CONTINUOUS
 10
5.426520
 20
3.458840
  0
VERTEX
  8
0
  6
CONTINUOUS
 10
5.327520
 20
3.578960
  0
VERTEX
  8
0
  6
CONTINUOUS
 10
5.287040
 20
3.645840
  0
VERTEX
  8
0
  6
CONTINUOUS
 10
5.252720
 20
3.716680
  0
VERTEX
  8
0
  6
CONTINUOUS
 10
5.225440
 20
3.791480
  0
VERTEX
  8
0
  6
CONTINUOUS
 10
5.205200
 20
3.869360
  0
VERTEX
  8
0
  6
CONTINUOUS
 10
5.192880
 20
3.949880
  0
VERTEX
  8
0
  6
CONTINUOUS
 10
5.188920
 20
4.033040
  0
VERTEX
  8
0
  6
CONTINUOUS
 10
5.192880
 20
4.116200
  0
SEQEND
  8
0
  0
LINE
  8
0
  6
DOT
 10
5.188920
 20
4.033040
 11
6.811200
 21
4.033040
  0
TEXT
  8
0
 10
6.886440
 20
3.419680
 40
0.138170
  1
BA  340B
 41
1.000000
  7
SN0
 71
     0
 72
     5
 11
7.586913
 21
3.419680
  0
TEXT
  8
0
 10
7.018440
 20
3.227840
 40
0.138170
  1
1-5/8"
 41
1.000000
  7
SN0
 71
     0
 72
     5
 11
7.455580
 21
3.227840
  0
ENDSEC
  0
EOF
