  0
SECTION
  2
HEADER
  9
$ACADVER
  1
AC1006
  9
$EXTMIN
 10
1.711600
 20
0.820160
  9
$EXTMAX
 10
7.102040
 20
6.076400
  9
$LTSCALE
 40
0.044000
  9
$PDMODE
 70
    35
  9
$PDSIZE
 40
0.035200
  0
ENDSEC
  0
SECTION
  2
TABLES
  0
TABLE
  2
LTYPE
 70
     9
  0
LTYPE
  2
CONTINUOUS
 70
    64
  3
Solid line
 72
    65
 73
     0
 40
0.000000
  0
LTYPE
  2
DASHED
 70
    64
  3
__ __ __ __ __ __ __ __ __ __ __ __ __ __ __
 72
    65
 73
     2
 40
0.000330
 49
0.000220
 49
-0.000110
  0
LTYPE
  2
HIDDEN
 70
    64
  3
 _ _ _ _ _ _ _ _ _ _ _ _ _ _ _ _ _ _ _ _ _ _
 72
    65
 73
     2
 40
0.000165
 49
0.000110
 49
-0.000055
  0
LTYPE
  2
CENTER
 70
    64
  3
____ _ ____ _ ____ _ ____ _ ____ _ ____ _ ____
 72
    65
 73
     4
 40
0.000880
 49
0.000550
 49
-0.000110
 49
0.000110
 49
-0.000110
  0
LTYPE
  2
PHANTOM
 70
    64
  3
_____ _ _ _____ _ _ _____ _ _ _____ _ _ ____
 72
    65
 73
     6
 40
0.001100
 49
0.000550
 49
-0.000110
 49
0.000110
 49
-0.000110
 49
0.000110
 49
-0.000110
  0
LTYPE
  2
DOT
 70
    64
  3
...............................................
 72
    65
 73
     2
 40
0.000110
 49
0.000000
 49
-0.000110
  0
LTYPE
  2
DASHDOT
 70
    64
  3
__ . __ . __ . __ . __ . __ . __ . __ . __ . __
 72
    65
 73
     4
 40
0.000440
 49
0.000220
 49
-0.000110
 49
0.000000
 49
-0.000110
  0
LTYPE
  2
BORDER
 70
    64
  3
__ __ . __ __ . __ __ . __ __ . __ __ . __ __
 72
    65
 73
     6
 40
0.000770
 49
0.000220
 49
-0.000110
 49
0.000220
 49
-0.000110
 49
0.000000
 49
-0.000110
  0
LTYPE
  2
DIVIDE
 70
    64
  3
__ . . __ . . __ . . __ . . __ . . __ . . __
 72
    65
 73
     6
 40
0.000550
 49
0.000220
 49
-0.000110
 49
0.000000
 49
-0.000110
 49
0.000000
 49
-0.000110
  0
LTYPE
  2
DOTDOT
 70
    64
  3
 . .  . .  . .  . .  . .  . . 
 72
    65
 73
     5
 40
0.000242
 49
-0.000110
 49
0.000000
 49
-0.000110
 49
0.000000
 49
-0.000110
  0
ENDTAB
  0
TABLE
  2
STYLE
 70
     2
  0
STYLE
 70
     0
  2
SN0
 40
0.000000
 41
0.000440
 50
0.000000
 71
     0
 42
0.000000
  3
ROMAND
  0
STYLE
 70
    68
  2
SV0
 40
0.000000
 41
0.000440
 50
0.000000
 71
     0
 42
0.000000
  3
ROMAND
  0
ENDTAB
  0
TABLE
  2
LAYER
 70
     3
  0
LAYER
  2
FOREGROUND
 70
    64
 62
     7
  6
CONTINUOUS
  0
LAYER
  2
BACKGROUND
 70
    65
 62
    -7
  6
CONTINUOUS
  0
LAYER
  2
0
 70
    64
 62
     7
  6
CONTINUOUS
  0
ENDTAB
  0
ENDSEC
  0
SECTION
  2
ENTITIES
  0
POLYLINE
  8
FOREGROUND
  6
CONTINUOUS
 66
     1
 40
0.000000
 41
0.000000
  0
VERTEX
  8
FOREGROUND
  6
CONTINUOUS
 10
0.000000
 20
6.896560
  0
VERTEX
  8
FOREGROUND
  6
CONTINUOUS
 10
8.499920
 20
6.896560
  0
VERTEX
  8
FOREGROUND
  6
CONTINUOUS
 10
8.499920
 20
-4.103440
  0
VERTEX
  8
FOREGROUND
  6
CONTINUOUS
 10
0.000000
 20
-4.103440
  0
VERTEX
  8
FOREGROUND
  6
CONTINUOUS
 10
0.000000
 20
6.896560
  0
SEQEND
  8
0
  0
POLYLINE
  8
FOREGROUND
  6
CONTINUOUS
 66
     1
 40
0.000000
 41
0.000000
  0
VERTEX
  8
FOREGROUND
  6
CONTINUOUS
 10
0.000000
 20
6.896560
  0
VERTEX
  8
FOREGROUND
  6
CONTINUOUS
 10
8.499920
 20
6.896560
  0
VERTEX
  8
FOREGROUND
  6
CONTINUOUS
 10
8.499920
 20
-4.103440
  0
VERTEX
  8
FOREGROUND
  6
CONTINUOUS
 10
0.000000
 20
-4.103440
  0
VERTEX
  8
FOREGROUND
  6
CONTINUOUS
 10
0.000000
 20
6.896560
  0
SEQEND
  8
0
  0
POLYLINE
  8
0
  6
CONTINUOUS
 66
     1
 40
0.014080
 41
0.014080
  0
VERTEX
  8
0
  6
CONTINUOUS
 10
2.577520
 20
4.304520
  0
VERTEX
  8
0
  6
CONTINUOUS
 10
2.100120
 20
4.781480
  0
VERTEX
  8
0
  6
CONTINUOUS
 10
2.096160
 20
4.779280
  0
VERTEX
  8
0
  6
CONTINUOUS
 10
1.841840
 20
4.523200
  0
VERTEX
  8
0
  6
CONTINUOUS
 10
1.837880
 20
4.521000
  0
VERTEX
  8
0
  6
CONTINUOUS
 10
1.799600
 20
4.562360
  0
VERTEX
  8
0
  6
CONTINUOUS
 10
1.778040
 20
4.592720
  0
VERTEX
  8
0
  6
CONTINUOUS
 10
1.759120
 20
4.625280
  0
VERTEX
  8
0
  6
CONTINUOUS
 10
1.743720
 20
4.659600
  0
VERTEX
  8
0
  6
CONTINUOUS
 10
1.731840
 20
4.695680
  0
VERTEX
  8
0
  6
CONTINUOUS
 10
1.723920
 20
4.733080
  0
VERTEX
  8
0
  6
CONTINUOUS
 10
1.719520
 20
4.771800
  0
VERTEX
  8
0
  6
CONTINUOUS
 10
1.719520
 20
4.810960
  0
VERTEX
  8
0
  6
CONTINUOUS
 10
1.723040
 20
4.849240
  0
VERTEX
  8
0
  6
CONTINUOUS
 10
1.735360
 20
4.903800
  0
VERTEX
  8
0
  6
CONTINUOUS
 10
1.747680
 20
4.938120
  0
VERTEX
  8
0
  6
CONTINUOUS
 10
1.763080
 20
4.971120
  0
VERTEX
  8
0
  6
CONTINUOUS
 10
1.781560
 20
5.002360
  0
VERTEX
  8
0
  6
CONTINUOUS
 10
1.803120
 20
5.031400
  0
VERTEX
  8
0
  6
CONTINUOUS
 10
1.827320
 20
5.058240
  0
VERTEX
  8
0
  6
CONTINUOUS
 10
1.829520
 20
5.058680
  0
VERTEX
  8
0
  6
CONTINUOUS
 10
1.887600
 20
5.115880
  0
VERTEX
  8
0
  6
CONTINUOUS
 10
1.947000
 20
5.171760
  0
VERTEX
  8
0
  6
CONTINUOUS
 10
2.007720
 20
5.225880
  0
VERTEX
  8
0
  6
CONTINUOUS
 10
2.069760
 20
5.278680
  0
VERTEX
  8
0
  6
CONTINUOUS
 10
2.197360
 20
5.380320
  0
VERTEX
  8
0
  6
CONTINUOUS
 10
2.262920
 20
5.428720
  0
VERTEX
  8
0
  6
CONTINUOUS
 10
2.329800
 20
5.475800
  0
VERTEX
  8
0
  6
CONTINUOUS
 10
2.397560
 20
5.521120
  0
VERTEX
  8
0
  6
CONTINUOUS
 10
2.466640
 20
5.564680
  0
VERTEX
  8
0
  6
CONTINUOUS
 10
2.537040
 20
5.606920
  0
VERTEX
  8
0
  6
CONTINUOUS
 10
2.608320
 20
5.647400
  0
VERTEX
  8
0
  6
CONTINUOUS
 10
2.680480
 20
5.686120
  0
VERTEX
  8
0
  6
CONTINUOUS
 10
2.753960
 20
5.723080
  0
VERTEX
  8
0
  6
CONTINUOUS
 10
2.828320
 20
5.758280
  0
VERTEX
  8
0
  6
CONTINUOUS
 10
2.903560
 20
5.791720
  0
VERTEX
  8
0
  6
CONTINUOUS
 10
2.979680
 20
5.823400
  0
VERTEX
  8
0
  6
CONTINUOUS
 10
3.057120
 20
5.853320
  0
VERTEX
  8
0
  6
CONTINUOUS
 10
3.135000
 20
5.881480
  0
VERTEX
  8
0
  6
CONTINUOUS
 10
3.214200
 20
5.907440
  0
VERTEX
  8
0
  6
CONTINUOUS
 10
3.293840
 20
5.931640
  0
VERTEX
  8
0
  6
CONTINUOUS
 10
3.374360
 20
5.954080
  0
VERTEX
  8
0
  6
CONTINUOUS
 10
3.455760
 20
5.974320
  0
VERTEX
  8
0
  6
CONTINUOUS
 10
3.538040
 20
5.992360
  0
VERTEX
  8
0
  6
CONTINUOUS
 10
3.621200
 20
6.008640
  0
VERTEX
  8
0
  6
CONTINUOUS
 10
3.704800
 20
6.022720
  0
VERTEX
  8
0
  6
CONTINUOUS
 10
3.789280
 20
6.035040
  0
VERTEX
  8
0
  6
CONTINUOUS
 10
3.874640
 20
6.044720
  0
VERTEX
  8
0
  6
CONTINUOUS
 10
3.960440
 20
6.052640
  0
VERTEX
  8
0
  6
CONTINUOUS
 10
4.046680
 20
6.058360
  0
VERTEX
  8
0
  6
CONTINUOUS
 10
4.133800
 20
6.061440
  0
VERTEX
  8
0
  6
CONTINUOUS
 10
4.221360
 20
6.062760
  0
VERTEX
  8
0
  6
CONTINUOUS
 10
4.221360
 20
6.068920
  0
VERTEX
  8
0
  6
CONTINUOUS
 10
4.308920
 20
6.067600
  0
VERTEX
  8
0
  6
CONTINUOUS
 10
4.396040
 20
6.064520
  0
VERTEX
  8
0
  6
CONTINUOUS
 10
4.482280
 20
6.058800
  0
VERTEX
  8
0
  6
CONTINUOUS
 10
4.568080
 20
6.050880
  0
VERTEX
  8
0
  6
CONTINUOUS
 10
4.653000
 20
6.040760
  0
VERTEX
  8
0
  6
CONTINUOUS
 10
4.737480
 20
6.028440
  0
VERTEX
  8
0
  6
CONTINUOUS
 10
4.821080
 20
6.013920
  0
VERTEX
  8
0
  6
CONTINUOUS
 10
4.904240
 20
5.997200
  0
VERTEX
  8
0
  6
CONTINUOUS
 10
4.986520
 20
5.978720
  0
VERTEX
  8
0
  6
CONTINUOUS
 10
5.067920
 20
5.958480
  0
VERTEX
  8
0
  6
CONTINUOUS
 10
5.148440
 20
5.935600
  0
VERTEX
  8
0
  6
CONTINUOUS
 10
5.228520
 20
5.910960
  0
VERTEX
  8
0
  6
CONTINUOUS
 10
5.307280
 20
5.884560
  0
VERTEX
  8
0
  6
CONTINUOUS
 10
5.385600
 20
5.856400
  0
VERTEX
  8
0
  6
CONTINUOUS
 10
5.462600
 20
5.826040
  0
VERTEX
  8
0
  6
CONTINUOUS
 10
5.538720
 20
5.793920
  0
VERTEX
  8
0
  6
CONTINUOUS
 10
5.613960
 20
5.760040
  0
VERTEX
  8
0
  6
CONTINUOUS
 10
5.688320
 20
5.724400
  0
VERTEX
  8
0
  6
CONTINUOUS
 10
5.761800
 20
5.687000
  0
VERTEX
  8
0
  6
CONTINUOUS
 10
5.833960
 20
5.647840
  0
VERTEX
  8
0
  6
CONTINUOUS
 10
5.905240
 20
5.606920
  0
VERTEX
  8
0
  6
CONTINUOUS
 10
5.975640
 20
5.564240
  0
VERTEX
  8
0
  6
CONTINUOUS
 10
6.044720
 20
5.520240
  0
VERTEX
  8
0
  6
CONTINUOUS
 10
6.112480
 20
5.474920
  0
VERTEX
  8
0
  6
CONTINUOUS
 10
6.244920
 20
5.379000
  0
VERTEX
  8
0
  6
CONTINUOUS
 10
6.309600
 20
5.328840
  0
VERTEX
  8
0
  6
CONTINUOUS
 10
6.434560
 20
5.223680
  0
VERTEX
  8
0
  6
CONTINUOUS
 10
6.495280
 20
5.169560
  0
VERTEX
  8
0
  6
CONTINUOUS
 10
6.554680
 20
5.113680
  0
VERTEX
  8
0
  6
CONTINUOUS
 10
6.627280
 20
5.043280
  0
VERTEX
  8
0
  6
CONTINUOUS
 10
6.650600
 20
5.015120
  0
VERTEX
  8
0
  6
CONTINUOUS
 10
6.670400
 20
4.985200
  0
VERTEX
  8
0
  6
CONTINUOUS
 10
6.695040
 20
4.936360
  0
VERTEX
  8
0
  6
CONTINUOUS
 10
6.711760
 20
4.884000
  0
VERTEX
  8
0
  6
CONTINUOUS
 10
6.719240
 20
4.847040
  0
VERTEX
  8
0
  6
CONTINUOUS
 10
6.722760
 20
4.809200
  0
VERTEX
  8
0
  6
CONTINUOUS
 10
6.722760
 20
4.770040
  0
VERTEX
  8
0
  6
CONTINUOUS
 10
6.718360
 20
4.731320
  0
VERTEX
  8
0
  6
CONTINUOUS
 10
6.710440
 20
4.693480
  0
VERTEX
  8
0
  6
CONTINUOUS
 10
6.698560
 20
4.657400
  0
VERTEX
  8
0
  6
CONTINUOUS
 10
6.683160
 20
4.623080
  0
VERTEX
  8
0
  6
CONTINUOUS
 10
6.664240
 20
4.590520
  0
VERTEX
  8
0
  6
CONTINUOUS
 10
6.642680
 20
4.560160
  0
VERTEX
  8
0
  6
CONTINUOUS
 10
6.604400
 20
4.518800
  0
VERTEX
  8
0
  6
CONTINUOUS
 10
6.600440
 20
4.521000
  0
VERTEX
  8
0
  6
CONTINUOUS
 10
6.346120
 20
4.777080
  0
VERTEX
  8
0
  6
CONTINUOUS
 10
6.342160
 20
4.779280
  0
VERTEX
  8
0
  6
CONTINUOUS
 10
5.858600
 20
4.296160
  0
VERTEX
  8
0
  6
CONTINUOUS
 10
2.581480
 20
4.296160
  0
VERTEX
  8
0
  6
CONTINUOUS
 10
2.577520
 20
4.304520
  0
SEQEND
  8
0
  0
SOLID
  8
0
 62
    15
 10
4.420240
 20
3.075160
 11
4.425080
 21
3.813480
 12
4.594920
 22
3.080000
 13
4.599760
 23
3.817880
  0
POLYLINE
  8
0
  6
CONTINUOUS
 66
     1
 40
0.000000
 41
0.000000
  0
VERTEX
  8
0
  6
CONTINUOUS
 10
4.420240
 20
3.075160
  0
VERTEX
  8
0
  6
CONTINUOUS
 10
4.425080
 20
3.813480
  0
VERTEX
  8
0
  6
CONTINUOUS
 10
4.599760
 20
3.817880
  0
VERTEX
  8
0
  6
CONTINUOUS
 10
4.594920
 20
3.080000
  0
VERTEX
  8
0
  6
CONTINUOUS
 10
4.420240
 20
3.075160
  0
SEQEND
  8
0
  0
SOLID
  8
0
 62
    15
 10
2.100120
 20
1.884960
 11
2.104960
 21
2.622840
 12
2.121240
 22
1.955800
 13
2.126080
 23
2.693680
  0
POLYLINE
  8
0
  6
CONTINUOUS
 66
     1
 40
0.000000
 41
0.000000
  0
VERTEX
  8
0
  6
CONTINUOUS
 10
2.100120
 20
1.884960
  0
VERTEX
  8
0
  6
CONTINUOUS
 10
2.104960
 20
2.622840
  0
VERTEX
  8
0
  6
CONTINUOUS
 10
2.126080
 20
2.693680
  0
VERTEX
  8
0
  6
CONTINUOUS
 10
2.121240
 20
1.955800
  0
VERTEX
  8
0
  6
CONTINUOUS
 10
2.100120
 20
1.884960
  0
SEQEND
  8
0
  0
SOLID
  8
0
 62
    15
 10
2.121240
 20
1.955800
 11
2.126080
 21
2.693680
 12
2.155120
 22
2.019600
 13
2.159960
 23
2.757480
  0
POLYLINE
  8
0
  6
CONTINUOUS
 66
     1
 40
0.000000
 41
0.000000
  0
VERTEX
  8
0
  6
CONTINUOUS
 10
2.121240
 20
1.955800
  0
VERTEX
  8
0
  6
CONTINUOUS
 10
2.126080
 20
2.693680
  0
VERTEX
  8
0
  6
CONTINUOUS
 10
2.159960
 20
2.757480
  0
VERTEX
  8
0
  6
CONTINUOUS
 10
2.155120
 20
2.019600
  0
VERTEX
  8
0
  6
CONTINUOUS
 10
2.121240
 20
1.955800
  0
SEQEND
  8
0
  0
SOLID
  8
0
 62
    15
 10
2.155120
 20
2.019600
 11
2.159960
 21
2.757480
 12
2.201320
 22
2.075480
 13
2.206160
 23
2.813360
  0
POLYLINE
  8
0
  6
CONTINUOUS
 66
     1
 40
0.000000
 41
0.000000
  0
VERTEX
  8
0
  6
CONTINUOUS
 10
2.155120
 20
2.019600
  0
VERTEX
  8
0
  6
CONTINUOUS
 10
2.159960
 20
2.757480
  0
VERTEX
  8
0
  6
CONTINUOUS
 10
2.206160
 20
2.813360
  0
VERTEX
  8
0
  6
CONTINUOUS
 10
2.201320
 20
2.075480
  0
VERTEX
  8
0
  6
CONTINUOUS
 10
2.155120
 20
2.019600
  0
SEQEND
  8
0
  0
SOLID
  8
0
 62
    15
 10
2.201320
 20
2.075480
 11
2.206160
 21
2.813360
 12
2.203520
 22
2.075480
 13
2.207920
 23
2.813800
  0
POLYLINE
  8
0
  6
CONTINUOUS
 66
     1
 40
0.000000
 41
0.000000
  0
VERTEX
  8
0
  6
CONTINUOUS
 10
2.201320
 20
2.075480
  0
VERTEX
  8
0
  6
CONTINUOUS
 10
2.206160
 20
2.813360
  0
VERTEX
  8
0
  6
CONTINUOUS
 10
2.207920
 20
2.813800
  0
VERTEX
  8
0
  6
CONTINUOUS
 10
2.203520
 20
2.075480
  0
VERTEX
  8
0
  6
CONTINUOUS
 10
2.201320
 20
2.075480
  0
SEQEND
  8
0
  0
SOLID
  8
0
 62
    15
 10
2.203520
 20
2.075480
 11
2.207920
 21
2.813800
 12
2.443320
 22
2.295920
 13
2.448160
 23
3.033800
  0
POLYLINE
  8
0
  6
CONTINUOUS
 66
     1
 40
0.000000
 41
0.000000
  0
VERTEX
  8
0
  6
CONTINUOUS
 10
2.203520
 20
2.075480
  0
VERTEX
  8
0
  6
CONTINUOUS
 10
2.207920
 20
2.813800
  0
VERTEX
  8
0
  6
CONTINUOUS
 10
2.448160
 20
3.033800
  0
VERTEX
  8
0
  6
CONTINUOUS
 10
2.443320
 20
2.295920
  0
VERTEX
  8
0
  6
CONTINUOUS
 10
2.203520
 20
2.075480
  0
SEQEND
  8
0
  0
SOLID
  8
0
 62
    15
 10
2.443320
 20
2.295920
 11
2.448160
 21
3.033800
 12
2.703360
 22
2.492600
 13
2.708200
 23
3.230480
  0
POLYLINE
  8
0
  6
CONTINUOUS
 66
     1
 40
0.000000
 41
0.000000
  0
VERTEX
  8
0
  6
CONTINUOUS
 10
2.443320
 20
2.295920
  0
VERTEX
  8
0
  6
CONTINUOUS
 10
2.448160
 20
3.033800
  0
VERTEX
  8
0
  6
CONTINUOUS
 10
2.708200
 20
3.230480
  0
VERTEX
  8
0
  6
CONTINUOUS
 10
2.703360
 20
2.492600
  0
VERTEX
  8
0
  6
CONTINUOUS
 10
2.443320
 20
2.295920
  0
SEQEND
  8
0
  0
SOLID
  8
0
 62
    15
 10
2.703360
 20
2.492600
 11
2.708200
 21
3.230480
 12
2.981880
 22
2.664640
 13
2.986720
 23
3.402520
  0
POLYLINE
  8
0
  6
CONTINUOUS
 66
     1
 40
0.000000
 41
0.000000
  0
VERTEX
  8
0
  6
CONTINUOUS
 10
2.703360
 20
2.492600
  0
VERTEX
  8
0
  6
CONTINUOUS
 10
2.708200
 20
3.230480
  0
VERTEX
  8
0
  6
CONTINUOUS
 10
2.986720
 20
3.402520
  0
VERTEX
  8
0
  6
CONTINUOUS
 10
2.981880
 20
2.664640
  0
VERTEX
  8
0
  6
CONTINUOUS
 10
2.703360
 20
2.492600
  0
SEQEND
  8
0
  0
SOLID
  8
0
 62
    15
 10
2.981880
 20
2.664640
 11
2.986720
 21
3.402520
 12
3.277120
 22
2.808960
 13
3.281960
 23
3.546840
  0
POLYLINE
  8
0
  6
CONTINUOUS
 66
     1
 40
0.000000
 41
0.000000
  0
VERTEX
  8
0
  6
CONTINUOUS
 10
2.981880
 20
2.664640
  0
VERTEX
  8
0
  6
CONTINUOUS
 10
2.986720
 20
3.402520
  0
VERTEX
  8
0
  6
CONTINUOUS
 10
3.281960
 20
3.546840
  0
VERTEX
  8
0
  6
CONTINUOUS
 10
3.277120
 20
2.808960
  0
VERTEX
  8
0
  6
CONTINUOUS
 10
2.981880
 20
2.664640
  0
SEQEND
  8
0
  0
SOLID
  8
0
 62
    15
 10
3.277120
 20
2.808960
 11
3.281960
 21
3.546840
 12
3.430680
 22
2.870560
 13
3.435520
 23
3.608440
  0
POLYLINE
  8
0
  6
CONTINUOUS
 66
     1
 40
0.000000
 41
0.000000
  0
VERTEX
  8
0
  6
CONTINUOUS
 10
3.277120
 20
2.808960
  0
VERTEX
  8
0
  6
CONTINUOUS
 10
3.281960
 20
3.546840
  0
VERTEX
  8
0
  6
CONTINUOUS
 10
3.435520
 20
3.608440
  0
VERTEX
  8
0
  6
CONTINUOUS
 10
3.430680
 20
2.870560
  0
VERTEX
  8
0
  6
CONTINUOUS
 10
3.277120
 20
2.808960
  0
SEQEND
  8
0
  0
SOLID
  8
0
 62
    15
 10
3.430680
 20
2.870560
 11
3.435520
 21
3.608440
 12
3.587760
 22
2.924680
 13
3.592600
 23
3.662560
  0
POLYLINE
  8
0
  6
CONTINUOUS
 66
     1
 40
0.000000
 41
0.000000
  0
VERTEX
  8
0
  6
CONTINUOUS
 10
3.430680
 20
2.870560
  0
VERTEX
  8
0
  6
CONTINUOUS
 10
3.435520
 20
3.608440
  0
VERTEX
  8
0
  6
CONTINUOUS
 10
3.592600
 20
3.662560
  0
VERTEX
  8
0
  6
CONTINUOUS
 10
3.587760
 20
2.924680
  0
VERTEX
  8
0
  6
CONTINUOUS
 10
3.430680
 20
2.870560
  0
SEQEND
  8
0
  0
SOLID
  8
0
 62
    15
 10
3.587760
 20
2.924680
 11
3.592600
 21
3.662560
 12
3.747920
 22
2.971320
 13
3.752760
 23
3.709200
  0
POLYLINE
  8
0
  6
CONTINUOUS
 66
     1
 40
0.000000
 41
0.000000
  0
VERTEX
  8
0
  6
CONTINUOUS
 10
3.587760
 20
2.924680
  0
VERTEX
  8
0
  6
CONTINUOUS
 10
3.592600
 20
3.662560
  0
VERTEX
  8
0
  6
CONTINUOUS
 10
3.752760
 20
3.709200
  0
VERTEX
  8
0
  6
CONTINUOUS
 10
3.747920
 20
2.971320
  0
VERTEX
  8
0
  6
CONTINUOUS
 10
3.587760
 20
2.924680
  0
SEQEND
  8
0
  0
SOLID
  8
0
 62
    15
 10
3.747920
 20
2.971320
 11
3.752760
 21
3.709200
 12
3.912040
 22
3.009600
 13
3.916440
 23
3.747480
  0
POLYLINE
  8
0
  6
CONTINUOUS
 66
     1
 40
0.000000
 41
0.000000
  0
VERTEX
  8
0
  6
CONTINUOUS
 10
3.747920
 20
2.971320
  0
VERTEX
  8
0
  6
CONTINUOUS
 10
3.752760
 20
3.709200
  0
VERTEX
  8
0
  6
CONTINUOUS
 10
3.916440
 20
3.747480
  0
VERTEX
  8
0
  6
CONTINUOUS
 10
3.912040
 20
3.009600
  0
VERTEX
  8
0
  6
CONTINUOUS
 10
3.747920
 20
2.971320
  0
SEQEND
  8
0
  0
SOLID
  8
0
 62
    15
 10
3.912040
 20
3.009600
 11
3.916440
 21
3.747480
 12
4.078360
 22
3.039960
 13
4.083200
 23
3.777840
  0
POLYLINE
  8
0
  6
CONTINUOUS
 66
     1
 40
0.000000
 41
0.000000
  0
VERTEX
  8
0
  6
CONTINUOUS
 10
3.912040
 20
3.009600
  0
VERTEX
  8
0
  6
CONTINUOUS
 10
3.916440
 20
3.747480
  0
VERTEX
  8
0
  6
CONTINUOUS
 10
4.083200
 20
3.777840
  0
VERTEX
  8
0
  6
CONTINUOUS
 10
4.078360
 20
3.039960
  0
VERTEX
  8
0
  6
CONTINUOUS
 10
3.912040
 20
3.009600
  0
SEQEND
  8
0
  0
SOLID
  8
0
 62
    15
 10
4.078360
 20
3.039960
 11
4.083200
 21
3.777840
 12
4.248200
 22
3.061960
 13
4.253040
 23
3.799840
  0
POLYLINE
  8
0
  6
CONTINUOUS
 66
     1
 40
0.000000
 41
0.000000
  0
VERTEX
  8
0
  6
CONTINUOUS
 10
4.078360
 20
3.039960
  0
VERTEX
  8
0
  6
CONTINUOUS
 10
4.083200
 20
3.777840
  0
VERTEX
  8
0
  6
CONTINUOUS
 10
4.253040
 20
3.799840
  0
VERTEX
  8
0
  6
CONTINUOUS
 10
4.248200
 20
3.061960
  0
VERTEX
  8
0
  6
CONTINUOUS
 10
4.078360
 20
3.039960
  0
SEQEND
  8
0
  0
SOLID
  8
0
 62
    15
 10
4.248200
 20
3.061960
 11
4.253040
 21
3.799840
 12
4.420240
 22
3.075160
 13
4.425080
 23
3.813480
  0
POLYLINE
  8
0
  6
CONTINUOUS
 66
     1
 40
0.000000
 41
0.000000
  0
VERTEX
  8
0
  6
CONTINUOUS
 10
4.248200
 20
3.061960
  0
VERTEX
  8
0
  6
CONTINUOUS
 10
4.253040
 20
3.799840
  0
VERTEX
  8
0
  6
CONTINUOUS
 10
4.425080
 20
3.813480
  0
VERTEX
  8
0
  6
CONTINUOUS
 10
4.420240
 20
3.075160
  0
VERTEX
  8
0
  6
CONTINUOUS
 10
4.248200
 20
3.061960
  0
SEQEND
  8
0
  0
SOLID
  8
0
 62
    15
 10
4.594920
 20
3.086160
 11
4.599760
 21
3.824040
 12
4.769600
 22
3.081320
 13
4.774440
 23
3.819640
  0
POLYLINE
  8
0
  6
CONTINUOUS
 66
     1
 40
0.000000
 41
0.000000
  0
VERTEX
  8
0
  6
CONTINUOUS
 10
4.594920
 20
3.086160
  0
VERTEX
  8
0
  6
CONTINUOUS
 10
4.599760
 20
3.824040
  0
VERTEX
  8
0
  6
CONTINUOUS
 10
4.774440
 20
3.819640
  0
VERTEX
  8
0
  6
CONTINUOUS
 10
4.769600
 20
3.081320
  0
VERTEX
  8
0
  6
CONTINUOUS
 10
4.594920
 20
3.086160
  0
SEQEND
  8
0
  0
SOLID
  8
0
 62
    15
 10
2.093080
 20
1.808840
 11
2.097480
 21
2.546720
 12
2.100120
 22
1.884960
 13
2.104960
 23
2.622840
  0
POLYLINE
  8
0
  6
CONTINUOUS
 66
     1
 40
0.000000
 41
0.000000
  0
VERTEX
  8
0
  6
CONTINUOUS
 10
2.093080
 20
1.808840
  0
VERTEX
  8
0
  6
CONTINUOUS
 10
2.097480
 20
2.546720
  0
VERTEX
  8
0
  6
CONTINUOUS
 10
2.104960
 20
2.622840
  0
VERTEX
  8
0
  6
CONTINUOUS
 10
2.100120
 20
1.884960
  0
VERTEX
  8
0
  6
CONTINUOUS
 10
2.093080
 20
1.808840
  0
SEQEND
  8
0
  0
SOLID
  8
0
 62
    15
 10
4.769600
 20
3.081320
 11
4.774440
 21
3.819640
 12
4.941640
 22
3.067680
 13
4.946480
 23
3.806000
  0
POLYLINE
  8
0
  6
CONTINUOUS
 66
     1
 40
0.000000
 41
0.000000
  0
VERTEX
  8
0
  6
CONTINUOUS
 10
4.769600
 20
3.081320
  0
VERTEX
  8
0
  6
CONTINUOUS
 10
4.774440
 20
3.819640
  0
VERTEX
  8
0
  6
CONTINUOUS
 10
4.946480
 20
3.806000
  0
VERTEX
  8
0
  6
CONTINUOUS
 10
4.941640
 20
3.067680
  0
VERTEX
  8
0
  6
CONTINUOUS
 10
4.769600
 20
3.081320
  0
SEQEND
  8
0
  0
SOLID
  8
0
 62
    15
 10
4.941640
 20
3.067680
 11
4.946480
 21
3.806000
 12
5.111040
 22
3.045680
 13
5.115880
 23
3.783560
  0
POLYLINE
  8
0
  6
CONTINUOUS
 66
     1
 40
0.000000
 41
0.000000
  0
VERTEX
  8
0
  6
CONTINUOUS
 10
4.941640
 20
3.067680
  0
VERTEX
  8
0
  6
CONTINUOUS
 10
4.946480
 20
3.806000
  0
VERTEX
  8
0
  6
CONTINUOUS
 10
5.115880
 20
3.783560
  0
VERTEX
  8
0
  6
CONTINUOUS
 10
5.111040
 20
3.045680
  0
VERTEX
  8
0
  6
CONTINUOUS
 10
4.941640
 20
3.067680
  0
SEQEND
  8
0
  0
SOLID
  8
0
 62
    15
 10
5.111040
 20
3.045680
 11
5.115880
 21
3.783560
 12
5.277800
 22
3.014440
 13
5.282640
 23
3.752760
  0
POLYLINE
  8
0
  6
CONTINUOUS
 66
     1
 40
0.000000
 41
0.000000
  0
VERTEX
  8
0
  6
CONTINUOUS
 10
5.111040
 20
3.045680
  0
VERTEX
  8
0
  6
CONTINUOUS
 10
5.115880
 20
3.783560
  0
VERTEX
  8
0
  6
CONTINUOUS
 10
5.282640
 20
3.752760
  0
VERTEX
  8
0
  6
CONTINUOUS
 10
5.277800
 20
3.014440
  0
VERTEX
  8
0
  6
CONTINUOUS
 10
5.111040
 20
3.045680
  0
SEQEND
  8
0
  0
SOLID
  8
0
 62
    15
 10
5.277800
 20
3.014440
 11
5.282640
 21
3.752760
 12
5.441480
 22
2.975720
 13
5.446320
 23
3.713600
  0
POLYLINE
  8
0
  6
CONTINUOUS
 66
     1
 40
0.000000
 41
0.000000
  0
VERTEX
  8
0
  6
CONTINUOUS
 10
5.277800
 20
3.014440
  0
VERTEX
  8
0
  6
CONTINUOUS
 10
5.282640
 20
3.752760
  0
VERTEX
  8
0
  6
CONTINUOUS
 10
5.446320
 20
3.713600
  0
VERTEX
  8
0
  6
CONTINUOUS
 10
5.441480
 20
2.975720
  0
VERTEX
  8
0
  6
CONTINUOUS
 10
5.277800
 20
3.014440
  0
SEQEND
  8
0
  0
SOLID
  8
0
 62
    15
 10
5.441480
 20
2.975720
 11
5.446320
 21
3.713600
 12
5.602080
 22
2.928200
 13
5.606920
 23
3.666520
  0
POLYLINE
  8
0
  6
CONTINUOUS
 66
     1
 40
0.000000
 41
0.000000
  0
VERTEX
  8
0
  6
CONTINUOUS
 10
5.441480
 20
2.975720
  0
VERTEX
  8
0
  6
CONTINUOUS
 10
5.446320
 20
3.713600
  0
VERTEX
  8
0
  6
CONTINUOUS
 10
5.606920
 20
3.666520
  0
VERTEX
  8
0
  6
CONTINUOUS
 10
5.602080
 20
2.928200
  0
VERTEX
  8
0
  6
CONTINUOUS
 10
5.441480
 20
2.975720
  0
SEQEND
  8
0
  0
SOLID
  8
0
 62
    15
 10
5.602080
 20
2.928200
 11
5.606920
 21
3.666520
 12
5.759160
 22
2.873640
 13
5.764000
 23
3.611520
  0
POLYLINE
  8
0
  6
CONTINUOUS
 66
     1
 40
0.000000
 41
0.000000
  0
VERTEX
  8
0
  6
CONTINUOUS
 10
5.602080
 20
2.928200
  0
VERTEX
  8
0
  6
CONTINUOUS
 10
5.606920
 20
3.666520
  0
VERTEX
  8
0
  6
CONTINUOUS
 10
5.764000
 20
3.611520
  0
VERTEX
  8
0
  6
CONTINUOUS
 10
5.759160
 20
2.873640
  0
VERTEX
  8
0
  6
CONTINUOUS
 10
5.602080
 20
2.928200
  0
SEQEND
  8
0
  0
SOLID
  8
0
 62
    15
 10
5.759160
 20
2.873640
 11
5.764000
 21
3.611520
 12
5.912720
 22
2.811160
 13
5.917560
 23
3.549040
  0
POLYLINE
  8
0
  6
CONTINUOUS
 66
     1
 40
0.000000
 41
0.000000
  0
VERTEX
  8
0
  6
CONTINUOUS
 10
5.759160
 20
2.873640
  0
VERTEX
  8
0
  6
CONTINUOUS
 10
5.764000
 20
3.611520
  0
VERTEX
  8
0
  6
CONTINUOUS
 10
5.917560
 20
3.549040
  0
VERTEX
  8
0
  6
CONTINUOUS
 10
5.912720
 20
2.811160
  0
VERTEX
  8
0
  6
CONTINUOUS
 10
5.759160
 20
2.873640
  0
SEQEND
  8
0
  0
SOLID
  8
0
 62
    15
 10
5.912720
 20
2.811160
 11
5.917560
 21
3.549040
 12
6.207960
 22
2.665080
 13
6.212800
 23
3.402960
  0
POLYLINE
  8
0
  6
CONTINUOUS
 66
     1
 40
0.000000
 41
0.000000
  0
VERTEX
  8
0
  6
CONTINUOUS
 10
5.912720
 20
2.811160
  0
VERTEX
  8
0
  6
CONTINUOUS
 10
5.917560
 20
3.549040
  0
VERTEX
  8
0
  6
CONTINUOUS
 10
6.212800
 20
3.402960
  0
VERTEX
  8
0
  6
CONTINUOUS
 10
6.207960
 20
2.665080
  0
VERTEX
  8
0
  6
CONTINUOUS
 10
5.912720
 20
2.811160
  0
SEQEND
  8
0
  0
SOLID
  8
0
 62
    15
 10
6.207960
 20
2.665080
 11
6.212800
 21
3.402960
 12
6.486480
 22
2.492160
 13
6.491320
 23
3.230040
  0
POLYLINE
  8
0
  6
CONTINUOUS
 66
     1
 40
0.000000
 41
0.000000
  0
VERTEX
  8
0
  6
CONTINUOUS
 10
6.207960
 20
2.665080
  0
VERTEX
  8
0
  6
CONTINUOUS
 10
6.212800
 20
3.402960
  0
VERTEX
  8
0
  6
CONTINUOUS
 10
6.491320
 20
3.230040
  0
VERTEX
  8
0
  6
CONTINUOUS
 10
6.486480
 20
2.492160
  0
VERTEX
  8
0
  6
CONTINUOUS
 10
6.207960
 20
2.665080
  0
SEQEND
  8
0
  0
SOLID
  8
0
 62
    15
 10
6.486480
 20
2.492160
 11
6.491320
 21
3.230040
 12
6.746520
 22
2.294160
 13
6.751360
 23
3.032040
  0
POLYLINE
  8
0
  6
CONTINUOUS
 66
     1
 40
0.000000
 41
0.000000
  0
VERTEX
  8
0
  6
CONTINUOUS
 10
6.486480
 20
2.492160
  0
VERTEX
  8
0
  6
CONTINUOUS
 10
6.491320
 20
3.230040
  0
VERTEX
  8
0
  6
CONTINUOUS
 10
6.751360
 20
3.032040
  0
VERTEX
  8
0
  6
CONTINUOUS
 10
6.746520
 20
2.294160
  0
VERTEX
  8
0
  6
CONTINUOUS
 10
6.486480
 20
2.492160
  0
SEQEND
  8
0
  0
SOLID
  8
0
 62
    15
 10
6.746520
 20
2.294160
 11
6.751360
 21
3.032040
 12
6.986760
 22
2.073720
 13
6.991600
 23
2.811600
  0
POLYLINE
  8
0
  6
CONTINUOUS
 66
     1
 40
0.000000
 41
0.000000
  0
VERTEX
  8
0
  6
CONTINUOUS
 10
6.746520
 20
2.294160
  0
VERTEX
  8
0
  6
CONTINUOUS
 10
6.751360
 20
3.032040
  0
VERTEX
  8
0
  6
CONTINUOUS
 10
6.991600
 20
2.811600
  0
VERTEX
  8
0
  6
CONTINUOUS
 10
6.986760
 20
2.073720
  0
VERTEX
  8
0
  6
CONTINUOUS
 10
6.746520
 20
2.294160
  0
SEQEND
  8
0
  0
SOLID
  8
0
 62
    15
 10
6.986760
 20
2.073720
 11
6.991600
 21
2.811600
 12
6.988960
 22
2.073720
 13
6.993360
 23
2.811600
  0
POLYLINE
  8
0
  6
CONTINUOUS
 66
     1
 40
0.000000
 41
0.000000
  0
VERTEX
  8
0
  6
CONTINUOUS
 10
6.986760
 20
2.073720
  0
VERTEX
  8
0
  6
CONTINUOUS
 10
6.991600
 20
2.811600
  0
VERTEX
  8
0
  6
CONTINUOUS
 10
6.993360
 20
2.811600
  0
VERTEX
  8
0
  6
CONTINUOUS
 10
6.988960
 20
2.073720
  0
VERTEX
  8
0
  6
CONTINUOUS
 10
6.986760
 20
2.073720
  0
SEQEND
  8
0
  0
SOLID
  8
0
 62
    15
 10
6.988960
 20
2.073720
 11
6.993360
 21
2.811600
 12
7.034720
 22
2.017400
 13
7.039560
 23
2.755280
  0
POLYLINE
  8
0
  6
CONTINUOUS
 66
     1
 40
0.000000
 41
0.000000
  0
VERTEX
  8
0
  6
CONTINUOUS
 10
6.988960
 20
2.073720
  0
VERTEX
  8
0
  6
CONTINUOUS
 10
6.993360
 20
2.811600
  0
VERTEX
  8
0
  6
CONTINUOUS
 10
7.039560
 20
2.755280
  0
VERTEX
  8
0
  6
CONTINUOUS
 10
7.034720
 20
2.017400
  0
VERTEX
  8
0
  6
CONTINUOUS
 10
6.988960
 20
2.073720
  0
SEQEND
  8
0
  0
SOLID
  8
0
 62
    15
 10
7.068600
 20
1.953600
 11
7.073440
 21
2.691480
 12
7.089720
 22
1.882760
 13
7.094560
 23
2.620640
  0
POLYLINE
  8
0
  6
CONTINUOUS
 66
     1
 40
0.000000
 41
0.000000
  0
VERTEX
  8
0
  6
CONTINUOUS
 10
7.068600
 20
1.953600
  0
VERTEX
  8
0
  6
CONTINUOUS
 10
7.073440
 20
2.691480
  0
VERTEX
  8
0
  6
CONTINUOUS
 10
7.094560
 20
2.620640
  0
VERTEX
  8
0
  6
CONTINUOUS
 10
7.089720
 20
1.882760
  0
VERTEX
  8
0
  6
CONTINUOUS
 10
7.068600
 20
1.953600
  0
SEQEND
  8
0
  0
SOLID
  8
0
 62
    15
 10
7.034720
 20
2.017400
 11
7.039560
 21
2.755280
 12
7.068600
 22
1.953600
 13
7.073440
 23
2.691480
  0
POLYLINE
  8
0
  6
CONTINUOUS
 66
     1
 40
0.000000
 41
0.000000
  0
VERTEX
  8
0
  6
CONTINUOUS
 10
7.034720
 20
2.017400
  0
VERTEX
  8
0
  6
CONTINUOUS
 10
7.039560
 20
2.755280
  0
VERTEX
  8
0
  6
CONTINUOUS
 10
7.073440
 20
2.691480
  0
VERTEX
  8
0
  6
CONTINUOUS
 10
7.068600
 20
1.953600
  0
VERTEX
  8
0
  6
CONTINUOUS
 10
7.034720
 20
2.017400
  0
SEQEND
  8
0
  0
SOLID
  8
0
 62
    15
 10
7.089720
 20
1.882760
 11
7.094560
 21
2.620640
 12
7.097200
 22
1.807080
 13
7.102040
 23
2.544960
  0
POLYLINE
  8
0
  6
CONTINUOUS
 66
     1
 40
0.000000
 41
0.000000
  0
VERTEX
  8
0
  6
CONTINUOUS
 10
7.089720
 20
1.882760
  0
VERTEX
  8
0
  6
CONTINUOUS
 10
7.094560
 20
2.620640
  0
VERTEX
  8
0
  6
CONTINUOUS
 10
7.102040
 20
2.544960
  0
VERTEX
  8
0
  6
CONTINUOUS
 10
7.097200
 20
1.807080
  0
VERTEX
  8
0
  6
CONTINUOUS
 10
7.089720
 20
1.882760
  0
SEQEND
  8
0
  0
POLYLINE
  8
0
  6
CONTINUOUS
 66
     1
 40
0.000000
 41
0.000000
  0
VERTEX
  8
0
  6
CONTINUOUS
 10
2.951080
 20
1.321320
  0
VERTEX
  8
0
  6
CONTINUOUS
 10
2.474120
 20
1.798720
  0
VERTEX
  8
0
  6
CONTINUOUS
 10
2.470160
 20
1.796520
  0
VERTEX
  8
0
  6
CONTINUOUS
 10
2.215840
 20
1.540440
  0
VERTEX
  8
0
  6
CONTINUOUS
 10
2.211440
 20
1.538240
  0
VERTEX
  8
0
  6
CONTINUOUS
 10
2.162160
 20
1.594560
  0
VERTEX
  8
0
  6
CONTINUOUS
 10
2.124760
 20
1.659680
  0
VERTEX
  8
0
  6
CONTINUOUS
 10
2.101000
 20
1.731400
  0
VERTEX
  8
0
  6
CONTINUOUS
 10
2.093080
 20
1.808840
  0
VERTEX
  8
0
  6
CONTINUOUS
 10
2.100120
 20
1.884960
  0
VERTEX
  8
0
  6
CONTINUOUS
 10
2.121240
 20
1.955800
  0
VERTEX
  8
0
  6
CONTINUOUS
 10
2.155120
 20
2.019600
  0
VERTEX
  8
0
  6
CONTINUOUS
 10
2.201320
 20
2.075480
  0
VERTEX
  8
0
  6
CONTINUOUS
 10
2.203520
 20
2.075480
  0
VERTEX
  8
0
  6
CONTINUOUS
 10
2.443320
 20
2.295920
  0
VERTEX
  8
0
  6
CONTINUOUS
 10
2.703360
 20
2.492600
  0
VERTEX
  8
0
  6
CONTINUOUS
 10
2.981880
 20
2.664640
  0
VERTEX
  8
0
  6
CONTINUOUS
 10
3.277120
 20
2.808960
  0
VERTEX
  8
0
  6
CONTINUOUS
 10
3.430680
 20
2.870560
  0
VERTEX
  8
0
  6
CONTINUOUS
 10
3.587760
 20
2.924680
  0
VERTEX
  8
0
  6
CONTINUOUS
 10
3.747920
 20
2.971320
  0
VERTEX
  8
0
  6
CONTINUOUS
 10
3.912040
 20
3.009600
  0
VERTEX
  8
0
  6
CONTINUOUS
 10
4.078360
 20
3.039960
  0
VERTEX
  8
0
  6
CONTINUOUS
 10
4.248200
 20
3.061960
  0
VERTEX
  8
0
  6
CONTINUOUS
 10
4.420240
 20
3.075160
  0
VERTEX
  8
0
  6
CONTINUOUS
 10
4.594920
 20
3.080000
  0
VERTEX
  8
0
  6
CONTINUOUS
 10
4.594920
 20
3.086160
  0
VERTEX
  8
0
  6
CONTINUOUS
 10
4.769600
 20
3.081320
  0
VERTEX
  8
0
  6
CONTINUOUS
 10
4.941640
 20
3.067680
  0
VERTEX
  8
0
  6
CONTINUOUS
 10
5.111040
 20
3.045680
  0
VERTEX
  8
0
  6
CONTINUOUS
 10
5.277800
 20
3.014440
  0
VERTEX
  8
0
  6
CONTINUOUS
 10
5.441480
 20
2.975720
  0
VERTEX
  8
0
  6
CONTINUOUS
 10
5.602080
 20
2.928200
  0
VERTEX
  8
0
  6
CONTINUOUS
 10
5.759160
 20
2.873640
  0
VERTEX
  8
0
  6
CONTINUOUS
 10
5.912720
 20
2.811160
  0
VERTEX
  8
0
  6
CONTINUOUS
 10
6.207960
 20
2.665080
  0
VERTEX
  8
0
  6
CONTINUOUS
 10
6.486480
 20
2.492160
  0
VERTEX
  8
0
  6
CONTINUOUS
 10
6.746520
 20
2.294160
  0
VERTEX
  8
0
  6
CONTINUOUS
 10
6.986760
 20
2.073720
  0
VERTEX
  8
0
  6
CONTINUOUS
 10
6.988960
 20
2.073720
  0
VERTEX
  8
0
  6
CONTINUOUS
 10
7.034720
 20
2.017400
  0
VERTEX
  8
0
  6
CONTINUOUS
 10
7.068600
 20
1.953600
  0
VERTEX
  8
0
  6
CONTINUOUS
 10
7.089720
 20
1.882760
  0
VERTEX
  8
0
  6
CONTINUOUS
 10
7.097200
 20
1.807080
  0
VERTEX
  8
0
  6
CONTINUOUS
 10
7.088840
 20
1.729640
  0
VERTEX
  8
0
  6
CONTINUOUS
 10
7.065080
 20
1.657480
  0
VERTEX
  8
0
  6
CONTINUOUS
 10
7.027680
 20
1.592360
  0
VERTEX
  8
0
  6
CONTINUOUS
 10
6.978400
 20
1.536040
  0
VERTEX
  8
0
  6
CONTINUOUS
 10
6.974000
 20
1.538240
  0
VERTEX
  8
0
  6
CONTINUOUS
 10
6.720120
 20
1.794320
  0
VERTEX
  8
0
  6
CONTINUOUS
 10
6.715720
 20
1.796520
  0
VERTEX
  8
0
  6
CONTINUOUS
 10
6.232600
 20
1.312960
  0
VERTEX
  8
0
  6
CONTINUOUS
 10
2.955480
 20
1.312960
  0
VERTEX
  8
0
  6
CONTINUOUS
 10
2.951080
 20
1.321320
  0
SEQEND
  8
0
  0
TEXT
  8
0
 10
4.087160
 20
1.054680
 40
0.138113
  1
BA  339A & B
 41
1.000000
  7
SN0
 71
     0
 72
     5
 11
5.102988
 21
1.054680
  0
TEXT
  8
0
 10
4.120600
 20
0.863280
 40
0.138113
  1
1-13/16" x 5"
 41
1.000000
  7
SN0
 71
     0
 72
     5
 11
5.069587
 21
0.863280
  0
ENDSEC
  0
EOF
