  0
SECTION
  2
HEADER
  9
$ACADVER
  1
AC1006
  9
$EXTMIN
 10
4.576880
 20
0.555280
  9
$EXTMAX
 10
7.670520
 20
3.532320
  9
$LTSCALE
 40
0.044000
  9
$PDMODE
 70
    35
  9
$PDSIZE
 40
0.035200
  0
ENDSEC
  0
SECTION
  2
TABLES
  0
TABLE
  2
LTYPE
 70
     9
  0
LTYPE
  2
CONTINUOUS
 70
    64
  3
Solid line
 72
    65
 73
     0
 40
0.000000
  0
LTYPE
  2
DASHED
 70
    64
  3
__ __ __ __ __ __ __ __ __ __ __ __ __ __ __
 72
    65
 73
     2
 40
0.000330
 49
0.000220
 49
-0.000110
  0
LTYPE
  2
HIDDEN
 70
    64
  3
 _ _ _ _ _ _ _ _ _ _ _ _ _ _ _ _ _ _ _ _ _ _
 72
    65
 73
     2
 40
0.000165
 49
0.000110
 49
-0.000055
  0
LTYPE
  2
CENTER
 70
    64
  3
____ _ ____ _ ____ _ ____ _ ____ _ ____ _ ____
 72
    65
 73
     4
 40
0.000880
 49
0.000550
 49
-0.000110
 49
0.000110
 49
-0.000110
  0
LTYPE
  2
PHANTOM
 70
    64
  3
_____ _ _ _____ _ _ _____ _ _ _____ _ _ ____
 72
    65
 73
     6
 40
0.001100
 49
0.000550
 49
-0.000110
 49
0.000110
 49
-0.000110
 49
0.000110
 49
-0.000110
  0
LTYPE
  2
DOT
 70
    64
  3
...............................................
 72
    65
 73
     2
 40
0.000110
 49
0.000000
 49
-0.000110
  0
LTYPE
  2
DASHDOT
 70
    64
  3
__ . __ . __ . __ . __ . __ . __ . __ . __ . __
 72
    65
 73
     4
 40
0.000440
 49
0.000220
 49
-0.000110
 49
0.000000
 49
-0.000110
  0
LTYPE
  2
BORDER
 70
    64
  3
__ __ . __ __ . __ __ . __ __ . __ __ . __ __
 72
    65
 73
     6
 40
0.000770
 49
0.000220
 49
-0.000110
 49
0.000220
 49
-0.000110
 49
0.000000
 49
-0.000110
  0
LTYPE
  2
DIVIDE
 70
    64
  3
__ . . __ . . __ . . __ . . __ . . __ . . __
 72
    65
 73
     6
 40
0.000550
 49
0.000220
 49
-0.000110
 49
0.000000
 49
-0.000110
 49
0.000000
 49
-0.000110
  0
LTYPE
  2
DOTDOT
 70
    64
  3
 . .  . .  . .  . .  . .  . . 
 72
    65
 73
     5
 40
0.000242
 49
-0.000110
 49
0.000000
 49
-0.000110
 49
0.000000
 49
-0.000110
  0
ENDTAB
  0
TABLE
  2
STYLE
 70
     2
  0
STYLE
 70
     0
  2
SN0
 40
0.000000
 41
0.000440
 50
0.000000
 71
     0
 42
0.000000
  3
ROMAND
  0
STYLE
 70
    68
  2
SV0
 40
0.000000
 41
0.000440
 50
0.000000
 71
     0
 42
0.000000
  3
ROMAND
  0
ENDTAB
  0
TABLE
  2
LAYER
 70
     3
  0
LAYER
  2
FOREGROUND
 70
    64
 62
     7
  6
CONTINUOUS
  0
LAYER
  2
BACKGROUND
 70
    65
 62
    -7
  6
CONTINUOUS
  0
LAYER
  2
0
 70
    64
 62
     7
  6
CONTINUOUS
  0
ENDTAB
  0
ENDSEC
  0
SECTION
  2
ENTITIES
  0
POLYLINE
  8
FOREGROUND
  6
CONTINUOUS
 66
     1
 40
0.000000
 41
0.000000
  0
VERTEX
  8
FOREGROUND
  6
CONTINUOUS
 10
0.000000
 20
4.087600
  0
VERTEX
  8
FOREGROUND
  6
CONTINUOUS
 10
8.499920
 20
4.087600
  0
VERTEX
  8
FOREGROUND
  6
CONTINUOUS
 10
8.499920
 20
-6.912400
  0
VERTEX
  8
FOREGROUND
  6
CONTINUOUS
 10
0.000000
 20
-6.912400
  0
VERTEX
  8
FOREGROUND
  6
CONTINUOUS
 10
0.000000
 20
4.087600
  0
SEQEND
  8
0
  0
POLYLINE
  8
FOREGROUND
  6
CONTINUOUS
 66
     1
 40
0.000000
 41
0.000000
  0
VERTEX
  8
FOREGROUND
  6
CONTINUOUS
 10
0.000000
 20
4.087600
  0
VERTEX
  8
FOREGROUND
  6
CONTINUOUS
 10
8.499920
 20
4.087600
  0
VERTEX
  8
FOREGROUND
  6
CONTINUOUS
 10
8.499920
 20
-6.912400
  0
VERTEX
  8
FOREGROUND
  6
CONTINUOUS
 10
0.000000
 20
-6.912400
  0
VERTEX
  8
FOREGROUND
  6
CONTINUOUS
 10
0.000000
 20
4.087600
  0
SEQEND
  8
0
  0
POLYLINE
  8
0
  6
CONTINUOUS
 66
     1
 40
0.014080
 41
0.014080
  0
VERTEX
  8
0
  6
CONTINUOUS
 10
6.946720
 20
3.228720
  0
VERTEX
  8
0
  6
CONTINUOUS
 10
6.976200
 20
3.225640
  0
VERTEX
  8
0
  6
CONTINUOUS
 10
7.000840
 20
3.219480
  0
VERTEX
  8
0
  6
CONTINUOUS
 10
7.026800
 20
3.207600
  0
VERTEX
  8
0
  6
CONTINUOUS
 10
7.045280
 20
3.192200
  0
VERTEX
  8
0
  6
CONTINUOUS
 10
7.058040
 20
3.175040
  0
VERTEX
  8
0
  6
CONTINUOUS
 10
7.065960
 20
3.157880
  0
VERTEX
  8
0
  6
CONTINUOUS
 10
7.071240
 20
3.135440
  0
VERTEX
  8
0
  6
CONTINUOUS
 10
7.071680
 20
2.837120
  0
VERTEX
  8
0
  6
CONTINUOUS
 10
4.584360
 20
2.837120
  0
VERTEX
  8
0
  6
CONTINUOUS
 10
4.584360
 20
3.423640
  0
VERTEX
  8
0
  6
CONTINUOUS
 10
4.588320
 20
3.449160
  0
VERTEX
  8
0
  6
CONTINUOUS
 10
4.593160
 20
3.463680
  0
VERTEX
  8
0
  6
CONTINUOUS
 10
4.607240
 20
3.486560
  0
VERTEX
  8
0
  6
CONTINUOUS
 10
4.616040
 20
3.495800
  0
VERTEX
  8
0
  6
CONTINUOUS
 10
4.635840
 20
3.509000
  0
VERTEX
  8
0
  6
CONTINUOUS
 10
4.656080
 20
3.517360
  0
VERTEX
  8
0
  6
CONTINUOUS
 10
4.674560
 20
3.522200
  0
VERTEX
  8
0
  6
CONTINUOUS
 10
4.697000
 20
3.524400
  0
VERTEX
  8
0
  6
CONTINUOUS
 10
5.128200
 20
3.524400
  0
VERTEX
  8
0
  6
CONTINUOUS
 10
5.126000
 20
3.524400
  0
VERTEX
  8
0
  6
CONTINUOUS
 10
5.137880
 20
3.523960
  0
VERTEX
  8
0
  6
CONTINUOUS
 10
5.160320
 20
3.519120
  0
VERTEX
  8
0
  6
CONTINUOUS
 10
5.180120
 20
3.509440
  0
VERTEX
  8
0
  6
CONTINUOUS
 10
5.198160
 20
3.496240
  0
VERTEX
  8
0
  6
CONTINUOUS
 10
5.220600
 20
3.469840
  0
VERTEX
  8
0
  6
CONTINUOUS
 10
5.237760
 20
3.436400
  0
VERTEX
  8
0
  6
CONTINUOUS
 10
5.245680
 20
3.410880
  0
VERTEX
  8
0
  6
CONTINUOUS
 10
5.248760
 20
3.397680
  0
VERTEX
  8
0
  6
CONTINUOUS
 10
5.267680
 20
3.393280
  0
VERTEX
  8
0
  6
CONTINUOUS
 10
5.336760
 20
3.416160
  0
VERTEX
  8
0
  6
CONTINUOUS
 10
5.400560
 20
3.431560
  0
VERTEX
  8
0
  6
CONTINUOUS
 10
5.460400
 20
3.440360
  0
VERTEX
  8
0
  6
CONTINUOUS
 10
5.516720
 20
3.443440
  0
VERTEX
  8
0
  6
CONTINUOUS
 10
5.569080
 20
3.441240
  0
VERTEX
  8
0
  6
CONTINUOUS
 10
5.618800
 20
3.435080
  0
VERTEX
  8
0
  6
CONTINUOUS
 10
5.665880
 20
3.424960
  0
VERTEX
  8
0
  6
CONTINUOUS
 10
5.710760
 20
3.411760
  0
VERTEX
  8
0
  6
CONTINUOUS
 10
5.754320
 20
3.396360
  0
VERTEX
  8
0
  6
CONTINUOUS
 10
5.796560
 20
3.379640
  0
VERTEX
  8
0
  6
CONTINUOUS
 10
5.920640
 20
3.326400
  0
VERTEX
  8
0
  6
CONTINUOUS
 10
5.984440
 20
3.303080
  0
VERTEX
  8
0
  6
CONTINUOUS
 10
6.050880
 20
3.285040
  0
VERTEX
  8
0
  6
CONTINUOUS
 10
6.115120
 20
3.273600
  0
VERTEX
  8
0
  6
CONTINUOUS
 10
6.191680
 20
3.265240
  0
VERTEX
  8
0
  6
CONTINUOUS
 10
6.257680
 20
3.263920
  0
VERTEX
  8
0
  6
CONTINUOUS
 10
6.300360
 20
3.265680
  0
VERTEX
  8
0
  6
CONTINUOUS
 10
6.357560
 20
3.272720
  0
VERTEX
  8
0
  6
CONTINUOUS
 10
6.412120
 20
3.285480
  0
VERTEX
  8
0
  6
CONTINUOUS
 10
6.421800
 20
3.289000
  0
VERTEX
  8
0
  6
CONTINUOUS
 10
6.421800
 20
3.285040
  0
VERTEX
  8
0
  6
CONTINUOUS
 10
6.449080
 20
3.228720
  0
VERTEX
  8
0
  6
CONTINUOUS
 10
6.946720
 20
3.228720
  0
SEQEND
  8
0
  0
SOLID
  8
0
 62
    15
 10
5.849360
 20
1.572560
 11
5.844520
 21
2.313520
 12
5.863880
 22
1.568600
 13
5.859040
 23
2.309120
  0
POLYLINE
  8
0
  6
CONTINUOUS
 66
     1
 40
0.000000
 41
0.000000
  0
VERTEX
  8
0
  6
CONTINUOUS
 10
5.849360
 20
1.572560
  0
VERTEX
  8
0
  6
CONTINUOUS
 10
5.844520
 20
2.313520
  0
VERTEX
  8
0
  6
CONTINUOUS
 10
5.859040
 20
2.309120
  0
VERTEX
  8
0
  6
CONTINUOUS
 10
5.863880
 20
1.568600
  0
VERTEX
  8
0
  6
CONTINUOUS
 10
5.849360
 20
1.572560
  0
SEQEND
  8
0
  0
SOLID
  8
0
 62
    15
 10
7.583400
 20
1.399200
 11
7.578560
 21
2.139720
 12
7.613320
 22
1.389080
 13
7.608040
 23
2.130040
  0
POLYLINE
  8
0
  6
CONTINUOUS
 66
     1
 40
0.000000
 41
0.000000
  0
VERTEX
  8
0
  6
CONTINUOUS
 10
7.583400
 20
1.399200
  0
VERTEX
  8
0
  6
CONTINUOUS
 10
7.578560
 20
2.139720
  0
VERTEX
  8
0
  6
CONTINUOUS
 10
7.608040
 20
2.130040
  0
VERTEX
  8
0
  6
CONTINUOUS
 10
7.613320
 20
1.389080
  0
VERTEX
  8
0
  6
CONTINUOUS
 10
7.583400
 20
1.399200
  0
SEQEND
  8
0
  0
SOLID
  8
0
 62
    15
 10
7.613320
 20
1.389080
 11
7.608040
 21
2.130040
 12
7.635320
 22
1.375000
 13
7.630040
 23
2.115960
  0
POLYLINE
  8
0
  6
CONTINUOUS
 66
     1
 40
0.000000
 41
0.000000
  0
VERTEX
  8
0
  6
CONTINUOUS
 10
7.613320
 20
1.389080
  0
VERTEX
  8
0
  6
CONTINUOUS
 10
7.608040
 20
2.130040
  0
VERTEX
  8
0
  6
CONTINUOUS
 10
7.630040
 20
2.115960
  0
VERTEX
  8
0
  6
CONTINUOUS
 10
7.635320
 20
1.375000
  0
VERTEX
  8
0
  6
CONTINUOUS
 10
7.613320
 20
1.389080
  0
SEQEND
  8
0
  0
SOLID
  8
0
 62
    15
 10
7.635320
 20
1.375000
 11
7.630040
 21
2.115960
 12
7.650720
 22
1.358720
 13
7.645880
 23
2.099680
  0
POLYLINE
  8
0
  6
CONTINUOUS
 66
     1
 40
0.000000
 41
0.000000
  0
VERTEX
  8
0
  6
CONTINUOUS
 10
7.635320
 20
1.375000
  0
VERTEX
  8
0
  6
CONTINUOUS
 10
7.630040
 20
2.115960
  0
VERTEX
  8
0
  6
CONTINUOUS
 10
7.645880
 20
2.099680
  0
VERTEX
  8
0
  6
CONTINUOUS
 10
7.650720
 20
1.358720
  0
VERTEX
  8
0
  6
CONTINUOUS
 10
7.635320
 20
1.375000
  0
SEQEND
  8
0
  0
SOLID
  8
0
 62
    15
 10
7.650720
 20
1.358720
 11
7.645880
 21
2.099680
 12
7.660840
 22
1.341560
 13
7.656000
 23
2.082520
  0
POLYLINE
  8
0
  6
CONTINUOUS
 66
     1
 40
0.000000
 41
0.000000
  0
VERTEX
  8
0
  6
CONTINUOUS
 10
7.650720
 20
1.358720
  0
VERTEX
  8
0
  6
CONTINUOUS
 10
7.645880
 20
2.099680
  0
VERTEX
  8
0
  6
CONTINUOUS
 10
7.656000
 20
2.082520
  0
VERTEX
  8
0
  6
CONTINUOUS
 10
7.660840
 20
1.341560
  0
VERTEX
  8
0
  6
CONTINUOUS
 10
7.650720
 20
1.358720
  0
SEQEND
  8
0
  0
SOLID
  8
0
 62
    15
 10
7.660840
 20
1.341560
 11
7.656000
 21
2.082520
 12
7.667000
 22
1.324840
 13
7.661720
 23
2.065800
  0
POLYLINE
  8
0
  6
CONTINUOUS
 66
     1
 40
0.000000
 41
0.000000
  0
VERTEX
  8
0
  6
CONTINUOUS
 10
7.660840
 20
1.341560
  0
VERTEX
  8
0
  6
CONTINUOUS
 10
7.656000
 20
2.082520
  0
VERTEX
  8
0
  6
CONTINUOUS
 10
7.661720
 20
2.065800
  0
VERTEX
  8
0
  6
CONTINUOUS
 10
7.667000
 20
1.324840
  0
VERTEX
  8
0
  6
CONTINUOUS
 10
7.660840
 20
1.341560
  0
SEQEND
  8
0
  0
SOLID
  8
0
 62
    15
 10
7.669640
 20
1.310320
 11
7.664360
 21
2.051280
 12
7.670080
 22
1.299760
 13
7.665240
 23
2.040720
  0
POLYLINE
  8
0
  6
CONTINUOUS
 66
     1
 40
0.000000
 41
0.000000
  0
VERTEX
  8
0
  6
CONTINUOUS
 10
7.669640
 20
1.310320
  0
VERTEX
  8
0
  6
CONTINUOUS
 10
7.664360
 20
2.051280
  0
VERTEX
  8
0
  6
CONTINUOUS
 10
7.665240
 20
2.040720
  0
VERTEX
  8
0
  6
CONTINUOUS
 10
7.670080
 20
1.299760
  0
VERTEX
  8
0
  6
CONTINUOUS
 10
7.669640
 20
1.310320
  0
SEQEND
  8
0
  0
SOLID
  8
0
 62
    15
 10
7.667000
 20
1.324840
 11
7.661720
 21
2.065800
 12
7.669640
 22
1.310320
 13
7.664360
 23
2.051280
  0
POLYLINE
  8
0
  6
CONTINUOUS
 66
     1
 40
0.000000
 41
0.000000
  0
VERTEX
  8
0
  6
CONTINUOUS
 10
7.667000
 20
1.324840
  0
VERTEX
  8
0
  6
CONTINUOUS
 10
7.661720
 20
2.065800
  0
VERTEX
  8
0
  6
CONTINUOUS
 10
7.664360
 20
2.051280
  0
VERTEX
  8
0
  6
CONTINUOUS
 10
7.669640
 20
1.310320
  0
VERTEX
  8
0
  6
CONTINUOUS
 10
7.667000
 20
1.324840
  0
SEQEND
  8
0
  0
SOLID
  8
0
 62
    15
 10
5.182760
 20
1.012000
 11
5.177920
 21
1.752960
 12
5.182760
 22
1.589280
 13
5.177920
 23
2.330240
  0
POLYLINE
  8
0
  6
CONTINUOUS
 66
     1
 40
0.000000
 41
0.000000
  0
VERTEX
  8
0
  6
CONTINUOUS
 10
5.182760
 20
1.012000
  0
VERTEX
  8
0
  6
CONTINUOUS
 10
5.177920
 20
1.752960
  0
VERTEX
  8
0
  6
CONTINUOUS
 10
5.177920
 20
2.330240
  0
VERTEX
  8
0
  6
CONTINUOUS
 10
5.182760
 20
1.589280
  0
VERTEX
  8
0
  6
CONTINUOUS
 10
5.182760
 20
1.012000
  0
SEQEND
  8
0
  0
SOLID
  8
0
 62
    15
 10
5.182760
 20
1.589280
 11
5.177920
 21
2.330240
 12
5.186720
 22
1.624480
 13
5.181440
 23
2.365440
  0
POLYLINE
  8
0
  6
CONTINUOUS
 66
     1
 40
0.000000
 41
0.000000
  0
VERTEX
  8
0
  6
CONTINUOUS
 10
5.182760
 20
1.589280
  0
VERTEX
  8
0
  6
CONTINUOUS
 10
5.177920
 20
2.330240
  0
VERTEX
  8
0
  6
CONTINUOUS
 10
5.181440
 20
2.365440
  0
VERTEX
  8
0
  6
CONTINUOUS
 10
5.186720
 20
1.624480
  0
VERTEX
  8
0
  6
CONTINUOUS
 10
5.182760
 20
1.589280
  0
SEQEND
  8
0
  0
SOLID
  8
0
 62
    15
 10
5.186720
 20
1.624480
 11
5.181440
 21
2.365440
 12
5.198160
 22
1.651320
 13
5.192880
 23
2.392280
  0
POLYLINE
  8
0
  6
CONTINUOUS
 66
     1
 40
0.000000
 41
0.000000
  0
VERTEX
  8
0
  6
CONTINUOUS
 10
5.186720
 20
1.624480
  0
VERTEX
  8
0
  6
CONTINUOUS
 10
5.181440
 20
2.365440
  0
VERTEX
  8
0
  6
CONTINUOUS
 10
5.192880
 20
2.392280
  0
VERTEX
  8
0
  6
CONTINUOUS
 10
5.198160
 20
1.651320
  0
VERTEX
  8
0
  6
CONTINUOUS
 10
5.186720
 20
1.624480
  0
SEQEND
  8
0
  0
SOLID
  8
0
 62
    15
 10
5.198160
 20
1.651320
 11
5.192880
 21
2.392280
 12
5.214440
 22
1.670680
 13
5.209600
 23
2.411640
  0
POLYLINE
  8
0
  6
CONTINUOUS
 66
     1
 40
0.000000
 41
0.000000
  0
VERTEX
  8
0
  6
CONTINUOUS
 10
5.198160
 20
1.651320
  0
VERTEX
  8
0
  6
CONTINUOUS
 10
5.192880
 20
2.392280
  0
VERTEX
  8
0
  6
CONTINUOUS
 10
5.209600
 20
2.411640
  0
VERTEX
  8
0
  6
CONTINUOUS
 10
5.214440
 20
1.670680
  0
VERTEX
  8
0
  6
CONTINUOUS
 10
5.198160
 20
1.651320
  0
SEQEND
  8
0
  0
SOLID
  8
0
 62
    15
 10
5.214440
 20
1.670680
 11
5.209600
 21
2.411640
 12
5.234240
 22
1.684320
 13
5.229400
 23
2.425280
  0
POLYLINE
  8
0
  6
CONTINUOUS
 66
     1
 40
0.000000
 41
0.000000
  0
VERTEX
  8
0
  6
CONTINUOUS
 10
5.214440
 20
1.670680
  0
VERTEX
  8
0
  6
CONTINUOUS
 10
5.209600
 20
2.411640
  0
VERTEX
  8
0
  6
CONTINUOUS
 10
5.229400
 20
2.425280
  0
VERTEX
  8
0
  6
CONTINUOUS
 10
5.234240
 20
1.684320
  0
VERTEX
  8
0
  6
CONTINUOUS
 10
5.214440
 20
1.670680
  0
SEQEND
  8
0
  0
SOLID
  8
0
 62
    15
 10
5.234240
 20
1.684320
 11
5.229400
 21
2.425280
 12
5.254480
 22
1.692680
 13
5.249640
 23
2.433640
  0
POLYLINE
  8
0
  6
CONTINUOUS
 66
     1
 40
0.000000
 41
0.000000
  0
VERTEX
  8
0
  6
CONTINUOUS
 10
5.234240
 20
1.684320
  0
VERTEX
  8
0
  6
CONTINUOUS
 10
5.229400
 20
2.425280
  0
VERTEX
  8
0
  6
CONTINUOUS
 10
5.249640
 20
2.433640
  0
VERTEX
  8
0
  6
CONTINUOUS
 10
5.254480
 20
1.692680
  0
VERTEX
  8
0
  6
CONTINUOUS
 10
5.234240
 20
1.684320
  0
SEQEND
  8
0
  0
SOLID
  8
0
 62
    15
 10
5.254480
 20
1.692680
 11
5.249640
 21
2.433640
 12
5.272960
 22
1.697080
 13
5.268120
 23
2.438040
  0
POLYLINE
  8
0
  6
CONTINUOUS
 66
     1
 40
0.000000
 41
0.000000
  0
VERTEX
  8
0
  6
CONTINUOUS
 10
5.254480
 20
1.692680
  0
VERTEX
  8
0
  6
CONTINUOUS
 10
5.249640
 20
2.433640
  0
VERTEX
  8
0
  6
CONTINUOUS
 10
5.268120
 20
2.438040
  0
VERTEX
  8
0
  6
CONTINUOUS
 10
5.272960
 20
1.697080
  0
VERTEX
  8
0
  6
CONTINUOUS
 10
5.254480
 20
1.692680
  0
SEQEND
  8
0
  0
SOLID
  8
0
 62
    15
 10
5.272960
 20
1.697080
 11
5.268120
 21
2.438040
 12
5.287480
 22
1.699280
 13
5.282200
 23
2.440240
  0
POLYLINE
  8
0
  6
CONTINUOUS
 66
     1
 40
0.000000
 41
0.000000
  0
VERTEX
  8
0
  6
CONTINUOUS
 10
5.272960
 20
1.697080
  0
VERTEX
  8
0
  6
CONTINUOUS
 10
5.268120
 20
2.438040
  0
VERTEX
  8
0
  6
CONTINUOUS
 10
5.282200
 20
2.440240
  0
VERTEX
  8
0
  6
CONTINUOUS
 10
5.287480
 20
1.699280
  0
VERTEX
  8
0
  6
CONTINUOUS
 10
5.272960
 20
1.697080
  0
SEQEND
  8
0
  0
SOLID
  8
0
 62
    15
 10
5.287480
 20
1.699280
 11
5.282200
 21
2.440240
 12
5.295400
 22
1.699720
 13
5.290120
 23
2.440680
  0
POLYLINE
  8
0
  6
CONTINUOUS
 66
     1
 40
0.000000
 41
0.000000
  0
VERTEX
  8
0
  6
CONTINUOUS
 10
5.287480
 20
1.699280
  0
VERTEX
  8
0
  6
CONTINUOUS
 10
5.282200
 20
2.440240
  0
VERTEX
  8
0
  6
CONTINUOUS
 10
5.290120
 20
2.440680
  0
VERTEX
  8
0
  6
CONTINUOUS
 10
5.295400
 20
1.699720
  0
VERTEX
  8
0
  6
CONTINUOUS
 10
5.287480
 20
1.699280
  0
SEQEND
  8
0
  0
SOLID
  8
0
 62
    15
 10
5.295400
 20
1.699720
 11
5.290120
 21
2.440680
 12
5.724400
 22
1.699720
 13
5.719560
 23
2.440680
  0
POLYLINE
  8
0
  6
CONTINUOUS
 66
     1
 40
0.000000
 41
0.000000
  0
VERTEX
  8
0
  6
CONTINUOUS
 10
5.295400
 20
1.699720
  0
VERTEX
  8
0
  6
CONTINUOUS
 10
5.290120
 20
2.440680
  0
VERTEX
  8
0
  6
CONTINUOUS
 10
5.719560
 20
2.440680
  0
VERTEX
  8
0
  6
CONTINUOUS
 10
5.724400
 20
1.699720
  0
VERTEX
  8
0
  6
CONTINUOUS
 10
5.295400
 20
1.699720
  0
SEQEND
  8
0
  0
SOLID
  8
0
 62
    15
 10
5.724400
 20
1.699720
 11
5.719560
 21
2.440680
 12
5.747720
 22
1.697080
 13
5.742440
 23
2.438040
  0
POLYLINE
  8
0
  6
CONTINUOUS
 66
     1
 40
0.000000
 41
0.000000
  0
VERTEX
  8
0
  6
CONTINUOUS
 10
5.724400
 20
1.699720
  0
VERTEX
  8
0
  6
CONTINUOUS
 10
5.719560
 20
2.440680
  0
VERTEX
  8
0
  6
CONTINUOUS
 10
5.742440
 20
2.438040
  0
VERTEX
  8
0
  6
CONTINUOUS
 10
5.747720
 20
1.697080
  0
VERTEX
  8
0
  6
CONTINUOUS
 10
5.724400
 20
1.699720
  0
SEQEND
  8
0
  0
SOLID
  8
0
 62
    15
 10
5.747720
 20
1.697080
 11
5.742440
 21
2.438040
 12
5.768840
 22
1.690040
 13
5.763560
 23
2.431000
  0
POLYLINE
  8
0
  6
CONTINUOUS
 66
     1
 40
0.000000
 41
0.000000
  0
VERTEX
  8
0
  6
CONTINUOUS
 10
5.747720
 20
1.697080
  0
VERTEX
  8
0
  6
CONTINUOUS
 10
5.742440
 20
2.438040
  0
VERTEX
  8
0
  6
CONTINUOUS
 10
5.763560
 20
2.431000
  0
VERTEX
  8
0
  6
CONTINUOUS
 10
5.768840
 20
1.690040
  0
VERTEX
  8
0
  6
CONTINUOUS
 10
5.747720
 20
1.697080
  0
SEQEND
  8
0
  0
SOLID
  8
0
 62
    15
 10
5.768840
 20
1.690040
 11
5.763560
 21
2.431000
 12
5.787760
 22
1.678600
 13
5.782920
 23
2.419560
  0
POLYLINE
  8
0
  6
CONTINUOUS
 66
     1
 40
0.000000
 41
0.000000
  0
VERTEX
  8
0
  6
CONTINUOUS
 10
5.768840
 20
1.690040
  0
VERTEX
  8
0
  6
CONTINUOUS
 10
5.763560
 20
2.431000
  0
VERTEX
  8
0
  6
CONTINUOUS
 10
5.782920
 20
2.419560
  0
VERTEX
  8
0
  6
CONTINUOUS
 10
5.787760
 20
1.678600
  0
VERTEX
  8
0
  6
CONTINUOUS
 10
5.768840
 20
1.690040
  0
SEQEND
  8
0
  0
SOLID
  8
0
 62
    15
 10
5.787760
 20
1.678600
 11
5.782920
 21
2.419560
 12
5.804480
 22
1.663640
 13
5.799640
 23
2.404160
  0
POLYLINE
  8
0
  6
CONTINUOUS
 66
     1
 40
0.000000
 41
0.000000
  0
VERTEX
  8
0
  6
CONTINUOUS
 10
5.787760
 20
1.678600
  0
VERTEX
  8
0
  6
CONTINUOUS
 10
5.782920
 20
2.419560
  0
VERTEX
  8
0
  6
CONTINUOUS
 10
5.799640
 20
2.404160
  0
VERTEX
  8
0
  6
CONTINUOUS
 10
5.804480
 20
1.663640
  0
VERTEX
  8
0
  6
CONTINUOUS
 10
5.787760
 20
1.678600
  0
SEQEND
  8
0
  0
SOLID
  8
0
 62
    15
 10
5.804480
 20
1.663640
 11
5.799640
 21
2.404160
 12
5.819000
 22
1.644720
 13
5.814160
 23
2.385680
  0
POLYLINE
  8
0
  6
CONTINUOUS
 66
     1
 40
0.000000
 41
0.000000
  0
VERTEX
  8
0
  6
CONTINUOUS
 10
5.804480
 20
1.663640
  0
VERTEX
  8
0
  6
CONTINUOUS
 10
5.799640
 20
2.404160
  0
VERTEX
  8
0
  6
CONTINUOUS
 10
5.814160
 20
2.385680
  0
VERTEX
  8
0
  6
CONTINUOUS
 10
5.819000
 20
1.644720
  0
VERTEX
  8
0
  6
CONTINUOUS
 10
5.804480
 20
1.663640
  0
SEQEND
  8
0
  0
SOLID
  8
0
 62
    15
 10
5.819000
 20
1.644720
 11
5.814160
 21
2.385680
 12
5.830880
 22
1.623160
 13
5.826040
 23
2.364120
  0
POLYLINE
  8
0
  6
CONTINUOUS
 66
     1
 40
0.000000
 41
0.000000
  0
VERTEX
  8
0
  6
CONTINUOUS
 10
5.819000
 20
1.644720
  0
VERTEX
  8
0
  6
CONTINUOUS
 10
5.814160
 20
2.385680
  0
VERTEX
  8
0
  6
CONTINUOUS
 10
5.826040
 20
2.364120
  0
VERTEX
  8
0
  6
CONTINUOUS
 10
5.830880
 20
1.623160
  0
VERTEX
  8
0
  6
CONTINUOUS
 10
5.819000
 20
1.644720
  0
SEQEND
  8
0
  0
SOLID
  8
0
 62
    15
 10
5.830880
 20
1.623160
 11
5.826040
 21
2.364120
 12
5.840560
 22
1.598960
 13
5.835280
 23
2.339920
  0
POLYLINE
  8
0
  6
CONTINUOUS
 66
     1
 40
0.000000
 41
0.000000
  0
VERTEX
  8
0
  6
CONTINUOUS
 10
5.830880
 20
1.623160
  0
VERTEX
  8
0
  6
CONTINUOUS
 10
5.826040
 20
2.364120
  0
VERTEX
  8
0
  6
CONTINUOUS
 10
5.835280
 20
2.339920
  0
VERTEX
  8
0
  6
CONTINUOUS
 10
5.840560
 20
1.598960
  0
VERTEX
  8
0
  6
CONTINUOUS
 10
5.830880
 20
1.623160
  0
SEQEND
  8
0
  0
SOLID
  8
0
 62
    15
 10
5.840560
 20
1.598960
 11
5.835280
 21
2.339920
 12
5.847160
 22
1.572560
 13
5.842320
 23
2.313520
  0
POLYLINE
  8
0
  6
CONTINUOUS
 66
     1
 40
0.000000
 41
0.000000
  0
VERTEX
  8
0
  6
CONTINUOUS
 10
5.840560
 20
1.598960
  0
VERTEX
  8
0
  6
CONTINUOUS
 10
5.835280
 20
2.339920
  0
VERTEX
  8
0
  6
CONTINUOUS
 10
5.842320
 20
2.313520
  0
VERTEX
  8
0
  6
CONTINUOUS
 10
5.847160
 20
1.572560
  0
VERTEX
  8
0
  6
CONTINUOUS
 10
5.840560
 20
1.598960
  0
SEQEND
  8
0
  0
SOLID
  8
0
 62
    15
 10
5.847160
 20
1.572560
 11
5.842320
 21
2.313520
 12
5.849360
 22
1.572560
 13
5.844520
 23
2.313520
  0
POLYLINE
  8
0
  6
CONTINUOUS
 66
     1
 40
0.000000
 41
0.000000
  0
VERTEX
  8
0
  6
CONTINUOUS
 10
5.847160
 20
1.572560
  0
VERTEX
  8
0
  6
CONTINUOUS
 10
5.842320
 20
2.313520
  0
VERTEX
  8
0
  6
CONTINUOUS
 10
5.844520
 20
2.313520
  0
VERTEX
  8
0
  6
CONTINUOUS
 10
5.849360
 20
1.572560
  0
VERTEX
  8
0
  6
CONTINUOUS
 10
5.847160
 20
1.572560
  0
SEQEND
  8
0
  0
SOLID
  8
0
 62
    15
 10
7.545120
 20
1.403600
 11
7.540280
 21
2.144560
 12
7.583400
 22
1.399200
 13
7.578560
 23
2.139720
  0
POLYLINE
  8
0
  6
CONTINUOUS
 66
     1
 40
0.000000
 41
0.000000
  0
VERTEX
  8
0
  6
CONTINUOUS
 10
7.545120
 20
1.403600
  0
VERTEX
  8
0
  6
CONTINUOUS
 10
7.540280
 20
2.144560
  0
VERTEX
  8
0
  6
CONTINUOUS
 10
7.578560
 20
2.139720
  0
VERTEX
  8
0
  6
CONTINUOUS
 10
7.583400
 20
1.399200
  0
VERTEX
  8
0
  6
CONTINUOUS
 10
7.545120
 20
1.403600
  0
SEQEND
  8
0
  0
SOLID
  8
0
 62
    15
 10
5.863880
 20
1.568600
 11
5.859040
 21
2.309120
 12
5.866080
 22
1.568160
 13
5.861240
 23
2.309120
  0
POLYLINE
  8
0
  6
CONTINUOUS
 66
     1
 40
0.000000
 41
0.000000
  0
VERTEX
  8
0
  6
CONTINUOUS
 10
5.863880
 20
1.568600
  0
VERTEX
  8
0
  6
CONTINUOUS
 10
5.859040
 20
2.309120
  0
VERTEX
  8
0
  6
CONTINUOUS
 10
5.861240
 20
2.309120
  0
VERTEX
  8
0
  6
CONTINUOUS
 10
5.866080
 20
1.568160
  0
VERTEX
  8
0
  6
CONTINUOUS
 10
5.863880
 20
1.568600
  0
SEQEND
  8
0
  0
SOLID
  8
0
 62
    15
 10
5.866080
 20
1.568160
 11
5.861240
 21
2.309120
 12
5.935160
 22
1.591040
 13
5.929880
 23
2.332000
  0
POLYLINE
  8
0
  6
CONTINUOUS
 66
     1
 40
0.000000
 41
0.000000
  0
VERTEX
  8
0
  6
CONTINUOUS
 10
5.866080
 20
1.568160
  0
VERTEX
  8
0
  6
CONTINUOUS
 10
5.861240
 20
2.309120
  0
VERTEX
  8
0
  6
CONTINUOUS
 10
5.929880
 20
2.332000
  0
VERTEX
  8
0
  6
CONTINUOUS
 10
5.935160
 20
1.591040
  0
VERTEX
  8
0
  6
CONTINUOUS
 10
5.866080
 20
1.568160
  0
SEQEND
  8
0
  0
SOLID
  8
0
 62
    15
 10
5.935160
 20
1.591040
 11
5.929880
 21
2.332000
 12
5.998960
 22
1.606440
 13
5.994120
 23
2.347400
  0
POLYLINE
  8
0
  6
CONTINUOUS
 66
     1
 40
0.000000
 41
0.000000
  0
VERTEX
  8
0
  6
CONTINUOUS
 10
5.935160
 20
1.591040
  0
VERTEX
  8
0
  6
CONTINUOUS
 10
5.929880
 20
2.332000
  0
VERTEX
  8
0
  6
CONTINUOUS
 10
5.994120
 20
2.347400
  0
VERTEX
  8
0
  6
CONTINUOUS
 10
5.998960
 20
1.606440
  0
VERTEX
  8
0
  6
CONTINUOUS
 10
5.935160
 20
1.591040
  0
SEQEND
  8
0
  0
SOLID
  8
0
 62
    15
 10
5.998960
 20
1.606440
 11
5.994120
 21
2.347400
 12
6.058800
 22
1.615240
 13
6.053960
 23
2.356200
  0
POLYLINE
  8
0
  6
CONTINUOUS
 66
     1
 40
0.000000
 41
0.000000
  0
VERTEX
  8
0
  6
CONTINUOUS
 10
5.998960
 20
1.606440
  0
VERTEX
  8
0
  6
CONTINUOUS
 10
5.994120
 20
2.347400
  0
VERTEX
  8
0
  6
CONTINUOUS
 10
6.053960
 20
2.356200
  0
VERTEX
  8
0
  6
CONTINUOUS
 10
6.058800
 20
1.615240
  0
VERTEX
  8
0
  6
CONTINUOUS
 10
5.998960
 20
1.606440
  0
SEQEND
  8
0
  0
SOLID
  8
0
 62
    15
 10
6.058800
 20
1.615240
 11
6.053960
 21
2.356200
 12
6.115120
 22
1.618320
 13
6.109840
 23
2.359280
  0
POLYLINE
  8
0
  6
CONTINUOUS
 66
     1
 40
0.000000
 41
0.000000
  0
VERTEX
  8
0
  6
CONTINUOUS
 10
6.058800
 20
1.615240
  0
VERTEX
  8
0
  6
CONTINUOUS
 10
6.053960
 20
2.356200
  0
VERTEX
  8
0
  6
CONTINUOUS
 10
6.109840
 20
2.359280
  0
VERTEX
  8
0
  6
CONTINUOUS
 10
6.115120
 20
1.618320
  0
VERTEX
  8
0
  6
CONTINUOUS
 10
6.058800
 20
1.615240
  0
SEQEND
  8
0
  0
SOLID
  8
0
 62
    15
 10
6.115120
 20
1.618320
 11
6.109840
 21
2.359280
 12
6.167480
 22
1.616560
 13
6.162640
 23
2.357520
  0
POLYLINE
  8
0
  6
CONTINUOUS
 66
     1
 40
0.000000
 41
0.000000
  0
VERTEX
  8
0
  6
CONTINUOUS
 10
6.115120
 20
1.618320
  0
VERTEX
  8
0
  6
CONTINUOUS
 10
6.109840
 20
2.359280
  0
VERTEX
  8
0
  6
CONTINUOUS
 10
6.162640
 20
2.357520
  0
VERTEX
  8
0
  6
CONTINUOUS
 10
6.167480
 20
1.616560
  0
VERTEX
  8
0
  6
CONTINUOUS
 10
6.115120
 20
1.618320
  0
SEQEND
  8
0
  0
SOLID
  8
0
 62
    15
 10
6.167480
 20
1.616560
 11
6.162640
 21
2.357520
 12
6.217200
 22
1.609960
 13
6.212360
 23
2.350920
  0
POLYLINE
  8
0
  6
CONTINUOUS
 66
     1
 40
0.000000
 41
0.000000
  0
VERTEX
  8
0
  6
CONTINUOUS
 10
6.167480
 20
1.616560
  0
VERTEX
  8
0
  6
CONTINUOUS
 10
6.162640
 20
2.357520
  0
VERTEX
  8
0
  6
CONTINUOUS
 10
6.212360
 20
2.350920
  0
VERTEX
  8
0
  6
CONTINUOUS
 10
6.217200
 20
1.609960
  0
VERTEX
  8
0
  6
CONTINUOUS
 10
6.167480
 20
1.616560
  0
SEQEND
  8
0
  0
SOLID
  8
0
 62
    15
 10
6.217200
 20
1.609960
 11
6.212360
 21
2.350920
 12
6.264280
 22
1.599840
 13
6.259440
 23
2.340800
  0
POLYLINE
  8
0
  6
CONTINUOUS
 66
     1
 40
0.000000
 41
0.000000
  0
VERTEX
  8
0
  6
CONTINUOUS
 10
6.217200
 20
1.609960
  0
VERTEX
  8
0
  6
CONTINUOUS
 10
6.212360
 20
2.350920
  0
VERTEX
  8
0
  6
CONTINUOUS
 10
6.259440
 20
2.340800
  0
VERTEX
  8
0
  6
CONTINUOUS
 10
6.264280
 20
1.599840
  0
VERTEX
  8
0
  6
CONTINUOUS
 10
6.217200
 20
1.609960
  0
SEQEND
  8
0
  0
SOLID
  8
0
 62
    15
 10
6.264280
 20
1.599840
 11
6.259440
 21
2.340800
 12
6.309160
 22
1.586640
 13
6.304320
 23
2.327600
  0
POLYLINE
  8
0
  6
CONTINUOUS
 66
     1
 40
0.000000
 41
0.000000
  0
VERTEX
  8
0
  6
CONTINUOUS
 10
6.264280
 20
1.599840
  0
VERTEX
  8
0
  6
CONTINUOUS
 10
6.259440
 20
2.340800
  0
VERTEX
  8
0
  6
CONTINUOUS
 10
6.304320
 20
2.327600
  0
VERTEX
  8
0
  6
CONTINUOUS
 10
6.309160
 20
1.586640
  0
VERTEX
  8
0
  6
CONTINUOUS
 10
6.264280
 20
1.599840
  0
SEQEND
  8
0
  0
SOLID
  8
0
 62
    15
 10
6.309160
 20
1.586640
 11
6.304320
 21
2.327600
 12
6.394960
 22
1.554520
 13
6.390120
 23
2.295480
  0
POLYLINE
  8
0
  6
CONTINUOUS
 66
     1
 40
0.000000
 41
0.000000
  0
VERTEX
  8
0
  6
CONTINUOUS
 10
6.309160
 20
1.586640
  0
VERTEX
  8
0
  6
CONTINUOUS
 10
6.304320
 20
2.327600
  0
VERTEX
  8
0
  6
CONTINUOUS
 10
6.390120
 20
2.295480
  0
VERTEX
  8
0
  6
CONTINUOUS
 10
6.394960
 20
1.554520
  0
VERTEX
  8
0
  6
CONTINUOUS
 10
6.309160
 20
1.586640
  0
SEQEND
  8
0
  0
SOLID
  8
0
 62
    15
 10
6.394960
 20
1.554520
 11
6.390120
 21
2.295480
 12
6.436320
 22
1.536920
 13
6.431480
 23
2.277440
  0
POLYLINE
  8
0
  6
CONTINUOUS
 66
     1
 40
0.000000
 41
0.000000
  0
VERTEX
  8
0
  6
CONTINUOUS
 10
6.394960
 20
1.554520
  0
VERTEX
  8
0
  6
CONTINUOUS
 10
6.390120
 20
2.295480
  0
VERTEX
  8
0
  6
CONTINUOUS
 10
6.431480
 20
2.277440
  0
VERTEX
  8
0
  6
CONTINUOUS
 10
6.436320
 20
1.536920
  0
VERTEX
  8
0
  6
CONTINUOUS
 10
6.394960
 20
1.554520
  0
SEQEND
  8
0
  0
SOLID
  8
0
 62
    15
 10
6.436320
 20
1.536920
 11
6.431480
 21
2.277440
 12
6.477680
 22
1.518880
 13
6.472840
 23
2.259840
  0
POLYLINE
  8
0
  6
CONTINUOUS
 66
     1
 40
0.000000
 41
0.000000
  0
VERTEX
  8
0
  6
CONTINUOUS
 10
6.436320
 20
1.536920
  0
VERTEX
  8
0
  6
CONTINUOUS
 10
6.431480
 20
2.277440
  0
VERTEX
  8
0
  6
CONTINUOUS
 10
6.472840
 20
2.259840
  0
VERTEX
  8
0
  6
CONTINUOUS
 10
6.477680
 20
1.518880
  0
VERTEX
  8
0
  6
CONTINUOUS
 10
6.436320
 20
1.536920
  0
SEQEND
  8
0
  0
SOLID
  8
0
 62
    15
 10
6.477680
 20
1.518880
 11
6.472840
 21
2.259840
 12
6.561280
 22
1.485440
 13
6.556440
 23
2.226400
  0
POLYLINE
  8
0
  6
CONTINUOUS
 66
     1
 40
0.000000
 41
0.000000
  0
VERTEX
  8
0
  6
CONTINUOUS
 10
6.477680
 20
1.518880
  0
VERTEX
  8
0
  6
CONTINUOUS
 10
6.472840
 20
2.259840
  0
VERTEX
  8
0
  6
CONTINUOUS
 10
6.556440
 20
2.226400
  0
VERTEX
  8
0
  6
CONTINUOUS
 10
6.561280
 20
1.485440
  0
VERTEX
  8
0
  6
CONTINUOUS
 10
6.477680
 20
1.518880
  0
SEQEND
  8
0
  0
SOLID
  8
0
 62
    15
 10
6.561280
 20
1.485440
 11
6.556440
 21
2.226400
 12
6.649280
 22
1.459920
 13
6.644440
 23
2.200880
  0
POLYLINE
  8
0
  6
CONTINUOUS
 66
     1
 40
0.000000
 41
0.000000
  0
VERTEX
  8
0
  6
CONTINUOUS
 10
6.561280
 20
1.485440
  0
VERTEX
  8
0
  6
CONTINUOUS
 10
6.556440
 20
2.226400
  0
VERTEX
  8
0
  6
CONTINUOUS
 10
6.644440
 20
2.200880
  0
VERTEX
  8
0
  6
CONTINUOUS
 10
6.649280
 20
1.459920
  0
VERTEX
  8
0
  6
CONTINUOUS
 10
6.561280
 20
1.485440
  0
SEQEND
  8
0
  0
SOLID
  8
0
 62
    15
 10
6.649280
 20
1.459920
 11
6.644440
 21
2.200880
 12
6.692840
 22
1.452000
 13
6.687560
 23
2.192520
  0
POLYLINE
  8
0
  6
CONTINUOUS
 66
     1
 40
0.000000
 41
0.000000
  0
VERTEX
  8
0
  6
CONTINUOUS
 10
6.649280
 20
1.459920
  0
VERTEX
  8
0
  6
CONTINUOUS
 10
6.644440
 20
2.200880
  0
VERTEX
  8
0
  6
CONTINUOUS
 10
6.687560
 20
2.192520
  0
VERTEX
  8
0
  6
CONTINUOUS
 10
6.692840
 20
1.452000
  0
VERTEX
  8
0
  6
CONTINUOUS
 10
6.649280
 20
1.459920
  0
SEQEND
  8
0
  0
SOLID
  8
0
 62
    15
 10
6.692840
 20
1.452000
 11
6.687560
 21
2.192520
 12
6.733320
 22
1.445840
 13
6.728480
 23
2.186800
  0
POLYLINE
  8
0
  6
CONTINUOUS
 66
     1
 40
0.000000
 41
0.000000
  0
VERTEX
  8
0
  6
CONTINUOUS
 10
6.692840
 20
1.452000
  0
VERTEX
  8
0
  6
CONTINUOUS
 10
6.687560
 20
2.192520
  0
VERTEX
  8
0
  6
CONTINUOUS
 10
6.728480
 20
2.186800
  0
VERTEX
  8
0
  6
CONTINUOUS
 10
6.733320
 20
1.445840
  0
VERTEX
  8
0
  6
CONTINUOUS
 10
6.692840
 20
1.452000
  0
SEQEND
  8
0
  0
SOLID
  8
0
 62
    15
 10
6.733320
 20
1.445840
 11
6.728480
 21
2.186800
 12
6.807680
 22
1.439680
 13
6.802400
 23
2.180640
  0
POLYLINE
  8
0
  6
CONTINUOUS
 66
     1
 40
0.000000
 41
0.000000
  0
VERTEX
  8
0
  6
CONTINUOUS
 10
6.733320
 20
1.445840
  0
VERTEX
  8
0
  6
CONTINUOUS
 10
6.728480
 20
2.186800
  0
VERTEX
  8
0
  6
CONTINUOUS
 10
6.802400
 20
2.180640
  0
VERTEX
  8
0
  6
CONTINUOUS
 10
6.807680
 20
1.439680
  0
VERTEX
  8
0
  6
CONTINUOUS
 10
6.733320
 20
1.445840
  0
SEQEND
  8
0
  0
SOLID
  8
0
 62
    15
 10
6.807680
 20
1.439680
 11
6.802400
 21
2.180640
 12
6.871040
 22
1.439240
 13
6.866200
 23
2.180200
  0
POLYLINE
  8
0
  6
CONTINUOUS
 66
     1
 40
0.000000
 41
0.000000
  0
VERTEX
  8
0
  6
CONTINUOUS
 10
6.807680
 20
1.439680
  0
VERTEX
  8
0
  6
CONTINUOUS
 10
6.802400
 20
2.180640
  0
VERTEX
  8
0
  6
CONTINUOUS
 10
6.866200
 20
2.180200
  0
VERTEX
  8
0
  6
CONTINUOUS
 10
6.871040
 20
1.439240
  0
VERTEX
  8
0
  6
CONTINUOUS
 10
6.807680
 20
1.439680
  0
SEQEND
  8
0
  0
SOLID
  8
0
 62
    15
 10
6.871040
 20
1.439240
 11
6.866200
 21
2.180200
 12
6.923840
 22
1.443200
 13
6.919000
 23
2.184160
  0
POLYLINE
  8
0
  6
CONTINUOUS
 66
     1
 40
0.000000
 41
0.000000
  0
VERTEX
  8
0
  6
CONTINUOUS
 10
6.871040
 20
1.439240
  0
VERTEX
  8
0
  6
CONTINUOUS
 10
6.866200
 20
2.180200
  0
VERTEX
  8
0
  6
CONTINUOUS
 10
6.919000
 20
2.184160
  0
VERTEX
  8
0
  6
CONTINUOUS
 10
6.923840
 20
1.443200
  0
VERTEX
  8
0
  6
CONTINUOUS
 10
6.871040
 20
1.439240
  0
SEQEND
  8
0
  0
SOLID
  8
0
 62
    15
 10
6.923840
 20
1.443200
 11
6.919000
 21
2.184160
 12
6.965640
 22
1.449800
 13
6.960360
 23
2.190760
  0
POLYLINE
  8
0
  6
CONTINUOUS
 66
     1
 40
0.000000
 41
0.000000
  0
VERTEX
  8
0
  6
CONTINUOUS
 10
6.923840
 20
1.443200
  0
VERTEX
  8
0
  6
CONTINUOUS
 10
6.919000
 20
2.184160
  0
VERTEX
  8
0
  6
CONTINUOUS
 10
6.960360
 20
2.190760
  0
VERTEX
  8
0
  6
CONTINUOUS
 10
6.965640
 20
1.449800
  0
VERTEX
  8
0
  6
CONTINUOUS
 10
6.923840
 20
1.443200
  0
SEQEND
  8
0
  0
SOLID
  8
0
 62
    15
 10
6.965640
 20
1.449800
 11
6.960360
 21
2.190760
 12
6.995560
 22
1.456400
 13
6.990720
 23
2.197360
  0
POLYLINE
  8
0
  6
CONTINUOUS
 66
     1
 40
0.000000
 41
0.000000
  0
VERTEX
  8
0
  6
CONTINUOUS
 10
6.965640
 20
1.449800
  0
VERTEX
  8
0
  6
CONTINUOUS
 10
6.960360
 20
2.190760
  0
VERTEX
  8
0
  6
CONTINUOUS
 10
6.990720
 20
2.197360
  0
VERTEX
  8
0
  6
CONTINUOUS
 10
6.995560
 20
1.456400
  0
VERTEX
  8
0
  6
CONTINUOUS
 10
6.965640
 20
1.449800
  0
SEQEND
  8
0
  0
SOLID
  8
0
 62
    15
 10
6.995560
 20
1.456400
 11
6.990720
 21
2.197360
 12
7.014040
 22
1.462120
 13
7.009200
 23
2.202640
  0
POLYLINE
  8
0
  6
CONTINUOUS
 66
     1
 40
0.000000
 41
0.000000
  0
VERTEX
  8
0
  6
CONTINUOUS
 10
6.995560
 20
1.456400
  0
VERTEX
  8
0
  6
CONTINUOUS
 10
6.990720
 20
2.197360
  0
VERTEX
  8
0
  6
CONTINUOUS
 10
7.009200
 20
2.202640
  0
VERTEX
  8
0
  6
CONTINUOUS
 10
7.014040
 20
1.462120
  0
VERTEX
  8
0
  6
CONTINUOUS
 10
6.995560
 20
1.456400
  0
SEQEND
  8
0
  0
SOLID
  8
0
 62
    15
 10
7.020200
 20
1.459920
 11
7.015360
 21
2.200880
 12
7.047480
 22
1.403600
 13
7.042200
 23
2.144560
  0
POLYLINE
  8
0
  6
CONTINUOUS
 66
     1
 40
0.000000
 41
0.000000
  0
VERTEX
  8
0
  6
CONTINUOUS
 10
7.020200
 20
1.459920
  0
VERTEX
  8
0
  6
CONTINUOUS
 10
7.015360
 20
2.200880
  0
VERTEX
  8
0
  6
CONTINUOUS
 10
7.042200
 20
2.144560
  0
VERTEX
  8
0
  6
CONTINUOUS
 10
7.047480
 20
1.403600
  0
VERTEX
  8
0
  6
CONTINUOUS
 10
7.020200
 20
1.459920
  0
SEQEND
  8
0
  0
SOLID
  8
0
 62
    15
 10
7.020200
 20
1.464320
 11
7.015360
 21
2.205280
 12
7.020200
 22
1.459920
 13
7.015360
 23
2.200880
  0
POLYLINE
  8
0
  6
CONTINUOUS
 66
     1
 40
0.000000
 41
0.000000
  0
VERTEX
  8
0
  6
CONTINUOUS
 10
7.020200
 20
1.464320
  0
VERTEX
  8
0
  6
CONTINUOUS
 10
7.015360
 20
2.205280
  0
VERTEX
  8
0
  6
CONTINUOUS
 10
7.015360
 20
2.200880
  0
VERTEX
  8
0
  6
CONTINUOUS
 10
7.020200
 20
1.459920
  0
VERTEX
  8
0
  6
CONTINUOUS
 10
7.020200
 20
1.464320
  0
SEQEND
  8
0
  0
SOLID
  8
0
 62
    15
 10
7.014040
 20
1.462120
 11
7.009200
 21
2.202640
 12
7.020200
 22
1.464320
 13
7.015360
 23
2.205280
  0
POLYLINE
  8
0
  6
CONTINUOUS
 66
     1
 40
0.000000
 41
0.000000
  0
VERTEX
  8
0
  6
CONTINUOUS
 10
7.014040
 20
1.462120
  0
VERTEX
  8
0
  6
CONTINUOUS
 10
7.009200
 20
2.202640
  0
VERTEX
  8
0
  6
CONTINUOUS
 10
7.015360
 20
2.205280
  0
VERTEX
  8
0
  6
CONTINUOUS
 10
7.020200
 20
1.464320
  0
VERTEX
  8
0
  6
CONTINUOUS
 10
7.014040
 20
1.462120
  0
SEQEND
  8
0
  0
SOLID
  8
0
 62
    15
 10
7.047480
 20
1.403600
 11
7.042200
 21
2.144560
 12
7.538960
 22
1.403600
 13
7.534120
 23
2.144560
  0
POLYLINE
  8
0
  6
CONTINUOUS
 66
     1
 40
0.000000
 41
0.000000
  0
VERTEX
  8
0
  6
CONTINUOUS
 10
7.047480
 20
1.403600
  0
VERTEX
  8
0
  6
CONTINUOUS
 10
7.042200
 20
2.144560
  0
VERTEX
  8
0
  6
CONTINUOUS
 10
7.534120
 20
2.144560
  0
VERTEX
  8
0
  6
CONTINUOUS
 10
7.538960
 20
1.403600
  0
VERTEX
  8
0
  6
CONTINUOUS
 10
7.047480
 20
1.403600
  0
SEQEND
  8
0
  0
SOLID
  8
0
 62
    15
 10
7.538960
 20
1.403600
 11
7.534120
 21
2.144560
 12
7.545120
 22
1.403600
 13
7.540280
 23
2.144560
  0
POLYLINE
  8
0
  6
CONTINUOUS
 66
     1
 40
0.000000
 41
0.000000
  0
VERTEX
  8
0
  6
CONTINUOUS
 10
7.538960
 20
1.403600
  0
VERTEX
  8
0
  6
CONTINUOUS
 10
7.534120
 20
2.144560
  0
VERTEX
  8
0
  6
CONTINUOUS
 10
7.540280
 20
2.144560
  0
VERTEX
  8
0
  6
CONTINUOUS
 10
7.545120
 20
1.403600
  0
VERTEX
  8
0
  6
CONTINUOUS
 10
7.538960
 20
1.403600
  0
SEQEND
  8
0
  0
POLYLINE
  8
0
  6
CONTINUOUS
 66
     1
 40
0.000000
 41
0.000000
  0
VERTEX
  8
0
  6
CONTINUOUS
 10
7.545120
 20
1.403600
  0
VERTEX
  8
0
  6
CONTINUOUS
 10
7.583400
 20
1.399200
  0
VERTEX
  8
0
  6
CONTINUOUS
 10
7.613320
 20
1.389080
  0
VERTEX
  8
0
  6
CONTINUOUS
 10
7.635320
 20
1.375000
  0
VERTEX
  8
0
  6
CONTINUOUS
 10
7.650720
 20
1.358720
  0
VERTEX
  8
0
  6
CONTINUOUS
 10
7.660840
 20
1.341560
  0
VERTEX
  8
0
  6
CONTINUOUS
 10
7.667000
 20
1.324840
  0
VERTEX
  8
0
  6
CONTINUOUS
 10
7.669640
 20
1.310320
  0
VERTEX
  8
0
  6
CONTINUOUS
 10
7.670080
 20
1.012000
  0
VERTEX
  8
0
  6
CONTINUOUS
 10
5.182760
 20
1.012000
  0
VERTEX
  8
0
  6
CONTINUOUS
 10
5.182760
 20
1.589280
  0
VERTEX
  8
0
  6
CONTINUOUS
 10
5.186720
 20
1.624480
  0
VERTEX
  8
0
  6
CONTINUOUS
 10
5.198160
 20
1.651320
  0
VERTEX
  8
0
  6
CONTINUOUS
 10
5.214440
 20
1.670680
  0
VERTEX
  8
0
  6
CONTINUOUS
 10
5.234240
 20
1.684320
  0
VERTEX
  8
0
  6
CONTINUOUS
 10
5.254480
 20
1.692680
  0
VERTEX
  8
0
  6
CONTINUOUS
 10
5.287480
 20
1.699280
  0
VERTEX
  8
0
  6
CONTINUOUS
 10
5.724400
 20
1.699720
  0
VERTEX
  8
0
  6
CONTINUOUS
 10
5.747720
 20
1.697080
  0
VERTEX
  8
0
  6
CONTINUOUS
 10
5.768840
 20
1.690040
  0
VERTEX
  8
0
  6
CONTINUOUS
 10
5.787760
 20
1.678600
  0
VERTEX
  8
0
  6
CONTINUOUS
 10
5.804480
 20
1.663640
  0
VERTEX
  8
0
  6
CONTINUOUS
 10
5.819000
 20
1.644720
  0
VERTEX
  8
0
  6
CONTINUOUS
 10
5.830880
 20
1.623160
  0
VERTEX
  8
0
  6
CONTINUOUS
 10
5.840560
 20
1.598960
  0
VERTEX
  8
0
  6
CONTINUOUS
 10
5.847160
 20
1.572560
  0
VERTEX
  8
0
  6
CONTINUOUS
 10
5.866080
 20
1.568160
  0
VERTEX
  8
0
  6
CONTINUOUS
 10
5.935160
 20
1.591040
  0
VERTEX
  8
0
  6
CONTINUOUS
 10
5.998960
 20
1.606440
  0
VERTEX
  8
0
  6
CONTINUOUS
 10
6.058800
 20
1.615240
  0
VERTEX
  8
0
  6
CONTINUOUS
 10
6.115120
 20
1.618320
  0
VERTEX
  8
0
  6
CONTINUOUS
 10
6.167480
 20
1.616560
  0
VERTEX
  8
0
  6
CONTINUOUS
 10
6.217200
 20
1.609960
  0
VERTEX
  8
0
  6
CONTINUOUS
 10
6.264280
 20
1.599840
  0
VERTEX
  8
0
  6
CONTINUOUS
 10
6.309160
 20
1.586640
  0
VERTEX
  8
0
  6
CONTINUOUS
 10
6.394960
 20
1.554520
  0
VERTEX
  8
0
  6
CONTINUOUS
 10
6.477680
 20
1.518880
  0
VERTEX
  8
0
  6
CONTINUOUS
 10
6.561280
 20
1.485440
  0
VERTEX
  8
0
  6
CONTINUOUS
 10
6.649280
 20
1.459920
  0
VERTEX
  8
0
  6
CONTINUOUS
 10
6.733320
 20
1.445840
  0
VERTEX
  8
0
  6
CONTINUOUS
 10
6.807680
 20
1.439680
  0
VERTEX
  8
0
  6
CONTINUOUS
 10
6.871040
 20
1.439240
  0
VERTEX
  8
0
  6
CONTINUOUS
 10
6.923840
 20
1.443200
  0
VERTEX
  8
0
  6
CONTINUOUS
 10
6.965640
 20
1.449800
  0
VERTEX
  8
0
  6
CONTINUOUS
 10
6.995560
 20
1.456400
  0
VERTEX
  8
0
  6
CONTINUOUS
 10
7.020200
 20
1.464320
  0
VERTEX
  8
0
  6
CONTINUOUS
 10
7.020200
 20
1.459920
  0
VERTEX
  8
0
  6
CONTINUOUS
 10
7.047480
 20
1.403600
  0
VERTEX
  8
0
  6
CONTINUOUS
 10
7.545120
 20
1.403600
  0
SEQEND
  8
0
  0
TEXT
  8
0
 10
6.127880
 20
0.790680
 40
0.138110
  1
BA  338
 41
1.000000
  7
SN0
 71
     0
 72
     5
 11
6.718147
 21
0.790680
  0
TEXT
  8
0
 10
5.879720
 20
0.599280
 40
0.138110
  1
11/16" x 2-1/2"
 41
1.000000
  7
SN0
 71
     0
 72
     5
 11
6.964660
 21
0.599280
  0
ENDSEC
  0
EOF
