  0
SECTION
  2
HEADER
  9
$ACADVER
  1
AC1006
  9
$EXTMIN
 10
4.856280
 20
0.543400
  9
$EXTMAX
 10
7.768200
 20
3.673120
  9
$LTSCALE
 40
0.044000
  9
$PDMODE
 70
    35
  9
$PDSIZE
 40
0.035200
  0
ENDSEC
  0
SECTION
  2
TABLES
  0
TABLE
  2
LTYPE
 70
     9
  0
LTYPE
  2
CONTINUOUS
 70
    64
  3
Solid line
 72
    65
 73
     0
 40
0.000000
  0
LTYPE
  2
DASHED
 70
    64
  3
__ __ __ __ __ __ __ __ __ __ __ __ __ __ __
 72
    65
 73
     2
 40
0.000330
 49
0.000220
 49
-0.000110
  0
LTYPE
  2
HIDDEN
 70
    64
  3
 _ _ _ _ _ _ _ _ _ _ _ _ _ _ _ _ _ _ _ _ _ _
 72
    65
 73
     2
 40
0.000165
 49
0.000110
 49
-0.000055
  0
LTYPE
  2
CENTER
 70
    64
  3
____ _ ____ _ ____ _ ____ _ ____ _ ____ _ ____
 72
    65
 73
     4
 40
0.000880
 49
0.000550
 49
-0.000110
 49
0.000110
 49
-0.000110
  0
LTYPE
  2
PHANTOM
 70
    64
  3
_____ _ _ _____ _ _ _____ _ _ _____ _ _ ____
 72
    65
 73
     6
 40
0.001100
 49
0.000550
 49
-0.000110
 49
0.000110
 49
-0.000110
 49
0.000110
 49
-0.000110
  0
LTYPE
  2
DOT
 70
    64
  3
...............................................
 72
    65
 73
     2
 40
0.000110
 49
0.000000
 49
-0.000110
  0
LTYPE
  2
DASHDOT
 70
    64
  3
__ . __ . __ . __ . __ . __ . __ . __ . __ . __
 72
    65
 73
     4
 40
0.000440
 49
0.000220
 49
-0.000110
 49
0.000000
 49
-0.000110
  0
LTYPE
  2
BORDER
 70
    64
  3
__ __ . __ __ . __ __ . __ __ . __ __ . __ __
 72
    65
 73
     6
 40
0.000770
 49
0.000220
 49
-0.000110
 49
0.000220
 49
-0.000110
 49
0.000000
 49
-0.000110
  0
LTYPE
  2
DIVIDE
 70
    64
  3
__ . . __ . . __ . . __ . . __ . . __ . . __
 72
    65
 73
     6
 40
0.000550
 49
0.000220
 49
-0.000110
 49
0.000000
 49
-0.000110
 49
0.000000
 49
-0.000110
  0
LTYPE
  2
DOTDOT
 70
    64
  3
 . .  . .  . .  . .  . .  . . 
 72
    65
 73
     5
 40
0.000242
 49
-0.000110
 49
0.000000
 49
-0.000110
 49
0.000000
 49
-0.000110
  0
ENDTAB
  0
TABLE
  2
STYLE
 70
     2
  0
STYLE
 70
     0
  2
SN0
 40
0.000000
 41
0.000440
 50
0.000000
 71
     0
 42
0.000000
  3
ROMAND
  0
STYLE
 70
    68
  2
SV0
 40
0.000000
 41
0.000440
 50
0.000000
 71
     0
 42
0.000000
  3
ROMAND
  0
ENDTAB
  0
TABLE
  2
LAYER
 70
     3
  0
LAYER
  2
FOREGROUND
 70
    64
 62
     7
  6
CONTINUOUS
  0
LAYER
  2
BACKGROUND
 70
    65
 62
    -7
  6
CONTINUOUS
  0
LAYER
  2
0
 70
    64
 62
     7
  6
CONTINUOUS
  0
ENDTAB
  0
ENDSEC
  0
SECTION
  2
ENTITIES
  0
POLYLINE
  8
FOREGROUND
  6
CONTINUOUS
 66
     1
 40
0.000000
 41
0.000000
  0
VERTEX
  8
FOREGROUND
  6
CONTINUOUS
 10
0.000000
 20
4.216520
  0
VERTEX
  8
FOREGROUND
  6
CONTINUOUS
 10
8.499920
 20
4.216520
  0
VERTEX
  8
FOREGROUND
  6
CONTINUOUS
 10
8.499920
 20
-6.783480
  0
VERTEX
  8
FOREGROUND
  6
CONTINUOUS
 10
0.000000
 20
-6.783480
  0
VERTEX
  8
FOREGROUND
  6
CONTINUOUS
 10
0.000000
 20
4.216520
  0
SEQEND
  8
0
  0
POLYLINE
  8
FOREGROUND
  6
CONTINUOUS
 66
     1
 40
0.000000
 41
0.000000
  0
VERTEX
  8
FOREGROUND
  6
CONTINUOUS
 10
0.000000
 20
4.216520
  0
VERTEX
  8
FOREGROUND
  6
CONTINUOUS
 10
8.499920
 20
4.216520
  0
VERTEX
  8
FOREGROUND
  6
CONTINUOUS
 10
8.499920
 20
-6.783480
  0
VERTEX
  8
FOREGROUND
  6
CONTINUOUS
 10
0.000000
 20
-6.783480
  0
VERTEX
  8
FOREGROUND
  6
CONTINUOUS
 10
0.000000
 20
4.216520
  0
SEQEND
  8
0
  0
POLYLINE
  8
0
  6
CONTINUOUS
 66
     1
 40
0.014080
 41
0.014080
  0
VERTEX
  8
0
  6
CONTINUOUS
 10
5.555440
 20
3.553000
  0
VERTEX
  8
0
  6
CONTINUOUS
 10
5.609560
 20
3.552560
  0
VERTEX
  8
0
  6
CONTINUOUS
 10
5.653120
 20
3.548160
  0
VERTEX
  8
0
  6
CONTINUOUS
 10
5.688320
 20
3.540240
  0
VERTEX
  8
0
  6
CONTINUOUS
 10
5.736280
 20
3.523520
  0
VERTEX
  8
0
  6
CONTINUOUS
 10
5.790400
 20
3.500640
  0
VERTEX
  8
0
  6
CONTINUOUS
 10
5.834400
 20
3.487000
  0
VERTEX
  8
0
  6
CONTINUOUS
 10
5.875320
 20
3.479520
  0
VERTEX
  8
0
  6
CONTINUOUS
 10
5.926800
 20
3.474680
  0
VERTEX
  8
0
  6
CONTINUOUS
 10
5.969920
 20
3.473800
  0
VERTEX
  8
0
  6
CONTINUOUS
 10
5.976080
 20
3.369520
  0
VERTEX
  8
0
  6
CONTINUOUS
 10
6.924280
 20
3.369520
  0
VERTEX
  8
0
  6
CONTINUOUS
 10
6.941000
 20
3.269640
  0
VERTEX
  8
0
  6
CONTINUOUS
 10
7.065960
 20
3.269640
  0
VERTEX
  8
0
  6
CONTINUOUS
 10
7.082680
 20
3.268760
  0
VERTEX
  8
0
  6
CONTINUOUS
 10
7.098520
 20
3.265680
  0
VERTEX
  8
0
  6
CONTINUOUS
 10
7.126680
 20
3.255560
  0
VERTEX
  8
0
  6
CONTINUOUS
 10
7.151320
 20
3.240160
  0
VERTEX
  8
0
  6
CONTINUOUS
 10
7.171560
 20
3.220800
  0
VERTEX
  8
0
  6
CONTINUOUS
 10
7.187840
 20
3.199240
  0
VERTEX
  8
0
  6
CONTINUOUS
 10
7.200160
 20
3.176360
  0
VERTEX
  8
0
  6
CONTINUOUS
 10
7.208080
 20
3.154360
  0
VERTEX
  8
0
  6
CONTINUOUS
 10
7.211600
 20
3.134120
  0
VERTEX
  8
0
  6
CONTINUOUS
 10
7.366040
 20
3.134120
  0
VERTEX
  8
0
  6
CONTINUOUS
 10
7.366040
 20
2.946680
  0
VERTEX
  8
0
  6
CONTINUOUS
 10
4.863760
 20
2.946680
  0
VERTEX
  8
0
  6
CONTINUOUS
 10
4.863760
 20
3.665640
  0
VERTEX
  8
0
  6
CONTINUOUS
 10
5.526400
 20
3.648920
  0
VERTEX
  8
0
  6
CONTINUOUS
 10
5.551040
 20
3.553000
  0
VERTEX
  8
0
  6
CONTINUOUS
 10
5.555440
 20
3.553000
  0
SEQEND
  8
0
  0
SOLID
  8
0
 62
    15
 10
6.377360
 20
1.426480
 11
6.378680
 21
2.184160
 12
7.325120
 22
1.426480
 13
7.326440
 23
2.184160
  0
POLYLINE
  8
0
  6
CONTINUOUS
 66
     1
 40
0.000000
 41
0.000000
  0
VERTEX
  8
0
  6
CONTINUOUS
 10
6.377360
 20
1.426480
  0
VERTEX
  8
0
  6
CONTINUOUS
 10
6.378680
 20
2.184160
  0
VERTEX
  8
0
  6
CONTINUOUS
 10
7.326440
 20
2.184160
  0
VERTEX
  8
0
  6
CONTINUOUS
 10
7.325120
 20
1.426480
  0
VERTEX
  8
0
  6
CONTINUOUS
 10
6.377360
 20
1.426480
  0
SEQEND
  8
0
  0
SOLID
  8
0
 62
    15
 10
5.993680
 20
1.609960
 11
5.995000
 21
2.367640
 12
6.025800
 22
1.608200
 13
6.027120
 23
2.365880
  0
POLYLINE
  8
0
  6
CONTINUOUS
 66
     1
 40
0.000000
 41
0.000000
  0
VERTEX
  8
0
  6
CONTINUOUS
 10
5.993680
 20
1.609960
  0
VERTEX
  8
0
  6
CONTINUOUS
 10
5.995000
 20
2.367640
  0
VERTEX
  8
0
  6
CONTINUOUS
 10
6.027120
 20
2.365880
  0
VERTEX
  8
0
  6
CONTINUOUS
 10
6.025800
 20
1.608200
  0
VERTEX
  8
0
  6
CONTINUOUS
 10
5.993680
 20
1.609960
  0
SEQEND
  8
0
  0
SOLID
  8
0
 62
    15
 10
6.025800
 20
1.608200
 11
6.027120
 21
2.365880
 12
6.053960
 22
1.604680
 13
6.055280
 23
2.362360
  0
POLYLINE
  8
0
  6
CONTINUOUS
 66
     1
 40
0.000000
 41
0.000000
  0
VERTEX
  8
0
  6
CONTINUOUS
 10
6.025800
 20
1.608200
  0
VERTEX
  8
0
  6
CONTINUOUS
 10
6.027120
 20
2.365880
  0
VERTEX
  8
0
  6
CONTINUOUS
 10
6.055280
 20
2.362360
  0
VERTEX
  8
0
  6
CONTINUOUS
 10
6.053960
 20
1.604680
  0
VERTEX
  8
0
  6
CONTINUOUS
 10
6.025800
 20
1.608200
  0
SEQEND
  8
0
  0
SOLID
  8
0
 62
    15
 10
6.053960
 20
1.604680
 11
6.055280
 21
2.362360
 12
6.078160
 22
1.600280
 13
6.079480
 23
2.357520
  0
POLYLINE
  8
0
  6
CONTINUOUS
 66
     1
 40
0.000000
 41
0.000000
  0
VERTEX
  8
0
  6
CONTINUOUS
 10
6.053960
 20
1.604680
  0
VERTEX
  8
0
  6
CONTINUOUS
 10
6.055280
 20
2.362360
  0
VERTEX
  8
0
  6
CONTINUOUS
 10
6.079480
 20
2.357520
  0
VERTEX
  8
0
  6
CONTINUOUS
 10
6.078160
 20
1.600280
  0
VERTEX
  8
0
  6
CONTINUOUS
 10
6.053960
 20
1.604680
  0
SEQEND
  8
0
  0
SOLID
  8
0
 62
    15
 10
6.078160
 20
1.600280
 11
6.079480
 21
2.357520
 12
6.119080
 22
1.587520
 13
6.120400
 23
2.345200
  0
POLYLINE
  8
0
  6
CONTINUOUS
 66
     1
 40
0.000000
 41
0.000000
  0
VERTEX
  8
0
  6
CONTINUOUS
 10
6.078160
 20
1.600280
  0
VERTEX
  8
0
  6
CONTINUOUS
 10
6.079480
 20
2.357520
  0
VERTEX
  8
0
  6
CONTINUOUS
 10
6.120400
 20
2.345200
  0
VERTEX
  8
0
  6
CONTINUOUS
 10
6.119080
 20
1.587520
  0
VERTEX
  8
0
  6
CONTINUOUS
 10
6.078160
 20
1.600280
  0
SEQEND
  8
0
  0
SOLID
  8
0
 62
    15
 10
6.119080
 20
1.587520
 11
6.120400
 21
2.345200
 12
6.137120
 22
1.580040
 13
6.138440
 23
2.337720
  0
POLYLINE
  8
0
  6
CONTINUOUS
 66
     1
 40
0.000000
 41
0.000000
  0
VERTEX
  8
0
  6
CONTINUOUS
 10
6.119080
 20
1.587520
  0
VERTEX
  8
0
  6
CONTINUOUS
 10
6.120400
 20
2.345200
  0
VERTEX
  8
0
  6
CONTINUOUS
 10
6.138440
 20
2.337720
  0
VERTEX
  8
0
  6
CONTINUOUS
 10
6.137120
 20
1.580040
  0
VERTEX
  8
0
  6
CONTINUOUS
 10
6.119080
 20
1.587520
  0
SEQEND
  8
0
  0
SOLID
  8
0
 62
    15
 10
6.137120
 20
1.580040
 11
6.138440
 21
2.337720
 12
6.145920
 22
1.576520
 13
6.147240
 23
2.334200
  0
POLYLINE
  8
0
  6
CONTINUOUS
 66
     1
 40
0.000000
 41
0.000000
  0
VERTEX
  8
0
  6
CONTINUOUS
 10
6.137120
 20
1.580040
  0
VERTEX
  8
0
  6
CONTINUOUS
 10
6.138440
 20
2.337720
  0
VERTEX
  8
0
  6
CONTINUOUS
 10
6.147240
 20
2.334200
  0
VERTEX
  8
0
  6
CONTINUOUS
 10
6.145920
 20
1.576520
  0
VERTEX
  8
0
  6
CONTINUOUS
 10
6.137120
 20
1.580040
  0
SEQEND
  8
0
  0
SOLID
  8
0
 62
    15
 10
6.145920
 20
1.576520
 11
6.147240
 21
2.334200
 12
6.154720
 22
1.572560
 13
6.156040
 23
2.330240
  0
POLYLINE
  8
0
  6
CONTINUOUS
 66
     1
 40
0.000000
 41
0.000000
  0
VERTEX
  8
0
  6
CONTINUOUS
 10
6.145920
 20
1.576520
  0
VERTEX
  8
0
  6
CONTINUOUS
 10
6.147240
 20
2.334200
  0
VERTEX
  8
0
  6
CONTINUOUS
 10
6.156040
 20
2.330240
  0
VERTEX
  8
0
  6
CONTINUOUS
 10
6.154720
 20
1.572560
  0
VERTEX
  8
0
  6
CONTINUOUS
 10
6.145920
 20
1.576520
  0
SEQEND
  8
0
  0
SOLID
  8
0
 62
    15
 10
6.154720
 20
1.572560
 11
6.156040
 21
2.330240
 12
6.191240
 22
1.557160
 13
6.192560
 23
2.314840
  0
POLYLINE
  8
0
  6
CONTINUOUS
 66
     1
 40
0.000000
 41
0.000000
  0
VERTEX
  8
0
  6
CONTINUOUS
 10
6.154720
 20
1.572560
  0
VERTEX
  8
0
  6
CONTINUOUS
 10
6.156040
 20
2.330240
  0
VERTEX
  8
0
  6
CONTINUOUS
 10
6.192560
 20
2.314840
  0
VERTEX
  8
0
  6
CONTINUOUS
 10
6.191240
 20
1.557160
  0
VERTEX
  8
0
  6
CONTINUOUS
 10
6.154720
 20
1.572560
  0
SEQEND
  8
0
  0
SOLID
  8
0
 62
    15
 10
6.191240
 20
1.557160
 11
6.192560
 21
2.314840
 12
6.235240
 22
1.543960
 13
6.236560
 23
2.301640
  0
POLYLINE
  8
0
  6
CONTINUOUS
 66
     1
 40
0.000000
 41
0.000000
  0
VERTEX
  8
0
  6
CONTINUOUS
 10
6.191240
 20
1.557160
  0
VERTEX
  8
0
  6
CONTINUOUS
 10
6.192560
 20
2.314840
  0
VERTEX
  8
0
  6
CONTINUOUS
 10
6.236560
 20
2.301640
  0
VERTEX
  8
0
  6
CONTINUOUS
 10
6.235240
 20
1.543960
  0
VERTEX
  8
0
  6
CONTINUOUS
 10
6.191240
 20
1.557160
  0
SEQEND
  8
0
  0
SOLID
  8
0
 62
    15
 10
6.235240
 20
1.543960
 11
6.236560
 21
2.301640
 12
6.261640
 22
1.538680
 13
6.262960
 23
2.295920
  0
POLYLINE
  8
0
  6
CONTINUOUS
 66
     1
 40
0.000000
 41
0.000000
  0
VERTEX
  8
0
  6
CONTINUOUS
 10
6.235240
 20
1.543960
  0
VERTEX
  8
0
  6
CONTINUOUS
 10
6.236560
 20
2.301640
  0
VERTEX
  8
0
  6
CONTINUOUS
 10
6.262960
 20
2.295920
  0
VERTEX
  8
0
  6
CONTINUOUS
 10
6.261640
 20
1.538680
  0
VERTEX
  8
0
  6
CONTINUOUS
 10
6.235240
 20
1.543960
  0
SEQEND
  8
0
  0
SOLID
  8
0
 62
    15
 10
6.261640
 20
1.538680
 11
6.262960
 21
2.295920
 12
6.292440
 22
1.534280
 13
6.293760
 23
2.291960
  0
POLYLINE
  8
0
  6
CONTINUOUS
 66
     1
 40
0.000000
 41
0.000000
  0
VERTEX
  8
0
  6
CONTINUOUS
 10
6.261640
 20
1.538680
  0
VERTEX
  8
0
  6
CONTINUOUS
 10
6.262960
 20
2.295920
  0
VERTEX
  8
0
  6
CONTINUOUS
 10
6.293760
 20
2.291960
  0
VERTEX
  8
0
  6
CONTINUOUS
 10
6.292440
 20
1.534280
  0
VERTEX
  8
0
  6
CONTINUOUS
 10
6.261640
 20
1.538680
  0
SEQEND
  8
0
  0
SOLID
  8
0
 62
    15
 10
6.292440
 20
1.534280
 11
6.293760
 21
2.291960
 12
6.327640
 22
1.531640
 13
6.328960
 23
2.289320
  0
POLYLINE
  8
0
  6
CONTINUOUS
 66
     1
 40
0.000000
 41
0.000000
  0
VERTEX
  8
0
  6
CONTINUOUS
 10
6.292440
 20
1.534280
  0
VERTEX
  8
0
  6
CONTINUOUS
 10
6.293760
 20
2.291960
  0
VERTEX
  8
0
  6
CONTINUOUS
 10
6.328960
 20
2.289320
  0
VERTEX
  8
0
  6
CONTINUOUS
 10
6.327640
 20
1.531640
  0
VERTEX
  8
0
  6
CONTINUOUS
 10
6.292440
 20
1.534280
  0
SEQEND
  8
0
  0
SOLID
  8
0
 62
    15
 10
6.327640
 20
1.531640
 11
6.328960
 21
2.289320
 12
6.368560
 22
1.530760
 13
6.370320
 23
2.288440
  0
POLYLINE
  8
0
  6
CONTINUOUS
 66
     1
 40
0.000000
 41
0.000000
  0
VERTEX
  8
0
  6
CONTINUOUS
 10
6.327640
 20
1.531640
  0
VERTEX
  8
0
  6
CONTINUOUS
 10
6.328960
 20
2.289320
  0
VERTEX
  8
0
  6
CONTINUOUS
 10
6.370320
 20
2.288440
  0
VERTEX
  8
0
  6
CONTINUOUS
 10
6.368560
 20
1.530760
  0
VERTEX
  8
0
  6
CONTINUOUS
 10
6.327640
 20
1.531640
  0
SEQEND
  8
0
  0
SOLID
  8
0
 62
    15
 10
6.368560
 20
1.530760
 11
6.370320
 21
2.288440
 12
6.370760
 22
1.530760
 13
6.372080
 23
2.288440
  0
POLYLINE
  8
0
  6
CONTINUOUS
 66
     1
 40
0.000000
 41
0.000000
  0
VERTEX
  8
0
  6
CONTINUOUS
 10
6.368560
 20
1.530760
  0
VERTEX
  8
0
  6
CONTINUOUS
 10
6.370320
 20
2.288440
  0
VERTEX
  8
0
  6
CONTINUOUS
 10
6.372080
 20
2.288440
  0
VERTEX
  8
0
  6
CONTINUOUS
 10
6.370760
 20
1.530760
  0
VERTEX
  8
0
  6
CONTINUOUS
 10
6.368560
 20
1.530760
  0
SEQEND
  8
0
  0
SOLID
  8
0
 62
    15
 10
6.370760
 20
1.530760
 11
6.372080
 21
2.288440
 12
6.377360
 22
1.426480
 13
6.378680
 23
2.184160
  0
POLYLINE
  8
0
  6
CONTINUOUS
 66
     1
 40
0.000000
 41
0.000000
  0
VERTEX
  8
0
  6
CONTINUOUS
 10
6.370760
 20
1.530760
  0
VERTEX
  8
0
  6
CONTINUOUS
 10
6.372080
 20
2.288440
  0
VERTEX
  8
0
  6
CONTINUOUS
 10
6.378680
 20
2.184160
  0
VERTEX
  8
0
  6
CONTINUOUS
 10
6.377360
 20
1.426480
  0
VERTEX
  8
0
  6
CONTINUOUS
 10
6.370760
 20
1.530760
  0
SEQEND
  8
0
  0
SOLID
  8
0
 62
    15
 10
5.956280
 20
1.609960
 11
5.957600
 21
2.367200
 12
5.993680
 22
1.609960
 13
5.995000
 23
2.367640
  0
POLYLINE
  8
0
  6
CONTINUOUS
 66
     1
 40
0.000000
 41
0.000000
  0
VERTEX
  8
0
  6
CONTINUOUS
 10
5.956280
 20
1.609960
  0
VERTEX
  8
0
  6
CONTINUOUS
 10
5.957600
 20
2.367200
  0
VERTEX
  8
0
  6
CONTINUOUS
 10
5.995000
 20
2.367640
  0
VERTEX
  8
0
  6
CONTINUOUS
 10
5.993680
 20
1.609960
  0
VERTEX
  8
0
  6
CONTINUOUS
 10
5.956280
 20
1.609960
  0
SEQEND
  8
0
  0
SOLID
  8
0
 62
    15
 10
7.325120
 20
1.426480
 11
7.326440
 21
2.184160
 12
7.341840
 22
1.326600
 13
7.343160
 23
2.084280
  0
POLYLINE
  8
0
  6
CONTINUOUS
 66
     1
 40
0.000000
 41
0.000000
  0
VERTEX
  8
0
  6
CONTINUOUS
 10
7.325120
 20
1.426480
  0
VERTEX
  8
0
  6
CONTINUOUS
 10
7.326440
 20
2.184160
  0
VERTEX
  8
0
  6
CONTINUOUS
 10
7.343160
 20
2.084280
  0
VERTEX
  8
0
  6
CONTINUOUS
 10
7.341840
 20
1.326600
  0
VERTEX
  8
0
  6
CONTINUOUS
 10
7.325120
 20
1.426480
  0
SEQEND
  8
0
  0
SOLID
  8
0
 62
    15
 10
7.341840
 20
1.326600
 11
7.343160
 21
2.084280
 12
7.466800
 22
1.326600
 13
7.468120
 23
2.084280
  0
POLYLINE
  8
0
  6
CONTINUOUS
 66
     1
 40
0.000000
 41
0.000000
  0
VERTEX
  8
0
  6
CONTINUOUS
 10
7.341840
 20
1.326600
  0
VERTEX
  8
0
  6
CONTINUOUS
 10
7.343160
 20
2.084280
  0
VERTEX
  8
0
  6
CONTINUOUS
 10
7.468120
 20
2.084280
  0
VERTEX
  8
0
  6
CONTINUOUS
 10
7.466800
 20
1.326600
  0
VERTEX
  8
0
  6
CONTINUOUS
 10
7.341840
 20
1.326600
  0
SEQEND
  8
0
  0
SOLID
  8
0
 62
    15
 10
7.466800
 20
1.326600
 11
7.468120
 21
2.084280
 12
7.498920
 22
1.322640
 13
7.500680
 23
2.080320
  0
POLYLINE
  8
0
  6
CONTINUOUS
 66
     1
 40
0.000000
 41
0.000000
  0
VERTEX
  8
0
  6
CONTINUOUS
 10
7.466800
 20
1.326600
  0
VERTEX
  8
0
  6
CONTINUOUS
 10
7.468120
 20
2.084280
  0
VERTEX
  8
0
  6
CONTINUOUS
 10
7.500680
 20
2.080320
  0
VERTEX
  8
0
  6
CONTINUOUS
 10
7.498920
 20
1.322640
  0
VERTEX
  8
0
  6
CONTINUOUS
 10
7.466800
 20
1.326600
  0
SEQEND
  8
0
  0
SOLID
  8
0
 62
    15
 10
7.498920
 20
1.322640
 11
7.500680
 21
2.080320
 12
7.527520
 22
1.312520
 13
7.528840
 23
2.069760
  0
POLYLINE
  8
0
  6
CONTINUOUS
 66
     1
 40
0.000000
 41
0.000000
  0
VERTEX
  8
0
  6
CONTINUOUS
 10
7.498920
 20
1.322640
  0
VERTEX
  8
0
  6
CONTINUOUS
 10
7.500680
 20
2.080320
  0
VERTEX
  8
0
  6
CONTINUOUS
 10
7.528840
 20
2.069760
  0
VERTEX
  8
0
  6
CONTINUOUS
 10
7.527520
 20
1.312520
  0
VERTEX
  8
0
  6
CONTINUOUS
 10
7.498920
 20
1.322640
  0
SEQEND
  8
0
  0
SOLID
  8
0
 62
    15
 10
7.527520
 20
1.312520
 11
7.528840
 21
2.069760
 12
7.552160
 22
1.296680
 13
7.553480
 23
2.054360
  0
POLYLINE
  8
0
  6
CONTINUOUS
 66
     1
 40
0.000000
 41
0.000000
  0
VERTEX
  8
0
  6
CONTINUOUS
 10
7.527520
 20
1.312520
  0
VERTEX
  8
0
  6
CONTINUOUS
 10
7.528840
 20
2.069760
  0
VERTEX
  8
0
  6
CONTINUOUS
 10
7.553480
 20
2.054360
  0
VERTEX
  8
0
  6
CONTINUOUS
 10
7.552160
 20
1.296680
  0
VERTEX
  8
0
  6
CONTINUOUS
 10
7.527520
 20
1.312520
  0
SEQEND
  8
0
  0
SOLID
  8
0
 62
    15
 10
7.552160
 20
1.296680
 11
7.553480
 21
2.054360
 12
7.572400
 22
1.277760
 13
7.573720
 23
2.035000
  0
POLYLINE
  8
0
  6
CONTINUOUS
 66
     1
 40
0.000000
 41
0.000000
  0
VERTEX
  8
0
  6
CONTINUOUS
 10
7.552160
 20
1.296680
  0
VERTEX
  8
0
  6
CONTINUOUS
 10
7.553480
 20
2.054360
  0
VERTEX
  8
0
  6
CONTINUOUS
 10
7.573720
 20
2.035000
  0
VERTEX
  8
0
  6
CONTINUOUS
 10
7.572400
 20
1.277760
  0
VERTEX
  8
0
  6
CONTINUOUS
 10
7.552160
 20
1.296680
  0
SEQEND
  8
0
  0
SOLID
  8
0
 62
    15
 10
7.572400
 20
1.277760
 11
7.573720
 21
2.035000
 12
7.588680
 22
1.255760
 13
7.590000
 23
2.013440
  0
POLYLINE
  8
0
  6
CONTINUOUS
 66
     1
 40
0.000000
 41
0.000000
  0
VERTEX
  8
0
  6
CONTINUOUS
 10
7.572400
 20
1.277760
  0
VERTEX
  8
0
  6
CONTINUOUS
 10
7.573720
 20
2.035000
  0
VERTEX
  8
0
  6
CONTINUOUS
 10
7.590000
 20
2.013440
  0
VERTEX
  8
0
  6
CONTINUOUS
 10
7.588680
 20
1.255760
  0
VERTEX
  8
0
  6
CONTINUOUS
 10
7.572400
 20
1.277760
  0
SEQEND
  8
0
  0
SOLID
  8
0
 62
    15
 10
7.588680
 20
1.255760
 11
7.590000
 21
2.013440
 12
7.601000
 22
1.233320
 13
7.602320
 23
1.991000
  0
POLYLINE
  8
0
  6
CONTINUOUS
 66
     1
 40
0.000000
 41
0.000000
  0
VERTEX
  8
0
  6
CONTINUOUS
 10
7.588680
 20
1.255760
  0
VERTEX
  8
0
  6
CONTINUOUS
 10
7.590000
 20
2.013440
  0
VERTEX
  8
0
  6
CONTINUOUS
 10
7.602320
 20
1.991000
  0
VERTEX
  8
0
  6
CONTINUOUS
 10
7.601000
 20
1.233320
  0
VERTEX
  8
0
  6
CONTINUOUS
 10
7.588680
 20
1.255760
  0
SEQEND
  8
0
  0
SOLID
  8
0
 62
    15
 10
7.601000
 20
1.233320
 11
7.602320
 21
1.991000
 12
7.608920
 22
1.211320
 13
7.610240
 23
1.969000
  0
POLYLINE
  8
0
  6
CONTINUOUS
 66
     1
 40
0.000000
 41
0.000000
  0
VERTEX
  8
0
  6
CONTINUOUS
 10
7.601000
 20
1.233320
  0
VERTEX
  8
0
  6
CONTINUOUS
 10
7.602320
 20
1.991000
  0
VERTEX
  8
0
  6
CONTINUOUS
 10
7.610240
 20
1.969000
  0
VERTEX
  8
0
  6
CONTINUOUS
 10
7.608920
 20
1.211320
  0
VERTEX
  8
0
  6
CONTINUOUS
 10
7.601000
 20
1.233320
  0
SEQEND
  8
0
  0
SOLID
  8
0
 62
    15
 10
7.608920
 20
1.211320
 11
7.610240
 21
1.969000
 12
7.612440
 22
1.191080
 13
7.613760
 23
1.948760
  0
POLYLINE
  8
0
  6
CONTINUOUS
 66
     1
 40
0.000000
 41
0.000000
  0
VERTEX
  8
0
  6
CONTINUOUS
 10
7.608920
 20
1.211320
  0
VERTEX
  8
0
  6
CONTINUOUS
 10
7.610240
 20
1.969000
  0
VERTEX
  8
0
  6
CONTINUOUS
 10
7.613760
 20
1.948760
  0
VERTEX
  8
0
  6
CONTINUOUS
 10
7.612440
 20
1.191080
  0
VERTEX
  8
0
  6
CONTINUOUS
 10
7.608920
 20
1.211320
  0
SEQEND
  8
0
  0
SOLID
  8
0
 62
    15
 10
7.766880
 20
1.191080
 11
7.768200
 21
1.948760
 12
7.766880
 22
1.003640
 13
7.768200
 23
1.761320
  0
POLYLINE
  8
0
  6
CONTINUOUS
 66
     1
 40
0.000000
 41
0.000000
  0
VERTEX
  8
0
  6
CONTINUOUS
 10
7.766880
 20
1.191080
  0
VERTEX
  8
0
  6
CONTINUOUS
 10
7.768200
 20
1.948760
  0
VERTEX
  8
0
  6
CONTINUOUS
 10
7.768200
 20
1.761320
  0
VERTEX
  8
0
  6
CONTINUOUS
 10
7.766880
 20
1.003640
  0
VERTEX
  8
0
  6
CONTINUOUS
 10
7.766880
 20
1.191080
  0
SEQEND
  8
0
  0
SOLID
  8
0
 62
    15
 10
7.612440
 20
1.191080
 11
7.613760
 21
1.948760
 12
7.766880
 22
1.191080
 13
7.768200
 23
1.948760
  0
POLYLINE
  8
0
  6
CONTINUOUS
 66
     1
 40
0.000000
 41
0.000000
  0
VERTEX
  8
0
  6
CONTINUOUS
 10
7.612440
 20
1.191080
  0
VERTEX
  8
0
  6
CONTINUOUS
 10
7.613760
 20
1.948760
  0
VERTEX
  8
0
  6
CONTINUOUS
 10
7.768200
 20
1.948760
  0
VERTEX
  8
0
  6
CONTINUOUS
 10
7.766880
 20
1.191080
  0
VERTEX
  8
0
  6
CONTINUOUS
 10
7.612440
 20
1.191080
  0
SEQEND
  8
0
  0
SOLID
  8
0
 62
    15
 10
5.264600
 20
1.722160
 11
5.265920
 21
2.479840
 12
5.266800
 22
1.722160
 13
5.268120
 23
2.479840
  0
POLYLINE
  8
0
  6
CONTINUOUS
 66
     1
 40
0.000000
 41
0.000000
  0
VERTEX
  8
0
  6
CONTINUOUS
 10
5.264600
 20
1.722160
  0
VERTEX
  8
0
  6
CONTINUOUS
 10
5.265920
 20
2.479840
  0
VERTEX
  8
0
  6
CONTINUOUS
 10
5.268120
 20
2.479840
  0
VERTEX
  8
0
  6
CONTINUOUS
 10
5.266800
 20
1.722160
  0
VERTEX
  8
0
  6
CONTINUOUS
 10
5.264600
 20
1.722160
  0
SEQEND
  8
0
  0
SOLID
  8
0
 62
    15
 10
5.266800
 20
1.722160
 11
5.268120
 21
2.479840
 12
5.927240
 22
1.705440
 13
5.928560
 23
2.463120
  0
POLYLINE
  8
0
  6
CONTINUOUS
 66
     1
 40
0.000000
 41
0.000000
  0
VERTEX
  8
0
  6
CONTINUOUS
 10
5.266800
 20
1.722160
  0
VERTEX
  8
0
  6
CONTINUOUS
 10
5.268120
 20
2.479840
  0
VERTEX
  8
0
  6
CONTINUOUS
 10
5.928560
 20
2.463120
  0
VERTEX
  8
0
  6
CONTINUOUS
 10
5.927240
 20
1.705440
  0
VERTEX
  8
0
  6
CONTINUOUS
 10
5.266800
 20
1.722160
  0
SEQEND
  8
0
  0
SOLID
  8
0
 62
    15
 10
5.927240
 20
1.705440
 11
5.928560
 21
2.463120
 12
5.952320
 22
1.609960
 13
5.953640
 23
2.367640
  0
POLYLINE
  8
0
  6
CONTINUOUS
 66
     1
 40
0.000000
 41
0.000000
  0
VERTEX
  8
0
  6
CONTINUOUS
 10
5.927240
 20
1.705440
  0
VERTEX
  8
0
  6
CONTINUOUS
 10
5.928560
 20
2.463120
  0
VERTEX
  8
0
  6
CONTINUOUS
 10
5.953640
 20
2.367640
  0
VERTEX
  8
0
  6
CONTINUOUS
 10
5.952320
 20
1.609960
  0
VERTEX
  8
0
  6
CONTINUOUS
 10
5.927240
 20
1.705440
  0
SEQEND
  8
0
  0
SOLID
  8
0
 62
    15
 10
5.952320
 20
1.609960
 11
5.953640
 21
2.367640
 12
5.956280
 22
1.609960
 13
5.957600
 23
2.367200
  0
POLYLINE
  8
0
  6
CONTINUOUS
 66
     1
 40
0.000000
 41
0.000000
  0
VERTEX
  8
0
  6
CONTINUOUS
 10
5.952320
 20
1.609960
  0
VERTEX
  8
0
  6
CONTINUOUS
 10
5.953640
 20
2.367640
  0
VERTEX
  8
0
  6
CONTINUOUS
 10
5.957600
 20
2.367200
  0
VERTEX
  8
0
  6
CONTINUOUS
 10
5.956280
 20
1.609960
  0
VERTEX
  8
0
  6
CONTINUOUS
 10
5.952320
 20
1.609960
  0
SEQEND
  8
0
  0
POLYLINE
  8
0
  6
CONTINUOUS
 66
     1
 40
0.000000
 41
0.000000
  0
VERTEX
  8
0
  6
CONTINUOUS
 10
5.956280
 20
1.609960
  0
VERTEX
  8
0
  6
CONTINUOUS
 10
5.993680
 20
1.609960
  0
VERTEX
  8
0
  6
CONTINUOUS
 10
6.025800
 20
1.608200
  0
VERTEX
  8
0
  6
CONTINUOUS
 10
6.053960
 20
1.604680
  0
VERTEX
  8
0
  6
CONTINUOUS
 10
6.078160
 20
1.600280
  0
VERTEX
  8
0
  6
CONTINUOUS
 10
6.119080
 20
1.587520
  0
VERTEX
  8
0
  6
CONTINUOUS
 10
6.137120
 20
1.580040
  0
VERTEX
  8
0
  6
CONTINUOUS
 10
6.145920
 20
1.576520
  0
VERTEX
  8
0
  6
CONTINUOUS
 10
6.154720
 20
1.572560
  0
VERTEX
  8
0
  6
CONTINUOUS
 10
6.191240
 20
1.557160
  0
VERTEX
  8
0
  6
CONTINUOUS
 10
6.235240
 20
1.543960
  0
VERTEX
  8
0
  6
CONTINUOUS
 10
6.261640
 20
1.538680
  0
VERTEX
  8
0
  6
CONTINUOUS
 10
6.292440
 20
1.534280
  0
VERTEX
  8
0
  6
CONTINUOUS
 10
6.327640
 20
1.531640
  0
VERTEX
  8
0
  6
CONTINUOUS
 10
6.368560
 20
1.530760
  0
VERTEX
  8
0
  6
CONTINUOUS
 10
6.370760
 20
1.530760
  0
VERTEX
  8
0
  6
CONTINUOUS
 10
6.377360
 20
1.426480
  0
VERTEX
  8
0
  6
CONTINUOUS
 10
7.325120
 20
1.426480
  0
VERTEX
  8
0
  6
CONTINUOUS
 10
7.341840
 20
1.326600
  0
VERTEX
  8
0
  6
CONTINUOUS
 10
7.466800
 20
1.326600
  0
VERTEX
  8
0
  6
CONTINUOUS
 10
7.498920
 20
1.322640
  0
VERTEX
  8
0
  6
CONTINUOUS
 10
7.527520
 20
1.312520
  0
VERTEX
  8
0
  6
CONTINUOUS
 10
7.552160
 20
1.296680
  0
VERTEX
  8
0
  6
CONTINUOUS
 10
7.572400
 20
1.277760
  0
VERTEX
  8
0
  6
CONTINUOUS
 10
7.588680
 20
1.255760
  0
VERTEX
  8
0
  6
CONTINUOUS
 10
7.601000
 20
1.233320
  0
VERTEX
  8
0
  6
CONTINUOUS
 10
7.608920
 20
1.211320
  0
VERTEX
  8
0
  6
CONTINUOUS
 10
7.612440
 20
1.191080
  0
VERTEX
  8
0
  6
CONTINUOUS
 10
7.766880
 20
1.191080
  0
VERTEX
  8
0
  6
CONTINUOUS
 10
7.766880
 20
1.003640
  0
VERTEX
  8
0
  6
CONTINUOUS
 10
5.264600
 20
1.003640
  0
VERTEX
  8
0
  6
CONTINUOUS
 10
5.264600
 20
1.722160
  0
VERTEX
  8
0
  6
CONTINUOUS
 10
5.266800
 20
1.722160
  0
VERTEX
  8
0
  6
CONTINUOUS
 10
5.927240
 20
1.705440
  0
VERTEX
  8
0
  6
CONTINUOUS
 10
5.952320
 20
1.609960
  0
VERTEX
  8
0
  6
CONTINUOUS
 10
5.956280
 20
1.609960
  0
SEQEND
  8
0
  0
TEXT
  8
0
 10
6.218960
 20
0.779240
 40
0.138143
  1
BA  335
 41
1.000000
  7
SN0
 71
     0
 72
     5
 11
6.809851
 21
0.779240
  0
TEXT
  8
0
 10
6.063200
 20
0.587840
 40
0.138143
  1
3/4" x 2-1/2"
 41
1.000000
  7
SN0
 71
     0
 72
     5
 11
6.964872
 21
0.587840
  0
ENDSEC
  0
EOF
