  0
SECTION
  2
HEADER
  9
$ACADVER
  1
AC1006
  9
$EXTMIN
 10
4.357320
 20
0.434280
  9
$EXTMAX
 10
7.690320
 20
6.754440
  9
$LTSCALE
 40
0.044000
  9
$PDMODE
 70
    35
  9
$PDSIZE
 40
0.035200
  0
ENDSEC
  0
SECTION
  2
TABLES
  0
TABLE
  2
LTYPE
 70
     9
  0
LTYPE
  2
CONTINUOUS
 70
    64
  3
Solid line
 72
    65
 73
     0
 40
0.000000
  0
LTYPE
  2
DASHED
 70
    64
  3
__ __ __ __ __ __ __ __ __ __ __ __ __ __ __
 72
    65
 73
     2
 40
0.000330
 49
0.000220
 49
-0.000110
  0
LTYPE
  2
HIDDEN
 70
    64
  3
 _ _ _ _ _ _ _ _ _ _ _ _ _ _ _ _ _ _ _ _ _ _
 72
    65
 73
     2
 40
0.000165
 49
0.000110
 49
-0.000055
  0
LTYPE
  2
CENTER
 70
    64
  3
____ _ ____ _ ____ _ ____ _ ____ _ ____ _ ____
 72
    65
 73
     4
 40
0.000880
 49
0.000550
 49
-0.000110
 49
0.000110
 49
-0.000110
  0
LTYPE
  2
PHANTOM
 70
    64
  3
_____ _ _ _____ _ _ _____ _ _ _____ _ _ ____
 72
    65
 73
     6
 40
0.001100
 49
0.000550
 49
-0.000110
 49
0.000110
 49
-0.000110
 49
0.000110
 49
-0.000110
  0
LTYPE
  2
DOT
 70
    64
  3
...............................................
 72
    65
 73
     2
 40
0.000110
 49
0.000000
 49
-0.000110
  0
LTYPE
  2
DASHDOT
 70
    64
  3
__ . __ . __ . __ . __ . __ . __ . __ . __ . __
 72
    65
 73
     4
 40
0.000440
 49
0.000220
 49
-0.000110
 49
0.000000
 49
-0.000110
  0
LTYPE
  2
BORDER
 70
    64
  3
__ __ . __ __ . __ __ . __ __ . __ __ . __ __
 72
    65
 73
     6
 40
0.000770
 49
0.000220
 49
-0.000110
 49
0.000220
 49
-0.000110
 49
0.000000
 49
-0.000110
  0
LTYPE
  2
DIVIDE
 70
    64
  3
__ . . __ . . __ . . __ . . __ . . __ . . __
 72
    65
 73
     6
 40
0.000550
 49
0.000220
 49
-0.000110
 49
0.000000
 49
-0.000110
 49
0.000000
 49
-0.000110
  0
LTYPE
  2
DOTDOT
 70
    64
  3
 . .  . .  . .  . .  . .  . . 
 72
    65
 73
     5
 40
0.000242
 49
-0.000110
 49
0.000000
 49
-0.000110
 49
0.000000
 49
-0.000110
  0
ENDTAB
  0
TABLE
  2
STYLE
 70
     2
  0
STYLE
 70
     0
  2
SN0
 40
0.000000
 41
0.000440
 50
0.000000
 71
     0
 42
0.000000
  3
ROMAND
  0
STYLE
 70
    68
  2
SV0
 40
0.000000
 41
0.000440
 50
0.000000
 71
     0
 42
0.000000
  3
ROMAND
  0
ENDTAB
  0
TABLE
  2
LAYER
 70
     3
  0
LAYER
  2
FOREGROUND
 70
    64
 62
     7
  6
CONTINUOUS
  0
LAYER
  2
BACKGROUND
 70
    65
 62
    -7
  6
CONTINUOUS
  0
LAYER
  2
0
 70
    64
 62
     7
  6
CONTINUOUS
  0
ENDTAB
  0
ENDSEC
  0
SECTION
  2
ENTITIES
  0
POLYLINE
  8
FOREGROUND
  6
CONTINUOUS
 66
     1
 40
0.000000
 41
0.000000
  0
VERTEX
  8
FOREGROUND
  6
CONTINUOUS
 10
0.000000
 20
7.188720
  0
VERTEX
  8
FOREGROUND
  6
CONTINUOUS
 10
8.499920
 20
7.188720
  0
VERTEX
  8
FOREGROUND
  6
CONTINUOUS
 10
8.499920
 20
-3.811280
  0
VERTEX
  8
FOREGROUND
  6
CONTINUOUS
 10
0.000000
 20
-3.811280
  0
VERTEX
  8
FOREGROUND
  6
CONTINUOUS
 10
0.000000
 20
7.188720
  0
SEQEND
  8
0
  0
POLYLINE
  8
FOREGROUND
  6
CONTINUOUS
 66
     1
 40
0.000000
 41
0.000000
  0
VERTEX
  8
FOREGROUND
  6
CONTINUOUS
 10
0.000000
 20
7.188720
  0
VERTEX
  8
FOREGROUND
  6
CONTINUOUS
 10
8.499920
 20
7.188720
  0
VERTEX
  8
FOREGROUND
  6
CONTINUOUS
 10
8.499920
 20
-3.811280
  0
VERTEX
  8
FOREGROUND
  6
CONTINUOUS
 10
0.000000
 20
-3.811280
  0
VERTEX
  8
FOREGROUND
  6
CONTINUOUS
 10
0.000000
 20
7.188720
  0
SEQEND
  8
0
  0
POLYLINE
  8
0
  6
CONTINUOUS
 66
     1
 40
0.014080
 41
0.014080
  0
VERTEX
  8
0
  6
CONTINUOUS
 10
6.843760
 20
5.777640
  0
VERTEX
  8
0
  6
CONTINUOUS
 10
6.817360
 20
5.780280
  0
VERTEX
  8
0
  6
CONTINUOUS
 10
6.782160
 20
5.789960
  0
VERTEX
  8
0
  6
CONTINUOUS
 10
6.747840
 20
5.804920
  0
VERTEX
  8
0
  6
CONTINUOUS
 10
6.707360
 20
5.828240
  0
VERTEX
  8
0
  6
CONTINUOUS
 10
6.662920
 20
5.862120
  0
VERTEX
  8
0
  6
CONTINUOUS
 10
6.630800
 20
5.891600
  0
VERTEX
  8
0
  6
CONTINUOUS
 10
6.580640
 20
5.947480
  0
VERTEX
  8
0
  6
CONTINUOUS
 10
6.546320
 20
5.993240
  0
VERTEX
  8
0
  6
CONTINUOUS
 10
6.511120
 20
6.046920
  0
VERTEX
  8
0
  6
CONTINUOUS
 10
6.475920
 20
6.108520
  0
VERTEX
  8
0
  6
CONTINUOUS
 10
6.422680
 20
6.211040
  0
VERTEX
  8
0
  6
CONTINUOUS
 10
6.386600
 20
6.275720
  0
VERTEX
  8
0
  6
CONTINUOUS
 10
6.348760
 20
6.336440
  0
VERTEX
  8
0
  6
CONTINUOUS
 10
6.309160
 20
6.393640
  0
VERTEX
  8
0
  6
CONTINUOUS
 10
6.266920
 20
6.446440
  0
VERTEX
  8
0
  6
CONTINUOUS
 10
6.222040
 20
6.495720
  0
VERTEX
  8
0
  6
CONTINUOUS
 10
6.174080
 20
6.540600
  0
VERTEX
  8
0
  6
CONTINUOUS
 10
6.122600
 20
6.581080
  0
VERTEX
  8
0
  6
CONTINUOUS
 10
6.066720
 20
6.617600
  0
VERTEX
  8
0
  6
CONTINUOUS
 10
6.006440
 20
6.649720
  0
VERTEX
  8
0
  6
CONTINUOUS
 10
5.940880
 20
6.677440
  0
VERTEX
  8
0
  6
CONTINUOUS
 10
5.869600
 20
6.700320
  0
VERTEX
  8
0
  6
CONTINUOUS
 10
5.831760
 20
6.710440
  0
VERTEX
  8
0
  6
CONTINUOUS
 10
5.751680
 20
6.726720
  0
VERTEX
  8
0
  6
CONTINUOUS
 10
5.665000
 20
6.738160
  0
VERTEX
  8
0
  6
CONTINUOUS
 10
5.618800
 20
6.742120
  0
VERTEX
  8
0
  6
CONTINUOUS
 10
5.521120
 20
6.746520
  0
VERTEX
  8
0
  6
CONTINUOUS
 10
5.420360
 20
6.746520
  0
VERTEX
  8
0
  6
CONTINUOUS
 10
5.321360
 20
6.742560
  0
VERTEX
  8
0
  6
CONTINUOUS
 10
5.225000
 20
6.733760
  0
VERTEX
  8
0
  6
CONTINUOUS
 10
5.130840
 20
6.720120
  0
VERTEX
  8
0
  6
CONTINUOUS
 10
5.040200
 20
6.701200
  0
VERTEX
  8
0
  6
CONTINUOUS
 10
4.996200
 20
6.689320
  0
VERTEX
  8
0
  6
CONTINUOUS
 10
4.910840
 20
6.660720
  0
VERTEX
  8
0
  6
CONTINUOUS
 10
4.869480
 20
6.644440
  0
VERTEX
  8
0
  6
CONTINUOUS
 10
4.829440
 20
6.625960
  0
VERTEX
  8
0
  6
CONTINUOUS
 10
4.752880
 20
6.584160
  0
VERTEX
  8
0
  6
CONTINUOUS
 10
4.681160
 20
6.534440
  0
VERTEX
  8
0
  6
CONTINUOUS
 10
4.631000
 20
6.491760
  0
VERTEX
  8
0
  6
CONTINUOUS
 10
4.583920
 20
6.444680
  0
VERTEX
  8
0
  6
CONTINUOUS
 10
4.540360
 20
6.392760
  0
VERTEX
  8
0
  6
CONTINUOUS
 10
4.513080
 20
6.355360
  0
VERTEX
  8
0
  6
CONTINUOUS
 10
4.475240
 20
6.294640
  0
VERTEX
  8
0
  6
CONTINUOUS
 10
4.441360
 20
6.228640
  0
VERTEX
  8
0
  6
CONTINUOUS
 10
4.411880
 20
6.156920
  0
VERTEX
  8
0
  6
CONTINUOUS
 10
4.385920
 20
6.079920
  0
VERTEX
  8
0
  6
CONTINUOUS
 10
4.364800
 20
5.996320
  0
VERTEX
  8
0
  6
CONTINUOUS
 10
4.364800
 20
4.288240
  0
VERTEX
  8
0
  6
CONTINUOUS
 10
6.854320
 20
4.288240
  0
VERTEX
  8
0
  6
CONTINUOUS
 10
6.854320
 20
5.777640
  0
VERTEX
  8
0
  6
CONTINUOUS
 10
6.843760
 20
5.777640
  0
SEQEND
  8
0
  0
SOLID
  8
0
 62
    15
 10
6.505400
 20
3.024120
 11
7.144720
 21
3.388000
 12
6.582840
 22
2.906200
 13
7.222160
 23
3.270080
  0
POLYLINE
  8
0
  6
CONTINUOUS
 66
     1
 40
0.000000
 41
0.000000
  0
VERTEX
  8
0
  6
CONTINUOUS
 10
6.505400
 20
3.024120
  0
VERTEX
  8
0
  6
CONTINUOUS
 10
7.144720
 20
3.388000
  0
VERTEX
  8
0
  6
CONTINUOUS
 10
7.222160
 20
3.270080
  0
VERTEX
  8
0
  6
CONTINUOUS
 10
6.582840
 20
2.906200
  0
VERTEX
  8
0
  6
CONTINUOUS
 10
6.505400
 20
3.024120
  0
SEQEND
  8
0
  0
SOLID
  8
0
 62
    15
 10
4.986520
 20
3.236640
 11
5.626280
 21
3.600520
 12
5.148880
 22
3.306600
 13
5.788640
 23
3.670480
  0
POLYLINE
  8
0
  6
CONTINUOUS
 66
     1
 40
0.000000
 41
0.000000
  0
VERTEX
  8
0
  6
CONTINUOUS
 10
4.986520
 20
3.236640
  0
VERTEX
  8
0
  6
CONTINUOUS
 10
5.626280
 20
3.600520
  0
VERTEX
  8
0
  6
CONTINUOUS
 10
5.788640
 20
3.670480
  0
VERTEX
  8
0
  6
CONTINUOUS
 10
5.148880
 20
3.306600
  0
VERTEX
  8
0
  6
CONTINUOUS
 10
4.986520
 20
3.236640
  0
SEQEND
  8
0
  0
SOLID
  8
0
 62
    15
 10
5.148880
 20
3.306600
 11
5.788640
 21
3.670480
 12
5.327080
 22
3.351040
 13
5.966400
 23
3.714480
  0
POLYLINE
  8
0
  6
CONTINUOUS
 66
     1
 40
0.000000
 41
0.000000
  0
VERTEX
  8
0
  6
CONTINUOUS
 10
5.148880
 20
3.306600
  0
VERTEX
  8
0
  6
CONTINUOUS
 10
5.788640
 20
3.670480
  0
VERTEX
  8
0
  6
CONTINUOUS
 10
5.966400
 20
3.714480
  0
VERTEX
  8
0
  6
CONTINUOUS
 10
5.327080
 20
3.351040
  0
VERTEX
  8
0
  6
CONTINUOUS
 10
5.148880
 20
3.306600
  0
SEQEND
  8
0
  0
SOLID
  8
0
 62
    15
 10
5.327080
 20
3.351040
 11
5.966400
 21
3.714480
 12
5.517600
 22
3.373040
 13
6.156920
 23
3.736920
  0
POLYLINE
  8
0
  6
CONTINUOUS
 66
     1
 40
0.000000
 41
0.000000
  0
VERTEX
  8
0
  6
CONTINUOUS
 10
5.327080
 20
3.351040
  0
VERTEX
  8
0
  6
CONTINUOUS
 10
5.966400
 20
3.714480
  0
VERTEX
  8
0
  6
CONTINUOUS
 10
6.156920
 20
3.736920
  0
VERTEX
  8
0
  6
CONTINUOUS
 10
5.517600
 20
3.373040
  0
VERTEX
  8
0
  6
CONTINUOUS
 10
5.327080
 20
3.351040
  0
SEQEND
  8
0
  0
SOLID
  8
0
 62
    15
 10
5.517600
 20
3.373040
 11
6.156920
 21
3.736920
 12
5.717360
 22
3.377440
 13
6.356680
 23
3.740880
  0
POLYLINE
  8
0
  6
CONTINUOUS
 66
     1
 40
0.000000
 41
0.000000
  0
VERTEX
  8
0
  6
CONTINUOUS
 10
5.517600
 20
3.373040
  0
VERTEX
  8
0
  6
CONTINUOUS
 10
6.156920
 20
3.736920
  0
VERTEX
  8
0
  6
CONTINUOUS
 10
6.356680
 20
3.740880
  0
VERTEX
  8
0
  6
CONTINUOUS
 10
5.717360
 20
3.377440
  0
VERTEX
  8
0
  6
CONTINUOUS
 10
5.517600
 20
3.373040
  0
SEQEND
  8
0
  0
SOLID
  8
0
 62
    15
 10
5.717360
 20
3.377440
 11
6.356680
 21
3.740880
 12
5.905240
 22
3.363800
 13
6.545000
 23
3.727680
  0
POLYLINE
  8
0
  6
CONTINUOUS
 66
     1
 40
0.000000
 41
0.000000
  0
VERTEX
  8
0
  6
CONTINUOUS
 10
5.717360
 20
3.377440
  0
VERTEX
  8
0
  6
CONTINUOUS
 10
6.356680
 20
3.740880
  0
VERTEX
  8
0
  6
CONTINUOUS
 10
6.545000
 20
3.727680
  0
VERTEX
  8
0
  6
CONTINUOUS
 10
5.905240
 20
3.363800
  0
VERTEX
  8
0
  6
CONTINUOUS
 10
5.717360
 20
3.377440
  0
SEQEND
  8
0
  0
SOLID
  8
0
 62
    15
 10
5.905240
 20
3.363800
 11
6.545000
 21
3.727680
 12
6.065840
 22
3.331240
 13
6.705160
 23
3.695120
  0
POLYLINE
  8
0
  6
CONTINUOUS
 66
     1
 40
0.000000
 41
0.000000
  0
VERTEX
  8
0
  6
CONTINUOUS
 10
5.905240
 20
3.363800
  0
VERTEX
  8
0
  6
CONTINUOUS
 10
6.545000
 20
3.727680
  0
VERTEX
  8
0
  6
CONTINUOUS
 10
6.705160
 20
3.695120
  0
VERTEX
  8
0
  6
CONTINUOUS
 10
6.065840
 20
3.331240
  0
VERTEX
  8
0
  6
CONTINUOUS
 10
5.905240
 20
3.363800
  0
SEQEND
  8
0
  0
SOLID
  8
0
 62
    15
 10
6.065840
 20
3.331240
 11
6.705160
 21
3.695120
 12
6.202240
 22
3.280200
 13
6.842000
 23
3.644080
  0
POLYLINE
  8
0
  6
CONTINUOUS
 66
     1
 40
0.000000
 41
0.000000
  0
VERTEX
  8
0
  6
CONTINUOUS
 10
6.065840
 20
3.331240
  0
VERTEX
  8
0
  6
CONTINUOUS
 10
6.705160
 20
3.695120
  0
VERTEX
  8
0
  6
CONTINUOUS
 10
6.842000
 20
3.644080
  0
VERTEX
  8
0
  6
CONTINUOUS
 10
6.202240
 20
3.280200
  0
VERTEX
  8
0
  6
CONTINUOUS
 10
6.065840
 20
3.331240
  0
SEQEND
  8
0
  0
SOLID
  8
0
 62
    15
 10
6.202240
 20
3.280200
 11
6.842000
 21
3.644080
 12
6.318840
 22
3.212000
 13
6.958160
 23
3.575880
  0
POLYLINE
  8
0
  6
CONTINUOUS
 66
     1
 40
0.000000
 41
0.000000
  0
VERTEX
  8
0
  6
CONTINUOUS
 10
6.202240
 20
3.280200
  0
VERTEX
  8
0
  6
CONTINUOUS
 10
6.842000
 20
3.644080
  0
VERTEX
  8
0
  6
CONTINUOUS
 10
6.958160
 20
3.575880
  0
VERTEX
  8
0
  6
CONTINUOUS
 10
6.318840
 20
3.212000
  0
VERTEX
  8
0
  6
CONTINUOUS
 10
6.202240
 20
3.280200
  0
SEQEND
  8
0
  0
SOLID
  8
0
 62
    15
 10
6.318840
 20
3.212000
 11
6.958160
 21
3.575880
 12
6.418280
 22
3.126200
 13
7.058040
 23
3.490080
  0
POLYLINE
  8
0
  6
CONTINUOUS
 66
     1
 40
0.000000
 41
0.000000
  0
VERTEX
  8
0
  6
CONTINUOUS
 10
6.318840
 20
3.212000
  0
VERTEX
  8
0
  6
CONTINUOUS
 10
6.958160
 20
3.575880
  0
VERTEX
  8
0
  6
CONTINUOUS
 10
7.058040
 20
3.490080
  0
VERTEX
  8
0
  6
CONTINUOUS
 10
6.418280
 20
3.126200
  0
VERTEX
  8
0
  6
CONTINUOUS
 10
6.318840
 20
3.212000
  0
SEQEND
  8
0
  0
SOLID
  8
0
 62
    15
 10
6.418280
 20
3.126200
 11
7.058040
 21
3.490080
 12
6.505400
 22
3.024120
 13
7.144720
 23
3.388000
  0
POLYLINE
  8
0
  6
CONTINUOUS
 66
     1
 40
0.000000
 41
0.000000
  0
VERTEX
  8
0
  6
CONTINUOUS
 10
6.418280
 20
3.126200
  0
VERTEX
  8
0
  6
CONTINUOUS
 10
7.058040
 20
3.490080
  0
VERTEX
  8
0
  6
CONTINUOUS
 10
7.144720
 20
3.388000
  0
VERTEX
  8
0
  6
CONTINUOUS
 10
6.505400
 20
3.024120
  0
VERTEX
  8
0
  6
CONTINUOUS
 10
6.418280
 20
3.126200
  0
SEQEND
  8
0
  0
SOLID
  8
0
 62
    15
 10
7.050560
 20
2.408560
 11
7.689880
 21
2.772440
 12
7.050560
 22
0.918720
 13
7.689880
 23
1.282600
  0
POLYLINE
  8
0
  6
CONTINUOUS
 66
     1
 40
0.000000
 41
0.000000
  0
VERTEX
  8
0
  6
CONTINUOUS
 10
7.050560
 20
2.408560
  0
VERTEX
  8
0
  6
CONTINUOUS
 10
7.689880
 20
2.772440
  0
VERTEX
  8
0
  6
CONTINUOUS
 10
7.689880
 20
1.282600
  0
VERTEX
  8
0
  6
CONTINUOUS
 10
7.050560
 20
0.918720
  0
VERTEX
  8
0
  6
CONTINUOUS
 10
7.050560
 20
2.408560
  0
SEQEND
  8
0
  0
SOLID
  8
0
 62
    15
 10
6.582840
 20
2.906200
 11
7.222160
 21
3.270080
 12
6.654560
 22
2.773320
 13
7.294320
 23
3.136760
  0
POLYLINE
  8
0
  6
CONTINUOUS
 66
     1
 40
0.000000
 41
0.000000
  0
VERTEX
  8
0
  6
CONTINUOUS
 10
6.582840
 20
2.906200
  0
VERTEX
  8
0
  6
CONTINUOUS
 10
7.222160
 20
3.270080
  0
VERTEX
  8
0
  6
CONTINUOUS
 10
7.294320
 20
3.136760
  0
VERTEX
  8
0
  6
CONTINUOUS
 10
6.654560
 20
2.773320
  0
VERTEX
  8
0
  6
CONTINUOUS
 10
6.582840
 20
2.906200
  0
SEQEND
  8
0
  0
SOLID
  8
0
 62
    15
 10
6.654560
 20
2.773320
 11
7.294320
 21
3.136760
 12
6.724960
 22
2.649680
 13
7.364720
 23
3.013560
  0
POLYLINE
  8
0
  6
CONTINUOUS
 66
     1
 40
0.000000
 41
0.000000
  0
VERTEX
  8
0
  6
CONTINUOUS
 10
6.654560
 20
2.773320
  0
VERTEX
  8
0
  6
CONTINUOUS
 10
7.294320
 20
3.136760
  0
VERTEX
  8
0
  6
CONTINUOUS
 10
7.364720
 20
3.013560
  0
VERTEX
  8
0
  6
CONTINUOUS
 10
6.724960
 20
2.649680
  0
VERTEX
  8
0
  6
CONTINUOUS
 10
6.654560
 20
2.773320
  0
SEQEND
  8
0
  0
SOLID
  8
0
 62
    15
 10
6.724960
 20
2.649680
 11
7.364720
 21
3.013560
 12
6.794040
 22
2.558160
 13
7.433360
 23
2.921600
  0
POLYLINE
  8
0
  6
CONTINUOUS
 66
     1
 40
0.000000
 41
0.000000
  0
VERTEX
  8
0
  6
CONTINUOUS
 10
6.724960
 20
2.649680
  0
VERTEX
  8
0
  6
CONTINUOUS
 10
7.364720
 20
3.013560
  0
VERTEX
  8
0
  6
CONTINUOUS
 10
7.433360
 20
2.921600
  0
VERTEX
  8
0
  6
CONTINUOUS
 10
6.794040
 20
2.558160
  0
VERTEX
  8
0
  6
CONTINUOUS
 10
6.724960
 20
2.649680
  0
SEQEND
  8
0
  0
SOLID
  8
0
 62
    15
 10
6.794040
 20
2.558160
 11
7.433360
 21
2.921600
 12
6.859160
 22
2.493040
 13
7.498480
 23
2.856920
  0
POLYLINE
  8
0
  6
CONTINUOUS
 66
     1
 40
0.000000
 41
0.000000
  0
VERTEX
  8
0
  6
CONTINUOUS
 10
6.794040
 20
2.558160
  0
VERTEX
  8
0
  6
CONTINUOUS
 10
7.433360
 20
2.921600
  0
VERTEX
  8
0
  6
CONTINUOUS
 10
7.498480
 20
2.856920
  0
VERTEX
  8
0
  6
CONTINUOUS
 10
6.859160
 20
2.493040
  0
VERTEX
  8
0
  6
CONTINUOUS
 10
6.794040
 20
2.558160
  0
SEQEND
  8
0
  0
SOLID
  8
0
 62
    15
 10
6.859160
 20
2.493040
 11
7.498480
 21
2.856920
 12
6.917680
 22
2.450360
 13
7.557000
 23
2.813800
  0
POLYLINE
  8
0
  6
CONTINUOUS
 66
     1
 40
0.000000
 41
0.000000
  0
VERTEX
  8
0
  6
CONTINUOUS
 10
6.859160
 20
2.493040
  0
VERTEX
  8
0
  6
CONTINUOUS
 10
7.498480
 20
2.856920
  0
VERTEX
  8
0
  6
CONTINUOUS
 10
7.557000
 20
2.813800
  0
VERTEX
  8
0
  6
CONTINUOUS
 10
6.917680
 20
2.450360
  0
VERTEX
  8
0
  6
CONTINUOUS
 10
6.859160
 20
2.493040
  0
SEQEND
  8
0
  0
SOLID
  8
0
 62
    15
 10
6.917680
 20
2.450360
 11
7.557000
 21
2.813800
 12
6.967400
 22
2.424840
 13
7.607160
 23
2.788720
  0
POLYLINE
  8
0
  6
CONTINUOUS
 66
     1
 40
0.000000
 41
0.000000
  0
VERTEX
  8
0
  6
CONTINUOUS
 10
6.917680
 20
2.450360
  0
VERTEX
  8
0
  6
CONTINUOUS
 10
7.557000
 20
2.813800
  0
VERTEX
  8
0
  6
CONTINUOUS
 10
7.607160
 20
2.788720
  0
VERTEX
  8
0
  6
CONTINUOUS
 10
6.967400
 20
2.424840
  0
VERTEX
  8
0
  6
CONTINUOUS
 10
6.917680
 20
2.450360
  0
SEQEND
  8
0
  0
SOLID
  8
0
 62
    15
 10
6.967400
 20
2.424840
 11
7.607160
 21
2.788720
 12
7.006120
 22
2.412960
 13
7.645880
 23
2.776400
  0
POLYLINE
  8
0
  6
CONTINUOUS
 66
     1
 40
0.000000
 41
0.000000
  0
VERTEX
  8
0
  6
CONTINUOUS
 10
6.967400
 20
2.424840
  0
VERTEX
  8
0
  6
CONTINUOUS
 10
7.607160
 20
2.788720
  0
VERTEX
  8
0
  6
CONTINUOUS
 10
7.645880
 20
2.776400
  0
VERTEX
  8
0
  6
CONTINUOUS
 10
7.006120
 20
2.412960
  0
VERTEX
  8
0
  6
CONTINUOUS
 10
6.967400
 20
2.424840
  0
SEQEND
  8
0
  0
SOLID
  8
0
 62
    15
 10
7.006120
 20
2.412960
 11
7.645880
 21
2.776400
 12
7.031200
 22
2.409000
 13
7.670960
 23
2.772440
  0
POLYLINE
  8
0
  6
CONTINUOUS
 66
     1
 40
0.000000
 41
0.000000
  0
VERTEX
  8
0
  6
CONTINUOUS
 10
7.006120
 20
2.412960
  0
VERTEX
  8
0
  6
CONTINUOUS
 10
7.645880
 20
2.776400
  0
VERTEX
  8
0
  6
CONTINUOUS
 10
7.670960
 20
2.772440
  0
VERTEX
  8
0
  6
CONTINUOUS
 10
7.031200
 20
2.409000
  0
VERTEX
  8
0
  6
CONTINUOUS
 10
7.006120
 20
2.412960
  0
SEQEND
  8
0
  0
SOLID
  8
0
 62
    15
 10
7.031200
 20
2.409000
 11
7.670960
 21
2.772440
 12
7.040000
 22
2.408560
 13
7.679760
 23
2.772440
  0
POLYLINE
  8
0
  6
CONTINUOUS
 66
     1
 40
0.000000
 41
0.000000
  0
VERTEX
  8
0
  6
CONTINUOUS
 10
7.031200
 20
2.409000
  0
VERTEX
  8
0
  6
CONTINUOUS
 10
7.670960
 20
2.772440
  0
VERTEX
  8
0
  6
CONTINUOUS
 10
7.679760
 20
2.772440
  0
VERTEX
  8
0
  6
CONTINUOUS
 10
7.040000
 20
2.408560
  0
VERTEX
  8
0
  6
CONTINUOUS
 10
7.031200
 20
2.409000
  0
SEQEND
  8
0
  0
SOLID
  8
0
 62
    15
 10
7.040000
 20
2.408560
 11
7.679760
 21
2.772440
 12
7.050560
 22
2.408560
 13
7.689880
 23
2.772440
  0
POLYLINE
  8
0
  6
CONTINUOUS
 66
     1
 40
0.000000
 41
0.000000
  0
VERTEX
  8
0
  6
CONTINUOUS
 10
7.040000
 20
2.408560
  0
VERTEX
  8
0
  6
CONTINUOUS
 10
7.679760
 20
2.772440
  0
VERTEX
  8
0
  6
CONTINUOUS
 10
7.689880
 20
2.772440
  0
VERTEX
  8
0
  6
CONTINUOUS
 10
7.050560
 20
2.408560
  0
VERTEX
  8
0
  6
CONTINUOUS
 10
7.040000
 20
2.408560
  0
SEQEND
  8
0
  0
POLYLINE
  8
0
  6
CONTINUOUS
 66
     1
 40
0.000000
 41
0.000000
  0
VERTEX
  8
0
  6
CONTINUOUS
 10
7.050560
 20
2.408560
  0
VERTEX
  8
0
  6
CONTINUOUS
 10
7.050560
 20
0.918720
  0
VERTEX
  8
0
  6
CONTINUOUS
 10
4.561040
 20
0.918720
  0
VERTEX
  8
0
  6
CONTINUOUS
 10
4.561040
 20
2.627240
  0
VERTEX
  8
0
  6
CONTINUOUS
 10
4.590080
 20
2.737240
  0
VERTEX
  8
0
  6
CONTINUOUS
 10
4.627480
 20
2.836240
  0
VERTEX
  8
0
  6
CONTINUOUS
 10
4.671480
 20
2.925560
  0
VERTEX
  8
0
  6
CONTINUOUS
 10
4.722520
 20
3.005200
  0
VERTEX
  8
0
  6
CONTINUOUS
 10
4.843520
 20
3.137200
  0
VERTEX
  8
0
  6
CONTINUOUS
 10
4.986520
 20
3.236640
  0
VERTEX
  8
0
  6
CONTINUOUS
 10
5.148880
 20
3.306600
  0
VERTEX
  8
0
  6
CONTINUOUS
 10
5.327080
 20
3.351040
  0
VERTEX
  8
0
  6
CONTINUOUS
 10
5.517600
 20
3.373040
  0
VERTEX
  8
0
  6
CONTINUOUS
 10
5.717360
 20
3.377440
  0
VERTEX
  8
0
  6
CONTINUOUS
 10
5.905240
 20
3.363800
  0
VERTEX
  8
0
  6
CONTINUOUS
 10
6.065840
 20
3.331240
  0
VERTEX
  8
0
  6
CONTINUOUS
 10
6.202240
 20
3.280200
  0
VERTEX
  8
0
  6
CONTINUOUS
 10
6.318840
 20
3.212000
  0
VERTEX
  8
0
  6
CONTINUOUS
 10
6.418280
 20
3.126200
  0
VERTEX
  8
0
  6
CONTINUOUS
 10
6.505400
 20
3.024120
  0
VERTEX
  8
0
  6
CONTINUOUS
 10
6.582840
 20
2.906200
  0
VERTEX
  8
0
  6
CONTINUOUS
 10
6.654560
 20
2.773320
  0
VERTEX
  8
0
  6
CONTINUOUS
 10
6.724960
 20
2.649680
  0
VERTEX
  8
0
  6
CONTINUOUS
 10
6.794040
 20
2.558160
  0
VERTEX
  8
0
  6
CONTINUOUS
 10
6.859160
 20
2.493040
  0
VERTEX
  8
0
  6
CONTINUOUS
 10
6.917680
 20
2.450360
  0
VERTEX
  8
0
  6
CONTINUOUS
 10
6.967400
 20
2.424840
  0
VERTEX
  8
0
  6
CONTINUOUS
 10
7.006120
 20
2.412960
  0
VERTEX
  8
0
  6
CONTINUOUS
 10
7.031200
 20
2.409000
  0
VERTEX
  8
0
  6
CONTINUOUS
 10
7.040000
 20
2.408560
  0
VERTEX
  8
0
  6
CONTINUOUS
 10
7.050560
 20
2.408560
  0
SEQEND
  8
0
  0
TEXT
  8
0
 10
5.830000
 20
0.669240
 40
0.138180
  1
BA  333
 41
1.000000
  7
SN0
 71
     0
 72
     5
 11
6.420619
 21
0.669240
  0
TEXT
  8
0
 10
5.600320
 20
0.477840
 40
0.138180
  1
2-1/2" x 2-1/2"
 41
1.000000
  7
SN0
 71
     0
 72
     5
 11
6.648203
 21
0.477840
  0
ENDSEC
  0
EOF
