  0
SECTION
  2
HEADER
  9
$ACADVER
  1
AC1006
  9
$EXTMIN
 10
2.267760
 20
0.482240
  9
$EXTMAX
 10
7.747960
 20
5.073640
  9
$LTSCALE
 40
0.044000
  9
$PDMODE
 70
    35
  9
$PDSIZE
 40
0.035200
  0
ENDSEC
  0
SECTION
  2
TABLES
  0
TABLE
  2
LTYPE
 70
     9
  0
LTYPE
  2
CONTINUOUS
 70
    64
  3
Solid line
 72
    65
 73
     0
 40
0.000000
  0
LTYPE
  2
DASHED
 70
    64
  3
__ __ __ __ __ __ __ __ __ __ __ __ __ __ __
 72
    65
 73
     2
 40
0.000330
 49
0.000220
 49
-0.000110
  0
LTYPE
  2
HIDDEN
 70
    64
  3
 _ _ _ _ _ _ _ _ _ _ _ _ _ _ _ _ _ _ _ _ _ _
 72
    65
 73
     2
 40
0.000165
 49
0.000110
 49
-0.000055
  0
LTYPE
  2
CENTER
 70
    64
  3
____ _ ____ _ ____ _ ____ _ ____ _ ____ _ ____
 72
    65
 73
     4
 40
0.000880
 49
0.000550
 49
-0.000110
 49
0.000110
 49
-0.000110
  0
LTYPE
  2
PHANTOM
 70
    64
  3
_____ _ _ _____ _ _ _____ _ _ _____ _ _ ____
 72
    65
 73
     6
 40
0.001100
 49
0.000550
 49
-0.000110
 49
0.000110
 49
-0.000110
 49
0.000110
 49
-0.000110
  0
LTYPE
  2
DOT
 70
    64
  3
...............................................
 72
    65
 73
     2
 40
0.000110
 49
0.000000
 49
-0.000110
  0
LTYPE
  2
DASHDOT
 70
    64
  3
__ . __ . __ . __ . __ . __ . __ . __ . __ . __
 72
    65
 73
     4
 40
0.000440
 49
0.000220
 49
-0.000110
 49
0.000000
 49
-0.000110
  0
LTYPE
  2
BORDER
 70
    64
  3
__ __ . __ __ . __ __ . __ __ . __ __ . __ __
 72
    65
 73
     6
 40
0.000770
 49
0.000220
 49
-0.000110
 49
0.000220
 49
-0.000110
 49
0.000000
 49
-0.000110
  0
LTYPE
  2
DIVIDE
 70
    64
  3
__ . . __ . . __ . . __ . . __ . . __ . . __
 72
    65
 73
     6
 40
0.000550
 49
0.000220
 49
-0.000110
 49
0.000000
 49
-0.000110
 49
0.000000
 49
-0.000110
  0
LTYPE
  2
DOTDOT
 70
    64
  3
 . .  . .  . .  . .  . .  . . 
 72
    65
 73
     5
 40
0.000242
 49
-0.000110
 49
0.000000
 49
-0.000110
 49
0.000000
 49
-0.000110
  0
ENDTAB
  0
TABLE
  2
STYLE
 70
     2
  0
STYLE
 70
     0
  2
SN0
 40
0.000000
 41
0.000440
 50
0.000000
 71
     0
 42
0.000000
  3
ROMAND
  0
STYLE
 70
    68
  2
SV0
 40
0.000000
 41
0.000440
 50
0.000000
 71
     0
 42
0.000000
  3
ROMAND
  0
ENDTAB
  0
TABLE
  2
LAYER
 70
     3
  0
LAYER
  2
FOREGROUND
 70
    64
 62
     7
  6
CONTINUOUS
  0
LAYER
  2
BACKGROUND
 70
    65
 62
    -7
  6
CONTINUOUS
  0
LAYER
  2
0
 70
    64
 62
     7
  6
CONTINUOUS
  0
ENDTAB
  0
ENDSEC
  0
SECTION
  2
ENTITIES
  0
POLYLINE
  8
FOREGROUND
  6
CONTINUOUS
 66
     1
 40
0.000000
 41
0.000000
  0
VERTEX
  8
FOREGROUND
  6
CONTINUOUS
 10
0.000000
 20
5.555880
  0
VERTEX
  8
FOREGROUND
  6
CONTINUOUS
 10
8.499920
 20
5.555880
  0
VERTEX
  8
FOREGROUND
  6
CONTINUOUS
 10
8.499920
 20
-5.444120
  0
VERTEX
  8
FOREGROUND
  6
CONTINUOUS
 10
0.000000
 20
-5.444120
  0
VERTEX
  8
FOREGROUND
  6
CONTINUOUS
 10
0.000000
 20
5.555880
  0
SEQEND
  8
0
  0
POLYLINE
  8
FOREGROUND
  6
CONTINUOUS
 66
     1
 40
0.000000
 41
0.000000
  0
VERTEX
  8
FOREGROUND
  6
CONTINUOUS
 10
0.000000
 20
5.555880
  0
VERTEX
  8
FOREGROUND
  6
CONTINUOUS
 10
8.499920
 20
5.555880
  0
VERTEX
  8
FOREGROUND
  6
CONTINUOUS
 10
8.499920
 20
-5.444120
  0
VERTEX
  8
FOREGROUND
  6
CONTINUOUS
 10
0.000000
 20
-5.444120
  0
VERTEX
  8
FOREGROUND
  6
CONTINUOUS
 10
0.000000
 20
5.555880
  0
SEQEND
  8
0
  0
POLYLINE
  8
0
  6
CONTINUOUS
 66
     1
 40
0.014080
 41
0.014080
  0
VERTEX
  8
0
  6
CONTINUOUS
 10
2.366320
 20
3.303520
  0
VERTEX
  8
0
  6
CONTINUOUS
 10
2.366320
 20
5.061760
  0
VERTEX
  8
0
  6
CONTINUOUS
 10
3.847800
 20
5.061760
  0
VERTEX
  8
0
  6
CONTINUOUS
 10
3.847800
 20
4.984760
  0
VERTEX
  8
0
  6
CONTINUOUS
 10
3.924800
 20
4.984760
  0
VERTEX
  8
0
  6
CONTINUOUS
 10
3.924800
 20
4.903360
  0
VERTEX
  8
0
  6
CONTINUOUS
 10
3.951200
 20
4.902920
  0
VERTEX
  8
0
  6
CONTINUOUS
 10
3.995640
 20
4.898080
  0
VERTEX
  8
0
  6
CONTINUOUS
 10
4.038760
 20
4.889280
  0
VERTEX
  8
0
  6
CONTINUOUS
 10
4.080560
 20
4.876080
  0
VERTEX
  8
0
  6
CONTINUOUS
 10
4.120600
 20
4.858920
  0
VERTEX
  8
0
  6
CONTINUOUS
 10
4.158440
 20
4.838240
  0
VERTEX
  8
0
  6
CONTINUOUS
 10
4.194520
 20
4.814040
  0
VERTEX
  8
0
  6
CONTINUOUS
 10
4.227960
 20
4.786760
  0
VERTEX
  8
0
  6
CONTINUOUS
 10
4.272840
 20
4.740560
  0
VERTEX
  8
0
  6
CONTINUOUS
 10
4.298800
 20
4.706240
  0
VERTEX
  8
0
  6
CONTINUOUS
 10
4.321680
 20
4.669720
  0
VERTEX
  8
0
  6
CONTINUOUS
 10
4.340600
 20
4.631000
  0
VERTEX
  8
0
  6
CONTINUOUS
 10
4.356000
 20
4.590520
  0
VERTEX
  8
0
  6
CONTINUOUS
 10
4.367440
 20
4.548280
  0
VERTEX
  8
0
  6
CONTINUOUS
 10
4.374480
 20
4.504720
  0
VERTEX
  8
0
  6
CONTINUOUS
 10
4.376680
 20
4.459840
  0
VERTEX
  8
0
  6
CONTINUOUS
 10
4.468640
 20
4.459840
  0
VERTEX
  8
0
  6
CONTINUOUS
 10
4.468640
 20
4.318160
  0
VERTEX
  8
0
  6
CONTINUOUS
 10
3.966160
 20
4.318160
  0
VERTEX
  8
0
  6
CONTINUOUS
 10
3.966160
 20
4.044920
  0
VERTEX
  8
0
  6
CONTINUOUS
 10
4.470400
 20
4.044920
  0
VERTEX
  8
0
  6
CONTINUOUS
 10
4.470400
 20
3.905440
  0
VERTEX
  8
0
  6
CONTINUOUS
 10
4.376680
 20
3.905440
  0
VERTEX
  8
0
  6
CONTINUOUS
 10
4.376240
 20
3.880800
  0
VERTEX
  8
0
  6
CONTINUOUS
 10
4.371400
 20
3.836800
  0
VERTEX
  8
0
  6
CONTINUOUS
 10
4.362160
 20
3.794120
  0
VERTEX
  8
0
  6
CONTINUOUS
 10
4.348960
 20
3.752760
  0
VERTEX
  8
0
  6
CONTINUOUS
 10
4.331800
 20
3.713600
  0
VERTEX
  8
0
  6
CONTINUOUS
 10
4.310680
 20
3.676640
  0
VERTEX
  8
0
  6
CONTINUOUS
 10
4.286040
 20
3.641440
  0
VERTEX
  8
0
  6
CONTINUOUS
 10
4.258320
 20
3.609320
  0
VERTEX
  8
0
  6
CONTINUOUS
 10
4.227960
 20
3.579400
  0
VERTEX
  8
0
  6
CONTINUOUS
 10
4.194520
 20
3.552560
  0
VERTEX
  8
0
  6
CONTINUOUS
 10
4.139960
 20
3.518680
  0
VERTEX
  8
0
  6
CONTINUOUS
 10
4.100800
 20
3.500200
  0
VERTEX
  8
0
  6
CONTINUOUS
 10
4.059880
 20
3.485680
  0
VERTEX
  8
0
  6
CONTINUOUS
 10
4.017640
 20
3.474680
  0
VERTEX
  8
0
  6
CONTINUOUS
 10
3.973640
 20
3.468080
  0
VERTEX
  8
0
  6
CONTINUOUS
 10
3.928760
 20
3.465880
  0
VERTEX
  8
0
  6
CONTINUOUS
 10
3.926560
 20
3.465880
  0
VERTEX
  8
0
  6
CONTINUOUS
 10
3.926560
 20
3.378320
  0
VERTEX
  8
0
  6
CONTINUOUS
 10
3.849560
 20
3.378320
  0
VERTEX
  8
0
  6
CONTINUOUS
 10
3.849560
 20
3.303520
  0
VERTEX
  8
0
  6
CONTINUOUS
 10
2.366320
 20
3.303520
  0
SEQEND
  8
0
  0
POLYLINE
  8
0
  6
CONTINUOUS
 66
     1
 40
0.014080
 41
0.014080
  0
VERTEX
  8
0
  6
CONTINUOUS
 10
4.572480
 20
3.295160
  0
VERTEX
  8
0
  6
CONTINUOUS
 10
6.684920
 20
3.295160
  0
VERTEX
  8
0
  6
CONTINUOUS
 10
6.684920
 20
5.066160
  0
VERTEX
  8
0
  6
CONTINUOUS
 10
4.566320
 20
5.066160
  0
VERTEX
  8
0
  6
CONTINUOUS
 10
4.570720
 20
5.061760
  0
VERTEX
  8
0
  6
CONTINUOUS
 10
4.570720
 20
4.984760
  0
VERTEX
  8
0
  6
CONTINUOUS
 10
4.647720
 20
4.984760
  0
VERTEX
  8
0
  6
CONTINUOUS
 10
4.647720
 20
4.903360
  0
VERTEX
  8
0
  6
CONTINUOUS
 10
4.674120
 20
4.902920
  0
VERTEX
  8
0
  6
CONTINUOUS
 10
4.718560
 20
4.898080
  0
VERTEX
  8
0
  6
CONTINUOUS
 10
4.761680
 20
4.889280
  0
VERTEX
  8
0
  6
CONTINUOUS
 10
4.803480
 20
4.876080
  0
VERTEX
  8
0
  6
CONTINUOUS
 10
4.843520
 20
4.858920
  0
VERTEX
  8
0
  6
CONTINUOUS
 10
4.881360
 20
4.838240
  0
VERTEX
  8
0
  6
CONTINUOUS
 10
4.917440
 20
4.814040
  0
VERTEX
  8
0
  6
CONTINUOUS
 10
4.950880
 20
4.786760
  0
VERTEX
  8
0
  6
CONTINUOUS
 10
4.995760
 20
4.740560
  0
VERTEX
  8
0
  6
CONTINUOUS
 10
5.021720
 20
4.706240
  0
VERTEX
  8
0
  6
CONTINUOUS
 10
5.044600
 20
4.669720
  0
VERTEX
  8
0
  6
CONTINUOUS
 10
5.063520
 20
4.631000
  0
VERTEX
  8
0
  6
CONTINUOUS
 10
5.078920
 20
4.590520
  0
VERTEX
  8
0
  6
CONTINUOUS
 10
5.090360
 20
4.548280
  0
VERTEX
  8
0
  6
CONTINUOUS
 10
5.097400
 20
4.504720
  0
VERTEX
  8
0
  6
CONTINUOUS
 10
5.099600
 20
4.459840
  0
VERTEX
  8
0
  6
CONTINUOUS
 10
5.191120
 20
4.459840
  0
VERTEX
  8
0
  6
CONTINUOUS
 10
5.191120
 20
4.318160
  0
VERTEX
  8
0
  6
CONTINUOUS
 10
4.689080
 20
4.318160
  0
VERTEX
  8
0
  6
CONTINUOUS
 10
4.689080
 20
4.044920
  0
VERTEX
  8
0
  6
CONTINUOUS
 10
5.193320
 20
4.044920
  0
VERTEX
  8
0
  6
CONTINUOUS
 10
5.193320
 20
3.905440
  0
VERTEX
  8
0
  6
CONTINUOUS
 10
5.099600
 20
3.905440
  0
VERTEX
  8
0
  6
CONTINUOUS
 10
5.099160
 20
3.880800
  0
VERTEX
  8
0
  6
CONTINUOUS
 10
5.094320
 20
3.836800
  0
VERTEX
  8
0
  6
CONTINUOUS
 10
5.085080
 20
3.794120
  0
VERTEX
  8
0
  6
CONTINUOUS
 10
5.071880
 20
3.752760
  0
VERTEX
  8
0
  6
CONTINUOUS
 10
5.054720
 20
3.713600
  0
VERTEX
  8
0
  6
CONTINUOUS
 10
5.033600
 20
3.676640
  0
VERTEX
  8
0
  6
CONTINUOUS
 10
5.008960
 20
3.641440
  0
VERTEX
  8
0
  6
CONTINUOUS
 10
4.981240
 20
3.609320
  0
VERTEX
  8
0
  6
CONTINUOUS
 10
4.950880
 20
3.579400
  0
VERTEX
  8
0
  6
CONTINUOUS
 10
4.917440
 20
3.552560
  0
VERTEX
  8
0
  6
CONTINUOUS
 10
4.862880
 20
3.518680
  0
VERTEX
  8
0
  6
CONTINUOUS
 10
4.823720
 20
3.500200
  0
VERTEX
  8
0
  6
CONTINUOUS
 10
4.782800
 20
3.485680
  0
VERTEX
  8
0
  6
CONTINUOUS
 10
4.740560
 20
3.474680
  0
VERTEX
  8
0
  6
CONTINUOUS
 10
4.696560
 20
3.468080
  0
VERTEX
  8
0
  6
CONTINUOUS
 10
4.651680
 20
3.465880
  0
VERTEX
  8
0
  6
CONTINUOUS
 10
4.649480
 20
3.465880
  0
VERTEX
  8
0
  6
CONTINUOUS
 10
4.649480
 20
3.378320
  0
VERTEX
  8
0
  6
CONTINUOUS
 10
4.572480
 20
3.378320
  0
VERTEX
  8
0
  6
CONTINUOUS
 10
4.572480
 20
3.295160
  0
SEQEND
  8
0
  0
SOLID
  8
0
 62
    15
 10
3.868480
 20
1.803560
 11
4.520560
 21
2.178000
 12
3.868480
 22
1.530760
 13
4.520560
 23
1.905200
  0
POLYLINE
  8
0
  6
CONTINUOUS
 66
     1
 40
0.000000
 41
0.000000
  0
VERTEX
  8
0
  6
CONTINUOUS
 10
3.868480
 20
1.803560
  0
VERTEX
  8
0
  6
CONTINUOUS
 10
4.520560
 20
2.178000
  0
VERTEX
  8
0
  6
CONTINUOUS
 10
4.520560
 20
1.905200
  0
VERTEX
  8
0
  6
CONTINUOUS
 10
3.868480
 20
1.530760
  0
VERTEX
  8
0
  6
CONTINUOUS
 10
3.868480
 20
1.803560
  0
SEQEND
  8
0
  0
SOLID
  8
0
 62
    15
 10
3.749680
 20
2.547600
 11
4.401760
 21
2.921600
 12
3.749680
 22
2.470600
 13
4.401760
 23
2.844600
  0
POLYLINE
  8
0
  6
CONTINUOUS
 66
     1
 40
0.000000
 41
0.000000
  0
VERTEX
  8
0
  6
CONTINUOUS
 10
3.749680
 20
2.547600
  0
VERTEX
  8
0
  6
CONTINUOUS
 10
4.401760
 20
2.921600
  0
VERTEX
  8
0
  6
CONTINUOUS
 10
4.401760
 20
2.844600
  0
VERTEX
  8
0
  6
CONTINUOUS
 10
3.749680
 20
2.470600
  0
VERTEX
  8
0
  6
CONTINUOUS
 10
3.749680
 20
2.547600
  0
SEQEND
  8
0
  0
SOLID
  8
0
 62
    15
 10
3.749680
 20
2.470600
 11
4.401760
 21
2.844600
 12
3.826680
 22
2.470600
 13
4.478760
 23
2.844600
  0
POLYLINE
  8
0
  6
CONTINUOUS
 66
     1
 40
0.000000
 41
0.000000
  0
VERTEX
  8
0
  6
CONTINUOUS
 10
3.749680
 20
2.470600
  0
VERTEX
  8
0
  6
CONTINUOUS
 10
4.401760
 20
2.844600
  0
VERTEX
  8
0
  6
CONTINUOUS
 10
4.478760
 20
2.844600
  0
VERTEX
  8
0
  6
CONTINUOUS
 10
3.826680
 20
2.470600
  0
VERTEX
  8
0
  6
CONTINUOUS
 10
3.749680
 20
2.470600
  0
SEQEND
  8
0
  0
SOLID
  8
0
 62
    15
 10
3.826680
 20
2.470600
 11
4.478760
 21
2.844600
 12
3.826680
 22
2.389200
 13
4.478760
 23
2.763640
  0
POLYLINE
  8
0
  6
CONTINUOUS
 66
     1
 40
0.000000
 41
0.000000
  0
VERTEX
  8
0
  6
CONTINUOUS
 10
3.826680
 20
2.470600
  0
VERTEX
  8
0
  6
CONTINUOUS
 10
4.478760
 20
2.844600
  0
VERTEX
  8
0
  6
CONTINUOUS
 10
4.478760
 20
2.763640
  0
VERTEX
  8
0
  6
CONTINUOUS
 10
3.826680
 20
2.389200
  0
VERTEX
  8
0
  6
CONTINUOUS
 10
3.826680
 20
2.470600
  0
SEQEND
  8
0
  0
SOLID
  8
0
 62
    15
 10
3.826680
 20
2.389200
 11
4.478760
 21
2.763640
 12
3.831080
 22
2.389200
 13
4.483160
 23
2.763640
  0
POLYLINE
  8
0
  6
CONTINUOUS
 66
     1
 40
0.000000
 41
0.000000
  0
VERTEX
  8
0
  6
CONTINUOUS
 10
3.826680
 20
2.389200
  0
VERTEX
  8
0
  6
CONTINUOUS
 10
4.478760
 20
2.763640
  0
VERTEX
  8
0
  6
CONTINUOUS
 10
4.483160
 20
2.763640
  0
VERTEX
  8
0
  6
CONTINUOUS
 10
3.831080
 20
2.389200
  0
VERTEX
  8
0
  6
CONTINUOUS
 10
3.826680
 20
2.389200
  0
SEQEND
  8
0
  0
SOLID
  8
0
 62
    15
 10
3.831080
 20
2.389200
 11
4.483160
 21
2.763640
 12
3.919520
 22
2.379960
 13
4.571600
 23
2.754400
  0
POLYLINE
  8
0
  6
CONTINUOUS
 66
     1
 40
0.000000
 41
0.000000
  0
VERTEX
  8
0
  6
CONTINUOUS
 10
3.831080
 20
2.389200
  0
VERTEX
  8
0
  6
CONTINUOUS
 10
4.483160
 20
2.763640
  0
VERTEX
  8
0
  6
CONTINUOUS
 10
4.571600
 20
2.754400
  0
VERTEX
  8
0
  6
CONTINUOUS
 10
3.919520
 20
2.379960
  0
VERTEX
  8
0
  6
CONTINUOUS
 10
3.831080
 20
2.389200
  0
SEQEND
  8
0
  0
SOLID
  8
0
 62
    15
 10
3.919520
 20
2.379960
 11
4.571600
 21
2.754400
 12
4.003120
 22
2.354000
 13
4.654760
 23
2.728000
  0
POLYLINE
  8
0
  6
CONTINUOUS
 66
     1
 40
0.000000
 41
0.000000
  0
VERTEX
  8
0
  6
CONTINUOUS
 10
3.919520
 20
2.379960
  0
VERTEX
  8
0
  6
CONTINUOUS
 10
4.571600
 20
2.754400
  0
VERTEX
  8
0
  6
CONTINUOUS
 10
4.654760
 20
2.728000
  0
VERTEX
  8
0
  6
CONTINUOUS
 10
4.003120
 20
2.354000
  0
VERTEX
  8
0
  6
CONTINUOUS
 10
3.919520
 20
2.379960
  0
SEQEND
  8
0
  0
SOLID
  8
0
 62
    15
 10
4.003120
 20
2.354000
 11
4.654760
 21
2.728000
 12
4.078800
 22
2.312640
 13
4.730880
 23
2.686640
  0
POLYLINE
  8
0
  6
CONTINUOUS
 66
     1
 40
0.000000
 41
0.000000
  0
VERTEX
  8
0
  6
CONTINUOUS
 10
4.003120
 20
2.354000
  0
VERTEX
  8
0
  6
CONTINUOUS
 10
4.654760
 20
2.728000
  0
VERTEX
  8
0
  6
CONTINUOUS
 10
4.730880
 20
2.686640
  0
VERTEX
  8
0
  6
CONTINUOUS
 10
4.078800
 20
2.312640
  0
VERTEX
  8
0
  6
CONTINUOUS
 10
4.003120
 20
2.354000
  0
SEQEND
  8
0
  0
SOLID
  8
0
 62
    15
 10
4.078800
 20
2.312640
 11
4.730880
 21
2.686640
 12
4.145680
 22
2.258080
 13
4.797760
 23
2.632080
  0
POLYLINE
  8
0
  6
CONTINUOUS
 66
     1
 40
0.000000
 41
0.000000
  0
VERTEX
  8
0
  6
CONTINUOUS
 10
4.078800
 20
2.312640
  0
VERTEX
  8
0
  6
CONTINUOUS
 10
4.730880
 20
2.686640
  0
VERTEX
  8
0
  6
CONTINUOUS
 10
4.797760
 20
2.632080
  0
VERTEX
  8
0
  6
CONTINUOUS
 10
4.145680
 20
2.258080
  0
VERTEX
  8
0
  6
CONTINUOUS
 10
4.078800
 20
2.312640
  0
SEQEND
  8
0
  0
SOLID
  8
0
 62
    15
 10
4.145680
 20
2.258080
 11
4.797760
 21
2.632080
 12
4.201120
 22
2.192080
 13
4.852760
 23
2.566520
  0
POLYLINE
  8
0
  6
CONTINUOUS
 66
     1
 40
0.000000
 41
0.000000
  0
VERTEX
  8
0
  6
CONTINUOUS
 10
4.145680
 20
2.258080
  0
VERTEX
  8
0
  6
CONTINUOUS
 10
4.797760
 20
2.632080
  0
VERTEX
  8
0
  6
CONTINUOUS
 10
4.852760
 20
2.566520
  0
VERTEX
  8
0
  6
CONTINUOUS
 10
4.201120
 20
2.192080
  0
VERTEX
  8
0
  6
CONTINUOUS
 10
4.145680
 20
2.258080
  0
SEQEND
  8
0
  0
SOLID
  8
0
 62
    15
 10
4.201120
 20
2.192080
 11
4.852760
 21
2.566520
 12
4.242920
 22
2.116840
 13
4.895000
 23
2.490840
  0
POLYLINE
  8
0
  6
CONTINUOUS
 66
     1
 40
0.000000
 41
0.000000
  0
VERTEX
  8
0
  6
CONTINUOUS
 10
4.201120
 20
2.192080
  0
VERTEX
  8
0
  6
CONTINUOUS
 10
4.852760
 20
2.566520
  0
VERTEX
  8
0
  6
CONTINUOUS
 10
4.895000
 20
2.490840
  0
VERTEX
  8
0
  6
CONTINUOUS
 10
4.242920
 20
2.116840
  0
VERTEX
  8
0
  6
CONTINUOUS
 10
4.201120
 20
2.192080
  0
SEQEND
  8
0
  0
SOLID
  8
0
 62
    15
 10
4.242920
 20
2.116840
 11
4.895000
 21
2.490840
 12
4.269760
 22
2.033680
 13
4.921400
 23
2.408120
  0
POLYLINE
  8
0
  6
CONTINUOUS
 66
     1
 40
0.000000
 41
0.000000
  0
VERTEX
  8
0
  6
CONTINUOUS
 10
4.242920
 20
2.116840
  0
VERTEX
  8
0
  6
CONTINUOUS
 10
4.895000
 20
2.490840
  0
VERTEX
  8
0
  6
CONTINUOUS
 10
4.921400
 20
2.408120
  0
VERTEX
  8
0
  6
CONTINUOUS
 10
4.269760
 20
2.033680
  0
VERTEX
  8
0
  6
CONTINUOUS
 10
4.242920
 20
2.116840
  0
SEQEND
  8
0
  0
SOLID
  8
0
 62
    15
 10
4.269760
 20
2.033680
 11
4.921400
 21
2.408120
 12
4.279000
 22
1.945240
 13
4.931080
 23
2.319680
  0
POLYLINE
  8
0
  6
CONTINUOUS
 66
     1
 40
0.000000
 41
0.000000
  0
VERTEX
  8
0
  6
CONTINUOUS
 10
4.269760
 20
2.033680
  0
VERTEX
  8
0
  6
CONTINUOUS
 10
4.921400
 20
2.408120
  0
VERTEX
  8
0
  6
CONTINUOUS
 10
4.931080
 20
2.319680
  0
VERTEX
  8
0
  6
CONTINUOUS
 10
4.279000
 20
1.945240
  0
VERTEX
  8
0
  6
CONTINUOUS
 10
4.269760
 20
2.033680
  0
SEQEND
  8
0
  0
SOLID
  8
0
 62
    15
 10
2.268640
 20
2.547600
 11
2.920280
 21
2.921600
 12
3.749680
 22
2.547600
 13
4.401760
 23
2.921600
  0
POLYLINE
  8
0
  6
CONTINUOUS
 66
     1
 40
0.000000
 41
0.000000
  0
VERTEX
  8
0
  6
CONTINUOUS
 10
2.268640
 20
2.547600
  0
VERTEX
  8
0
  6
CONTINUOUS
 10
2.920280
 20
2.921600
  0
VERTEX
  8
0
  6
CONTINUOUS
 10
4.401760
 20
2.921600
  0
VERTEX
  8
0
  6
CONTINUOUS
 10
3.749680
 20
2.547600
  0
VERTEX
  8
0
  6
CONTINUOUS
 10
2.268640
 20
2.547600
  0
SEQEND
  8
0
  0
SOLID
  8
0
 62
    15
 10
3.868480
 20
1.530760
 11
4.520560
 21
1.905200
 12
4.372720
 22
1.530760
 13
5.024800
 23
1.905200
  0
POLYLINE
  8
0
  6
CONTINUOUS
 66
     1
 40
0.000000
 41
0.000000
  0
VERTEX
  8
0
  6
CONTINUOUS
 10
3.868480
 20
1.530760
  0
VERTEX
  8
0
  6
CONTINUOUS
 10
4.520560
 20
1.905200
  0
VERTEX
  8
0
  6
CONTINUOUS
 10
5.024800
 20
1.905200
  0
VERTEX
  8
0
  6
CONTINUOUS
 10
4.372720
 20
1.530760
  0
VERTEX
  8
0
  6
CONTINUOUS
 10
3.868480
 20
1.530760
  0
SEQEND
  8
0
  0
SOLID
  8
0
 62
    15
 10
4.279000
 20
1.945240
 11
4.931080
 21
2.319680
 12
4.370520
 22
1.945240
 13
5.022600
 23
2.319680
  0
POLYLINE
  8
0
  6
CONTINUOUS
 66
     1
 40
0.000000
 41
0.000000
  0
VERTEX
  8
0
  6
CONTINUOUS
 10
4.279000
 20
1.945240
  0
VERTEX
  8
0
  6
CONTINUOUS
 10
4.931080
 20
2.319680
  0
VERTEX
  8
0
  6
CONTINUOUS
 10
5.022600
 20
2.319680
  0
VERTEX
  8
0
  6
CONTINUOUS
 10
4.370520
 20
1.945240
  0
VERTEX
  8
0
  6
CONTINUOUS
 10
4.279000
 20
1.945240
  0
SEQEND
  8
0
  0
SOLID
  8
0
 62
    15
 10
4.370520
 20
1.945240
 11
5.022600
 21
2.319680
 12
4.370520
 22
1.803560
 13
5.022600
 23
2.178000
  0
POLYLINE
  8
0
  6
CONTINUOUS
 66
     1
 40
0.000000
 41
0.000000
  0
VERTEX
  8
0
  6
CONTINUOUS
 10
4.370520
 20
1.945240
  0
VERTEX
  8
0
  6
CONTINUOUS
 10
5.022600
 20
2.319680
  0
VERTEX
  8
0
  6
CONTINUOUS
 10
5.022600
 20
2.178000
  0
VERTEX
  8
0
  6
CONTINUOUS
 10
4.370520
 20
1.803560
  0
VERTEX
  8
0
  6
CONTINUOUS
 10
4.370520
 20
1.945240
  0
SEQEND
  8
0
  0
SOLID
  8
0
 62
    15
 10
4.279000
 20
1.391280
 11
4.931080
 21
1.765720
 12
4.279000
 22
1.389080
 13
4.931080
 23
1.763520
  0
POLYLINE
  8
0
  6
CONTINUOUS
 66
     1
 40
0.000000
 41
0.000000
  0
VERTEX
  8
0
  6
CONTINUOUS
 10
4.279000
 20
1.391280
  0
VERTEX
  8
0
  6
CONTINUOUS
 10
4.931080
 20
1.765720
  0
VERTEX
  8
0
  6
CONTINUOUS
 10
4.931080
 20
1.763520
  0
VERTEX
  8
0
  6
CONTINUOUS
 10
4.279000
 20
1.389080
  0
VERTEX
  8
0
  6
CONTINUOUS
 10
4.279000
 20
1.391280
  0
SEQEND
  8
0
  0
SOLID
  8
0
 62
    15
 10
4.279000
 20
1.389080
 11
4.931080
 21
1.763520
 12
4.269760
 22
1.301080
 13
4.921400
 23
1.675080
  0
POLYLINE
  8
0
  6
CONTINUOUS
 66
     1
 40
0.000000
 41
0.000000
  0
VERTEX
  8
0
  6
CONTINUOUS
 10
4.279000
 20
1.389080
  0
VERTEX
  8
0
  6
CONTINUOUS
 10
4.931080
 20
1.763520
  0
VERTEX
  8
0
  6
CONTINUOUS
 10
4.921400
 20
1.675080
  0
VERTEX
  8
0
  6
CONTINUOUS
 10
4.269760
 20
1.301080
  0
VERTEX
  8
0
  6
CONTINUOUS
 10
4.279000
 20
1.389080
  0
SEQEND
  8
0
  0
SOLID
  8
0
 62
    15
 10
4.372720
 20
1.530760
 11
5.024800
 21
1.905200
 12
4.372720
 22
1.391280
 13
5.024800
 23
1.765720
  0
POLYLINE
  8
0
  6
CONTINUOUS
 66
     1
 40
0.000000
 41
0.000000
  0
VERTEX
  8
0
  6
CONTINUOUS
 10
4.372720
 20
1.530760
  0
VERTEX
  8
0
  6
CONTINUOUS
 10
5.024800
 20
1.905200
  0
VERTEX
  8
0
  6
CONTINUOUS
 10
5.024800
 20
1.765720
  0
VERTEX
  8
0
  6
CONTINUOUS
 10
4.372720
 20
1.391280
  0
VERTEX
  8
0
  6
CONTINUOUS
 10
4.372720
 20
1.530760
  0
SEQEND
  8
0
  0
SOLID
  8
0
 62
    15
 10
4.269760
 20
1.301080
 11
4.921400
 21
1.675080
 12
4.242920
 22
1.218800
 13
4.895000
 23
1.593240
  0
POLYLINE
  8
0
  6
CONTINUOUS
 66
     1
 40
0.000000
 41
0.000000
  0
VERTEX
  8
0
  6
CONTINUOUS
 10
4.269760
 20
1.301080
  0
VERTEX
  8
0
  6
CONTINUOUS
 10
4.921400
 20
1.675080
  0
VERTEX
  8
0
  6
CONTINUOUS
 10
4.895000
 20
1.593240
  0
VERTEX
  8
0
  6
CONTINUOUS
 10
4.242920
 20
1.218800
  0
VERTEX
  8
0
  6
CONTINUOUS
 10
4.269760
 20
1.301080
  0
SEQEND
  8
0
  0
SOLID
  8
0
 62
    15
 10
3.751880
 20
0.864160
 11
4.403960
 21
1.238600
 12
3.751880
 22
0.789360
 13
4.403960
 23
1.163360
  0
POLYLINE
  8
0
  6
CONTINUOUS
 66
     1
 40
0.000000
 41
0.000000
  0
VERTEX
  8
0
  6
CONTINUOUS
 10
3.751880
 20
0.864160
  0
VERTEX
  8
0
  6
CONTINUOUS
 10
4.403960
 20
1.238600
  0
VERTEX
  8
0
  6
CONTINUOUS
 10
4.403960
 20
1.163360
  0
VERTEX
  8
0
  6
CONTINUOUS
 10
3.751880
 20
0.789360
  0
VERTEX
  8
0
  6
CONTINUOUS
 10
3.751880
 20
0.864160
  0
SEQEND
  8
0
  0
SOLID
  8
0
 62
    15
 10
3.828880
 20
0.951720
 11
4.480960
 21
1.326160
 12
3.828880
 22
0.864160
 13
4.480960
 23
1.238600
  0
POLYLINE
  8
0
  6
CONTINUOUS
 66
     1
 40
0.000000
 41
0.000000
  0
VERTEX
  8
0
  6
CONTINUOUS
 10
3.828880
 20
0.951720
  0
VERTEX
  8
0
  6
CONTINUOUS
 10
4.480960
 20
1.326160
  0
VERTEX
  8
0
  6
CONTINUOUS
 10
4.480960
 20
1.238600
  0
VERTEX
  8
0
  6
CONTINUOUS
 10
3.828880
 20
0.864160
  0
VERTEX
  8
0
  6
CONTINUOUS
 10
3.828880
 20
0.951720
  0
SEQEND
  8
0
  0
SOLID
  8
0
 62
    15
 10
4.145680
 20
1.079760
 11
4.797760
 21
1.454200
 12
4.078800
 22
1.026520
 13
4.730880
 23
1.400520
  0
POLYLINE
  8
0
  6
CONTINUOUS
 66
     1
 40
0.000000
 41
0.000000
  0
VERTEX
  8
0
  6
CONTINUOUS
 10
4.145680
 20
1.079760
  0
VERTEX
  8
0
  6
CONTINUOUS
 10
4.797760
 20
1.454200
  0
VERTEX
  8
0
  6
CONTINUOUS
 10
4.730880
 20
1.400520
  0
VERTEX
  8
0
  6
CONTINUOUS
 10
4.078800
 20
1.026520
  0
VERTEX
  8
0
  6
CONTINUOUS
 10
4.145680
 20
1.079760
  0
SEQEND
  8
0
  0
SOLID
  8
0
 62
    15
 10
4.242920
 20
1.218800
 11
4.895000
 21
1.593240
 12
4.201120
 22
1.144440
 13
4.852760
 23
1.518880
  0
POLYLINE
  8
0
  6
CONTINUOUS
 66
     1
 40
0.000000
 41
0.000000
  0
VERTEX
  8
0
  6
CONTINUOUS
 10
4.242920
 20
1.218800
  0
VERTEX
  8
0
  6
CONTINUOUS
 10
4.895000
 20
1.593240
  0
VERTEX
  8
0
  6
CONTINUOUS
 10
4.852760
 20
1.518880
  0
VERTEX
  8
0
  6
CONTINUOUS
 10
4.201120
 20
1.144440
  0
VERTEX
  8
0
  6
CONTINUOUS
 10
4.242920
 20
1.218800
  0
SEQEND
  8
0
  0
SOLID
  8
0
 62
    15
 10
4.201120
 20
1.144440
 11
4.852760
 21
1.518880
 12
4.145680
 22
1.079760
 13
4.797760
 23
1.454200
  0
POLYLINE
  8
0
  6
CONTINUOUS
 66
     1
 40
0.000000
 41
0.000000
  0
VERTEX
  8
0
  6
CONTINUOUS
 10
4.201120
 20
1.144440
  0
VERTEX
  8
0
  6
CONTINUOUS
 10
4.852760
 20
1.518880
  0
VERTEX
  8
0
  6
CONTINUOUS
 10
4.797760
 20
1.454200
  0
VERTEX
  8
0
  6
CONTINUOUS
 10
4.145680
 20
1.079760
  0
VERTEX
  8
0
  6
CONTINUOUS
 10
4.201120
 20
1.144440
  0
SEQEND
  8
0
  0
POLYLINE
  8
0
  6
CONTINUOUS
 66
     1
 40
0.000000
 41
0.000000
  0
VERTEX
  8
0
  6
CONTINUOUS
 10
2.268640
 20
0.789360
  0
VERTEX
  8
0
  6
CONTINUOUS
 10
2.268640
 20
2.547600
  0
VERTEX
  8
0
  6
CONTINUOUS
 10
3.749680
 20
2.547600
  0
VERTEX
  8
0
  6
CONTINUOUS
 10
3.749680
 20
2.470600
  0
VERTEX
  8
0
  6
CONTINUOUS
 10
3.826680
 20
2.470600
  0
VERTEX
  8
0
  6
CONTINUOUS
 10
3.826680
 20
2.389200
  0
VERTEX
  8
0
  6
CONTINUOUS
 10
3.831080
 20
2.389200
  0
VERTEX
  8
0
  6
CONTINUOUS
 10
3.919520
 20
2.379960
  0
VERTEX
  8
0
  6
CONTINUOUS
 10
4.003120
 20
2.354000
  0
VERTEX
  8
0
  6
CONTINUOUS
 10
4.078800
 20
2.312640
  0
VERTEX
  8
0
  6
CONTINUOUS
 10
4.145680
 20
2.258080
  0
VERTEX
  8
0
  6
CONTINUOUS
 10
4.201120
 20
2.192080
  0
VERTEX
  8
0
  6
CONTINUOUS
 10
4.242920
 20
2.116840
  0
VERTEX
  8
0
  6
CONTINUOUS
 10
4.269760
 20
2.033680
  0
VERTEX
  8
0
  6
CONTINUOUS
 10
4.279000
 20
1.945240
  0
VERTEX
  8
0
  6
CONTINUOUS
 10
4.370520
 20
1.945240
  0
VERTEX
  8
0
  6
CONTINUOUS
 10
4.370520
 20
1.803560
  0
VERTEX
  8
0
  6
CONTINUOUS
 10
3.868480
 20
1.803560
  0
VERTEX
  8
0
  6
CONTINUOUS
 10
3.868480
 20
1.530760
  0
VERTEX
  8
0
  6
CONTINUOUS
 10
4.372720
 20
1.530760
  0
VERTEX
  8
0
  6
CONTINUOUS
 10
4.372720
 20
1.391280
  0
VERTEX
  8
0
  6
CONTINUOUS
 10
4.279000
 20
1.391280
  0
VERTEX
  8
0
  6
CONTINUOUS
 10
4.279000
 20
1.389080
  0
VERTEX
  8
0
  6
CONTINUOUS
 10
4.269760
 20
1.301080
  0
VERTEX
  8
0
  6
CONTINUOUS
 10
4.242920
 20
1.218800
  0
VERTEX
  8
0
  6
CONTINUOUS
 10
4.201120
 20
1.144440
  0
VERTEX
  8
0
  6
CONTINUOUS
 10
4.145680
 20
1.079760
  0
VERTEX
  8
0
  6
CONTINUOUS
 10
4.078800
 20
1.026520
  0
VERTEX
  8
0
  6
CONTINUOUS
 10
4.003120
 20
0.986040
  0
VERTEX
  8
0
  6
CONTINUOUS
 10
3.919520
 20
0.960520
  0
VERTEX
  8
0
  6
CONTINUOUS
 10
3.831080
 20
0.951720
  0
VERTEX
  8
0
  6
CONTINUOUS
 10
3.828880
 20
0.951720
  0
VERTEX
  8
0
  6
CONTINUOUS
 10
3.828880
 20
0.864160
  0
VERTEX
  8
0
  6
CONTINUOUS
 10
3.751880
 20
0.864160
  0
VERTEX
  8
0
  6
CONTINUOUS
 10
3.751880
 20
0.789360
  0
VERTEX
  8
0
  6
CONTINUOUS
 10
2.272600
 20
0.789360
  0
VERTEX
  8
0
  6
CONTINUOUS
 10
2.268640
 20
0.789360
  0
SEQEND
  8
0
  0
SOLID
  8
0
 62
    15
 10
4.998400
 20
0.873840
 11
5.635080
 21
1.252680
 12
5.075840
 22
0.873840
 13
5.712080
 23
1.252680
  0
POLYLINE
  8
0
  6
CONTINUOUS
 66
     1
 40
0.000000
 41
0.000000
  0
VERTEX
  8
0
  6
CONTINUOUS
 10
4.998400
 20
0.873840
  0
VERTEX
  8
0
  6
CONTINUOUS
 10
5.635080
 20
1.252680
  0
VERTEX
  8
0
  6
CONTINUOUS
 10
5.712080
 20
1.252680
  0
VERTEX
  8
0
  6
CONTINUOUS
 10
5.075840
 20
0.873840
  0
VERTEX
  8
0
  6
CONTINUOUS
 10
4.998400
 20
0.873840
  0
SEQEND
  8
0
  0
SOLID
  8
0
 62
    15
 10
5.075840
 20
0.961400
 11
5.712080
 21
1.340240
 12
5.077600
 22
0.961400
 13
5.714280
 23
1.340240
  0
POLYLINE
  8
0
  6
CONTINUOUS
 66
     1
 40
0.000000
 41
0.000000
  0
VERTEX
  8
0
  6
CONTINUOUS
 10
5.075840
 20
0.961400
  0
VERTEX
  8
0
  6
CONTINUOUS
 10
5.712080
 20
1.340240
  0
VERTEX
  8
0
  6
CONTINUOUS
 10
5.714280
 20
1.340240
  0
VERTEX
  8
0
  6
CONTINUOUS
 10
5.077600
 20
0.961400
  0
VERTEX
  8
0
  6
CONTINUOUS
 10
5.075840
 20
0.961400
  0
SEQEND
  8
0
  0
SOLID
  8
0
 62
    15
 10
5.077600
 20
0.961400
 11
5.714280
 21
1.340240
 12
5.166480
 22
0.970200
 13
5.803160
 23
1.349040
  0
POLYLINE
  8
0
  6
CONTINUOUS
 66
     1
 40
0.000000
 41
0.000000
  0
VERTEX
  8
0
  6
CONTINUOUS
 10
5.077600
 20
0.961400
  0
VERTEX
  8
0
  6
CONTINUOUS
 10
5.714280
 20
1.340240
  0
VERTEX
  8
0
  6
CONTINUOUS
 10
5.803160
 20
1.349040
  0
VERTEX
  8
0
  6
CONTINUOUS
 10
5.166480
 20
0.970200
  0
VERTEX
  8
0
  6
CONTINUOUS
 10
5.077600
 20
0.961400
  0
SEQEND
  8
0
  0
SOLID
  8
0
 62
    15
 10
5.166480
 20
0.970200
 11
5.803160
 21
1.349040
 12
5.249640
 22
0.995720
 13
5.886320
 23
1.374560
  0
POLYLINE
  8
0
  6
CONTINUOUS
 66
     1
 40
0.000000
 41
0.000000
  0
VERTEX
  8
0
  6
CONTINUOUS
 10
5.166480
 20
0.970200
  0
VERTEX
  8
0
  6
CONTINUOUS
 10
5.803160
 20
1.349040
  0
VERTEX
  8
0
  6
CONTINUOUS
 10
5.886320
 20
1.374560
  0
VERTEX
  8
0
  6
CONTINUOUS
 10
5.249640
 20
0.995720
  0
VERTEX
  8
0
  6
CONTINUOUS
 10
5.166480
 20
0.970200
  0
SEQEND
  8
0
  0
SOLID
  8
0
 62
    15
 10
5.249640
 20
0.995720
 11
5.886320
 21
1.374560
 12
5.325760
 22
1.035760
 13
5.962440
 23
1.415040
  0
POLYLINE
  8
0
  6
CONTINUOUS
 66
     1
 40
0.000000
 41
0.000000
  0
VERTEX
  8
0
  6
CONTINUOUS
 10
5.249640
 20
0.995720
  0
VERTEX
  8
0
  6
CONTINUOUS
 10
5.886320
 20
1.374560
  0
VERTEX
  8
0
  6
CONTINUOUS
 10
5.962440
 20
1.415040
  0
VERTEX
  8
0
  6
CONTINUOUS
 10
5.325760
 20
1.035760
  0
VERTEX
  8
0
  6
CONTINUOUS
 10
5.249640
 20
0.995720
  0
SEQEND
  8
0
  0
SOLID
  8
0
 62
    15
 10
5.525520
 20
1.400960
 11
6.162200
 21
1.779800
 12
5.619240
 22
1.400960
 13
6.255920
 23
1.779800
  0
POLYLINE
  8
0
  6
CONTINUOUS
 66
     1
 40
0.000000
 41
0.000000
  0
VERTEX
  8
0
  6
CONTINUOUS
 10
5.525520
 20
1.400960
  0
VERTEX
  8
0
  6
CONTINUOUS
 10
6.162200
 20
1.779800
  0
VERTEX
  8
0
  6
CONTINUOUS
 10
6.255920
 20
1.779800
  0
VERTEX
  8
0
  6
CONTINUOUS
 10
5.619240
 20
1.400960
  0
VERTEX
  8
0
  6
CONTINUOUS
 10
5.525520
 20
1.400960
  0
SEQEND
  8
0
  0
SOLID
  8
0
 62
    15
 10
5.115440
 20
1.813240
 11
5.751680
 21
2.192080
 12
5.617480
 22
1.813240
 13
6.253720
 23
2.192080
  0
POLYLINE
  8
0
  6
CONTINUOUS
 66
     1
 40
0.000000
 41
0.000000
  0
VERTEX
  8
0
  6
CONTINUOUS
 10
5.115440
 20
1.813240
  0
VERTEX
  8
0
  6
CONTINUOUS
 10
5.751680
 20
2.192080
  0
VERTEX
  8
0
  6
CONTINUOUS
 10
6.253720
 20
2.192080
  0
VERTEX
  8
0
  6
CONTINUOUS
 10
5.617480
 20
1.813240
  0
VERTEX
  8
0
  6
CONTINUOUS
 10
5.115440
 20
1.813240
  0
SEQEND
  8
0
  0
SOLID
  8
0
 62
    15
 10
4.992240
 20
2.561240
 11
5.628920
 21
2.940080
 12
7.111280
 22
2.561240
 13
7.747520
 23
2.940080
  0
POLYLINE
  8
0
  6
CONTINUOUS
 66
     1
 40
0.000000
 41
0.000000
  0
VERTEX
  8
0
  6
CONTINUOUS
 10
4.992240
 20
2.561240
  0
VERTEX
  8
0
  6
CONTINUOUS
 10
5.628920
 20
2.940080
  0
VERTEX
  8
0
  6
CONTINUOUS
 10
7.747520
 20
2.940080
  0
VERTEX
  8
0
  6
CONTINUOUS
 10
7.111280
 20
2.561240
  0
VERTEX
  8
0
  6
CONTINUOUS
 10
4.992240
 20
2.561240
  0
SEQEND
  8
0
  0
SOLID
  8
0
 62
    15
 10
7.111280
 20
2.561240
 11
7.747520
 21
2.940080
 12
7.111280
 22
0.790240
 13
7.747520
 23
1.169520
  0
POLYLINE
  8
0
  6
CONTINUOUS
 66
     1
 40
0.000000
 41
0.000000
  0
VERTEX
  8
0
  6
CONTINUOUS
 10
7.111280
 20
2.561240
  0
VERTEX
  8
0
  6
CONTINUOUS
 10
7.747520
 20
2.940080
  0
VERTEX
  8
0
  6
CONTINUOUS
 10
7.747520
 20
1.169520
  0
VERTEX
  8
0
  6
CONTINUOUS
 10
7.111280
 20
0.790240
  0
VERTEX
  8
0
  6
CONTINUOUS
 10
7.111280
 20
2.561240
  0
SEQEND
  8
0
  0
POLYLINE
  8
0
  6
CONTINUOUS
 66
     1
 40
0.000000
 41
0.000000
  0
VERTEX
  8
0
  6
CONTINUOUS
 10
4.998400
 20
0.798600
  0
VERTEX
  8
0
  6
CONTINUOUS
 10
4.998400
 20
0.873840
  0
VERTEX
  8
0
  6
CONTINUOUS
 10
5.075840
 20
0.873840
  0
VERTEX
  8
0
  6
CONTINUOUS
 10
5.075840
 20
0.961400
  0
VERTEX
  8
0
  6
CONTINUOUS
 10
5.077600
 20
0.961400
  0
VERTEX
  8
0
  6
CONTINUOUS
 10
5.166480
 20
0.970200
  0
VERTEX
  8
0
  6
CONTINUOUS
 10
5.249640
 20
0.995720
  0
VERTEX
  8
0
  6
CONTINUOUS
 10
5.325760
 20
1.035760
  0
VERTEX
  8
0
  6
CONTINUOUS
 10
5.392200
 20
1.089440
  0
VERTEX
  8
0
  6
CONTINUOUS
 10
5.447640
 20
1.154120
  0
VERTEX
  8
0
  6
CONTINUOUS
 10
5.489880
 20
1.228480
  0
VERTEX
  8
0
  6
CONTINUOUS
 10
5.516280
 20
1.310320
  0
VERTEX
  8
0
  6
CONTINUOUS
 10
5.525520
 20
1.398760
  0
VERTEX
  8
0
  6
CONTINUOUS
 10
5.525520
 20
1.400960
  0
VERTEX
  8
0
  6
CONTINUOUS
 10
5.619240
 20
1.400960
  0
VERTEX
  8
0
  6
CONTINUOUS
 10
5.619240
 20
1.540440
  0
VERTEX
  8
0
  6
CONTINUOUS
 10
5.115440
 20
1.540440
  0
VERTEX
  8
0
  6
CONTINUOUS
 10
5.115440
 20
1.813240
  0
VERTEX
  8
0
  6
CONTINUOUS
 10
5.617480
 20
1.813240
  0
VERTEX
  8
0
  6
CONTINUOUS
 10
5.617480
 20
1.954920
  0
VERTEX
  8
0
  6
CONTINUOUS
 10
5.525520
 20
1.954920
  0
VERTEX
  8
0
  6
CONTINUOUS
 10
5.516280
 20
2.043360
  0
VERTEX
  8
0
  6
CONTINUOUS
 10
5.489880
 20
2.126080
  0
VERTEX
  8
0
  6
CONTINUOUS
 10
5.447640
 20
2.201760
  0
VERTEX
  8
0
  6
CONTINUOUS
 10
5.392200
 20
2.267320
  0
VERTEX
  8
0
  6
CONTINUOUS
 10
5.325760
 20
2.321880
  0
VERTEX
  8
0
  6
CONTINUOUS
 10
5.249640
 20
2.363240
  0
VERTEX
  8
0
  6
CONTINUOUS
 10
5.166480
 20
2.389640
  0
VERTEX
  8
0
  6
CONTINUOUS
 10
5.077600
 20
2.398880
  0
VERTEX
  8
0
  6
CONTINUOUS
 10
5.073640
 20
2.398880
  0
VERTEX
  8
0
  6
CONTINUOUS
 10
5.073640
 20
2.479840
  0
VERTEX
  8
0
  6
CONTINUOUS
 10
4.996640
 20
2.479840
  0
VERTEX
  8
0
  6
CONTINUOUS
 10
4.996640
 20
2.556840
  0
VERTEX
  8
0
  6
CONTINUOUS
 10
4.992240
 20
2.561240
  0
VERTEX
  8
0
  6
CONTINUOUS
 10
7.111280
 20
2.561240
  0
VERTEX
  8
0
  6
CONTINUOUS
 10
7.111280
 20
0.790240
  0
VERTEX
  8
0
  6
CONTINUOUS
 10
4.998400
 20
0.790240
  0
VERTEX
  8
0
  6
CONTINUOUS
 10
4.998400
 20
0.798600
  0
SEQEND
  8
0
  0
TEXT
  8
0
 10
2.352680
 20
0.877360
 40
0.138152
  1
C
 41
1.000000
  7
SN0
 71
     0
 72
     5
 11
2.472696
 21
0.877360
  0
TEXT
  8
0
 10
6.919880
 20
0.865040
 40
0.138152
  1
D
 41
1.000000
  7
SN0
 71
     0
 72
     5
 11
7.039896
 21
0.865040
  0
TEXT
  8
0
 10
4.406600
 20
0.524040
 40
0.138152
  1
BA  332C & D 1-3/4"
 41
1.000000
  7
SN0
 71
     0
 72
     5
 11
5.922423
 21
0.524040
  0
ENDSEC
  0
EOF
