  0
SECTION
  2
HEADER
  9
$ACADVER
  1
AC1006
  9
$EXTMIN
 10
3.524400
 20
0.587840
  9
$EXTMAX
 10
8.014160
 20
4.665760
  9
$LTSCALE
 40
0.044000
  9
$PDMODE
 70
    35
  9
$PDSIZE
 40
0.035200
  0
ENDSEC
  0
SECTION
  2
TABLES
  0
TABLE
  2
LTYPE
 70
     9
  0
LTYPE
  2
CONTINUOUS
 70
    64
  3
Solid line
 72
    65
 73
     0
 40
0.000000
  0
LTYPE
  2
DASHED
 70
    64
  3
__ __ __ __ __ __ __ __ __ __ __ __ __ __ __
 72
    65
 73
     2
 40
0.000330
 49
0.000220
 49
-0.000110
  0
LTYPE
  2
HIDDEN
 70
    64
  3
 _ _ _ _ _ _ _ _ _ _ _ _ _ _ _ _ _ _ _ _ _ _
 72
    65
 73
     2
 40
0.000165
 49
0.000110
 49
-0.000055
  0
LTYPE
  2
CENTER
 70
    64
  3
____ _ ____ _ ____ _ ____ _ ____ _ ____ _ ____
 72
    65
 73
     4
 40
0.000880
 49
0.000550
 49
-0.000110
 49
0.000110
 49
-0.000110
  0
LTYPE
  2
PHANTOM
 70
    64
  3
_____ _ _ _____ _ _ _____ _ _ _____ _ _ ____
 72
    65
 73
     6
 40
0.001100
 49
0.000550
 49
-0.000110
 49
0.000110
 49
-0.000110
 49
0.000110
 49
-0.000110
  0
LTYPE
  2
DOT
 70
    64
  3
...............................................
 72
    65
 73
     2
 40
0.000110
 49
0.000000
 49
-0.000110
  0
LTYPE
  2
DASHDOT
 70
    64
  3
__ . __ . __ . __ . __ . __ . __ . __ . __ . __
 72
    65
 73
     4
 40
0.000440
 49
0.000220
 49
-0.000110
 49
0.000000
 49
-0.000110
  0
LTYPE
  2
BORDER
 70
    64
  3
__ __ . __ __ . __ __ . __ __ . __ __ . __ __
 72
    65
 73
     6
 40
0.000770
 49
0.000220
 49
-0.000110
 49
0.000220
 49
-0.000110
 49
0.000000
 49
-0.000110
  0
LTYPE
  2
DIVIDE
 70
    64
  3
__ . . __ . . __ . . __ . . __ . . __ . . __
 72
    65
 73
     6
 40
0.000550
 49
0.000220
 49
-0.000110
 49
0.000000
 49
-0.000110
 49
0.000000
 49
-0.000110
  0
LTYPE
  2
DOTDOT
 70
    64
  3
 . .  . .  . .  . .  . .  . . 
 72
    65
 73
     5
 40
0.000242
 49
-0.000110
 49
0.000000
 49
-0.000110
 49
0.000000
 49
-0.000110
  0
ENDTAB
  0
TABLE
  2
STYLE
 70
     2
  0
STYLE
 70
     0
  2
SN0
 40
0.000000
 41
0.000440
 50
0.000000
 71
     0
 42
0.000000
  3
ROMAND
  0
STYLE
 70
    68
  2
SV0
 40
0.000000
 41
0.000440
 50
0.000000
 71
     0
 42
0.000000
  3
ROMAND
  0
ENDTAB
  0
TABLE
  2
LAYER
 70
     3
  0
LAYER
  2
FOREGROUND
 70
    64
 62
     7
  6
CONTINUOUS
  0
LAYER
  2
BACKGROUND
 70
    65
 62
    -7
  6
CONTINUOUS
  0
LAYER
  2
0
 70
    64
 62
     7
  6
CONTINUOUS
  0
ENDTAB
  0
ENDSEC
  0
SECTION
  2
ENTITIES
  0
POLYLINE
  8
FOREGROUND
  6
CONTINUOUS
 66
     1
 40
0.000000
 41
0.000000
  0
VERTEX
  8
FOREGROUND
  6
CONTINUOUS
 10
0.000000
 20
5.253600
  0
VERTEX
  8
FOREGROUND
  6
CONTINUOUS
 10
8.499920
 20
5.253600
  0
VERTEX
  8
FOREGROUND
  6
CONTINUOUS
 10
8.499920
 20
-5.746400
  0
VERTEX
  8
FOREGROUND
  6
CONTINUOUS
 10
0.000000
 20
-5.746400
  0
VERTEX
  8
FOREGROUND
  6
CONTINUOUS
 10
0.000000
 20
5.253600
  0
SEQEND
  8
0
  0
POLYLINE
  8
FOREGROUND
  6
CONTINUOUS
 66
     1
 40
0.000000
 41
0.000000
  0
VERTEX
  8
FOREGROUND
  6
CONTINUOUS
 10
0.000000
 20
5.253600
  0
VERTEX
  8
FOREGROUND
  6
CONTINUOUS
 10
8.499920
 20
5.253600
  0
VERTEX
  8
FOREGROUND
  6
CONTINUOUS
 10
8.499920
 20
-5.746400
  0
VERTEX
  8
FOREGROUND
  6
CONTINUOUS
 10
0.000000
 20
-5.746400
  0
VERTEX
  8
FOREGROUND
  6
CONTINUOUS
 10
0.000000
 20
5.253600
  0
SEQEND
  8
0
  0
POLYLINE
  8
0
  6
CONTINUOUS
 66
     1
 40
0.014080
 41
0.014080
  0
VERTEX
  8
0
  6
CONTINUOUS
 10
6.152520
 20
4.351600
  0
VERTEX
  8
0
  6
CONTINUOUS
 10
6.515080
 20
4.659600
  0
VERTEX
  8
0
  6
CONTINUOUS
 10
6.784360
 20
4.371840
  0
VERTEX
  8
0
  6
CONTINUOUS
 10
6.178920
 20
3.765080
  0
VERTEX
  8
0
  6
CONTINUOUS
 10
6.169680
 20
3.765080
  0
VERTEX
  8
0
  6
CONTINUOUS
 10
6.172320
 20
3.765080
  0
VERTEX
  8
0
  6
CONTINUOUS
 10
3.986840
 20
3.765080
  0
VERTEX
  8
0
  6
CONTINUOUS
 10
3.529680
 20
4.220920
  0
VERTEX
  8
0
  6
CONTINUOUS
 10
3.529680
 20
4.222240
  0
VERTEX
  8
0
  6
CONTINUOUS
 10
4.051080
 20
4.653000
  0
VERTEX
  8
0
  6
CONTINUOUS
 10
4.085840
 20
4.618240
  0
VERTEX
  8
0
  6
CONTINUOUS
 10
4.136880
 20
4.572920
  0
VERTEX
  8
0
  6
CONTINUOUS
 10
4.187480
 20
4.535960
  0
VERTEX
  8
0
  6
CONTINUOUS
 10
4.237640
 20
4.505600
  0
VERTEX
  8
0
  6
CONTINUOUS
 10
4.286480
 20
4.482280
  0
VERTEX
  8
0
  6
CONTINUOUS
 10
4.334440
 20
4.465120
  0
VERTEX
  8
0
  6
CONTINUOUS
 10
4.381520
 20
4.453240
  0
VERTEX
  8
0
  6
CONTINUOUS
 10
4.412760
 20
4.448400
  0
VERTEX
  8
0
  6
CONTINUOUS
 10
4.443120
 20
4.445760
  0
VERTEX
  8
0
  6
CONTINUOUS
 10
4.473040
 20
4.444880
  0
VERTEX
  8
0
  6
CONTINUOUS
 10
4.531120
 20
4.447960
  0
VERTEX
  8
0
  6
CONTINUOUS
 10
4.587440
 20
4.457200
  0
VERTEX
  8
0
  6
CONTINUOUS
 10
4.641560
 20
4.470840
  0
VERTEX
  8
0
  6
CONTINUOUS
 10
4.718120
 20
4.496800
  0
VERTEX
  8
0
  6
CONTINUOUS
 10
4.892360
 20
4.567200
  0
VERTEX
  8
0
  6
CONTINUOUS
 10
4.928440
 20
4.578200
  0
VERTEX
  8
0
  6
CONTINUOUS
 10
4.959680
 20
4.585240
  0
VERTEX
  8
0
  6
CONTINUOUS
 10
5.023920
 20
4.594480
  0
VERTEX
  8
0
  6
CONTINUOUS
 10
5.057360
 20
4.596240
  0
VERTEX
  8
0
  6
CONTINUOUS
 10
5.090800
 20
4.596240
  0
VERTEX
  8
0
  6
CONTINUOUS
 10
5.125560
 20
4.594480
  0
VERTEX
  8
0
  6
CONTINUOUS
 10
5.178800
 20
4.587000
  0
VERTEX
  8
0
  6
CONTINUOUS
 10
5.233800
 20
4.574680
  0
VERTEX
  8
0
  6
CONTINUOUS
 10
5.271640
 20
4.563240
  0
VERTEX
  8
0
  6
CONTINUOUS
 10
5.329720
 20
4.540800
  0
VERTEX
  8
0
  6
CONTINUOUS
 10
5.390440
 20
4.511760
  0
VERTEX
  8
0
  6
CONTINUOUS
 10
5.453360
 20
4.476120
  0
VERTEX
  8
0
  6
CONTINUOUS
 10
5.520240
 20
4.433000
  0
VERTEX
  8
0
  6
CONTINUOUS
 10
5.692280
 20
4.562360
  0
VERTEX
  8
0
  6
CONTINUOUS
 10
5.845840
 20
4.423760
  0
VERTEX
  8
0
  6
CONTINUOUS
 10
5.862120
 20
4.452800
  0
VERTEX
  8
0
  6
CONTINUOUS
 10
5.876200
 20
4.470400
  0
VERTEX
  8
0
  6
CONTINUOUS
 10
5.901280
 20
4.491960
  0
VERTEX
  8
0
  6
CONTINUOUS
 10
5.920640
 20
4.503840
  0
VERTEX
  8
0
  6
CONTINUOUS
 10
5.952320
 20
4.515720
  0
VERTEX
  8
0
  6
CONTINUOUS
 10
5.975200
 20
4.519240
  0
VERTEX
  8
0
  6
CONTINUOUS
 10
6.002920
 20
4.518800
  0
VERTEX
  8
0
  6
CONTINUOUS
 10
6.018320
 20
4.516600
  0
VERTEX
  8
0
  6
CONTINUOUS
 10
6.047360
 20
4.507360
  0
VERTEX
  8
0
  6
CONTINUOUS
 10
6.073760
 20
4.492840
  0
VERTEX
  8
0
  6
CONTINUOUS
 10
6.097080
 20
4.473480
  0
VERTEX
  8
0
  6
CONTINUOUS
 10
6.116000
 20
4.450600
  0
VERTEX
  8
0
  6
CONTINUOUS
 10
6.130520
 20
4.423760
  0
VERTEX
  8
0
  6
CONTINUOUS
 10
6.139760
 20
4.394720
  0
VERTEX
  8
0
  6
CONTINUOUS
 10
6.143280
 20
4.360840
  0
VERTEX
  8
0
  6
CONTINUOUS
 10
6.143280
 20
4.351600
  0
VERTEX
  8
0
  6
CONTINUOUS
 10
6.152520
 20
4.351600
  0
SEQEND
  8
0
  0
SOLID
  8
0
 62
    15
 10
6.622000
 20
2.178000
 11
7.276720
 21
1.796960
 12
6.543680
 22
2.074160
 13
7.198840
 23
1.693120
  0
POLYLINE
  8
0
  6
CONTINUOUS
 66
     1
 40
0.000000
 41
0.000000
  0
VERTEX
  8
0
  6
CONTINUOUS
 10
6.622000
 20
2.178000
  0
VERTEX
  8
0
  6
CONTINUOUS
 10
7.276720
 20
1.796960
  0
VERTEX
  8
0
  6
CONTINUOUS
 10
7.198840
 20
1.693120
  0
VERTEX
  8
0
  6
CONTINUOUS
 10
6.543680
 20
2.074160
  0
VERTEX
  8
0
  6
CONTINUOUS
 10
6.622000
 20
2.178000
  0
SEQEND
  8
0
  0
SOLID
  8
0
 62
    15
 10
5.557640
 20
0.998800
 11
6.212360
 21
0.617760
 12
5.165160
 22
1.012000
 13
5.820320
 23
0.630960
  0
POLYLINE
  8
0
  6
CONTINUOUS
 66
     1
 40
0.000000
 41
0.000000
  0
VERTEX
  8
0
  6
CONTINUOUS
 10
5.557640
 20
0.998800
  0
VERTEX
  8
0
  6
CONTINUOUS
 10
6.212360
 20
0.617760
  0
VERTEX
  8
0
  6
CONTINUOUS
 10
5.820320
 20
0.630960
  0
VERTEX
  8
0
  6
CONTINUOUS
 10
5.165160
 20
1.012000
  0
VERTEX
  8
0
  6
CONTINUOUS
 10
5.557640
 20
0.998800
  0
SEQEND
  8
0
  0
SOLID
  8
0
 62
    15
 10
5.165160
 20
1.012000
 11
5.820320
 21
0.630960
 12
5.163400
 22
1.012000
 13
5.818120
 23
0.630960
  0
POLYLINE
  8
0
  6
CONTINUOUS
 66
     1
 40
0.000000
 41
0.000000
  0
VERTEX
  8
0
  6
CONTINUOUS
 10
5.165160
 20
1.012000
  0
VERTEX
  8
0
  6
CONTINUOUS
 10
5.820320
 20
0.630960
  0
VERTEX
  8
0
  6
CONTINUOUS
 10
5.818120
 20
0.630960
  0
VERTEX
  8
0
  6
CONTINUOUS
 10
5.163400
 20
1.012000
  0
VERTEX
  8
0
  6
CONTINUOUS
 10
5.165160
 20
1.012000
  0
SEQEND
  8
0
  0
SOLID
  8
0
 62
    15
 10
5.169120
 20
1.875720
 11
5.823840
 21
1.494680
 12
5.167360
 22
1.873520
 13
5.822080
 23
1.492480
  0
POLYLINE
  8
0
  6
CONTINUOUS
 66
     1
 40
0.000000
 41
0.000000
  0
VERTEX
  8
0
  6
CONTINUOUS
 10
5.169120
 20
1.875720
  0
VERTEX
  8
0
  6
CONTINUOUS
 10
5.823840
 20
1.494680
  0
VERTEX
  8
0
  6
CONTINUOUS
 10
5.822080
 20
1.492480
  0
VERTEX
  8
0
  6
CONTINUOUS
 10
5.167360
 20
1.873520
  0
VERTEX
  8
0
  6
CONTINUOUS
 10
5.169120
 20
1.875720
  0
SEQEND
  8
0
  0
SOLID
  8
0
 62
    15
 10
7.358120
 20
3.419680
 11
8.013280
 21
3.038640
 12
7.359000
 22
3.418800
 13
8.014160
 23
3.037760
  0
POLYLINE
  8
0
  6
CONTINUOUS
 66
     1
 40
0.000000
 41
0.000000
  0
VERTEX
  8
0
  6
CONTINUOUS
 10
7.358120
 20
3.419680
  0
VERTEX
  8
0
  6
CONTINUOUS
 10
8.013280
 20
3.038640
  0
VERTEX
  8
0
  6
CONTINUOUS
 10
8.014160
 20
3.037760
  0
VERTEX
  8
0
  6
CONTINUOUS
 10
7.359000
 20
3.418800
  0
VERTEX
  8
0
  6
CONTINUOUS
 10
7.358120
 20
3.419680
  0
SEQEND
  8
0
  0
SOLID
  8
0
 62
    15
 10
7.359000
 20
3.418800
 11
8.014160
 21
3.037760
 12
7.295200
 22
2.745600
 13
7.949920
 23
2.364560
  0
POLYLINE
  8
0
  6
CONTINUOUS
 66
     1
 40
0.000000
 41
0.000000
  0
VERTEX
  8
0
  6
CONTINUOUS
 10
7.359000
 20
3.418800
  0
VERTEX
  8
0
  6
CONTINUOUS
 10
8.014160
 20
3.037760
  0
VERTEX
  8
0
  6
CONTINUOUS
 10
7.949920
 20
2.364560
  0
VERTEX
  8
0
  6
CONTINUOUS
 10
7.295200
 20
2.745600
  0
VERTEX
  8
0
  6
CONTINUOUS
 10
7.359000
 20
3.418800
  0
SEQEND
  8
0
  0
SOLID
  8
0
 62
    15
 10
7.295200
 20
2.745600
 11
7.949920
 21
2.364560
 12
7.199720
 22
2.743400
 13
7.854880
 23
2.362360
  0
POLYLINE
  8
0
  6
CONTINUOUS
 66
     1
 40
0.000000
 41
0.000000
  0
VERTEX
  8
0
  6
CONTINUOUS
 10
7.295200
 20
2.745600
  0
VERTEX
  8
0
  6
CONTINUOUS
 10
7.949920
 20
2.364560
  0
VERTEX
  8
0
  6
CONTINUOUS
 10
7.854880
 20
2.362360
  0
VERTEX
  8
0
  6
CONTINUOUS
 10
7.199720
 20
2.743400
  0
VERTEX
  8
0
  6
CONTINUOUS
 10
7.295200
 20
2.745600
  0
SEQEND
  8
0
  0
SOLID
  8
0
 62
    15
 10
7.199720
 20
2.743400
 11
7.854880
 21
2.362360
 12
7.115680
 22
2.731960
 13
7.770400
 23
2.350920
  0
POLYLINE
  8
0
  6
CONTINUOUS
 66
     1
 40
0.000000
 41
0.000000
  0
VERTEX
  8
0
  6
CONTINUOUS
 10
7.199720
 20
2.743400
  0
VERTEX
  8
0
  6
CONTINUOUS
 10
7.854880
 20
2.362360
  0
VERTEX
  8
0
  6
CONTINUOUS
 10
7.770400
 20
2.350920
  0
VERTEX
  8
0
  6
CONTINUOUS
 10
7.115680
 20
2.731960
  0
VERTEX
  8
0
  6
CONTINUOUS
 10
7.199720
 20
2.743400
  0
SEQEND
  8
0
  0
SOLID
  8
0
 62
    15
 10
7.115680
 20
2.731960
 11
7.770400
 21
2.350920
 12
7.041320
 22
2.712600
 13
7.696480
 23
2.331560
  0
POLYLINE
  8
0
  6
CONTINUOUS
 66
     1
 40
0.000000
 41
0.000000
  0
VERTEX
  8
0
  6
CONTINUOUS
 10
7.115680
 20
2.731960
  0
VERTEX
  8
0
  6
CONTINUOUS
 10
7.770400
 20
2.350920
  0
VERTEX
  8
0
  6
CONTINUOUS
 10
7.696480
 20
2.331560
  0
VERTEX
  8
0
  6
CONTINUOUS
 10
7.041320
 20
2.712600
  0
VERTEX
  8
0
  6
CONTINUOUS
 10
7.115680
 20
2.731960
  0
SEQEND
  8
0
  0
SOLID
  8
0
 62
    15
 10
7.041320
 20
2.712600
 11
7.696480
 21
2.331560
 12
6.976640
 22
2.685760
 13
7.631360
 23
2.304720
  0
POLYLINE
  8
0
  6
CONTINUOUS
 66
     1
 40
0.000000
 41
0.000000
  0
VERTEX
  8
0
  6
CONTINUOUS
 10
7.041320
 20
2.712600
  0
VERTEX
  8
0
  6
CONTINUOUS
 10
7.696480
 20
2.331560
  0
VERTEX
  8
0
  6
CONTINUOUS
 10
7.631360
 20
2.304720
  0
VERTEX
  8
0
  6
CONTINUOUS
 10
6.976640
 20
2.685760
  0
VERTEX
  8
0
  6
CONTINUOUS
 10
7.041320
 20
2.712600
  0
SEQEND
  8
0
  0
SOLID
  8
0
 62
    15
 10
6.976640
 20
2.685760
 11
7.631360
 21
2.304720
 12
6.871480
 22
2.614920
 13
7.526200
 23
2.233880
  0
POLYLINE
  8
0
  6
CONTINUOUS
 66
     1
 40
0.000000
 41
0.000000
  0
VERTEX
  8
0
  6
CONTINUOUS
 10
6.976640
 20
2.685760
  0
VERTEX
  8
0
  6
CONTINUOUS
 10
7.631360
 20
2.304720
  0
VERTEX
  8
0
  6
CONTINUOUS
 10
7.526200
 20
2.233880
  0
VERTEX
  8
0
  6
CONTINUOUS
 10
6.871480
 20
2.614920
  0
VERTEX
  8
0
  6
CONTINUOUS
 10
6.976640
 20
2.685760
  0
SEQEND
  8
0
  0
SOLID
  8
0
 62
    15
 10
6.871480
 20
2.614920
 11
7.526200
 21
2.233880
 12
6.793600
 22
2.528240
 13
7.448320
 23
2.147200
  0
POLYLINE
  8
0
  6
CONTINUOUS
 66
     1
 40
0.000000
 41
0.000000
  0
VERTEX
  8
0
  6
CONTINUOUS
 10
6.871480
 20
2.614920
  0
VERTEX
  8
0
  6
CONTINUOUS
 10
7.526200
 20
2.233880
  0
VERTEX
  8
0
  6
CONTINUOUS
 10
7.448320
 20
2.147200
  0
VERTEX
  8
0
  6
CONTINUOUS
 10
6.793600
 20
2.528240
  0
VERTEX
  8
0
  6
CONTINUOUS
 10
6.871480
 20
2.614920
  0
SEQEND
  8
0
  0
SOLID
  8
0
 62
    15
 10
6.793600
 20
2.528240
 11
7.448320
 21
2.147200
 12
6.735960
 22
2.432760
 13
7.391120
 23
2.051720
  0
POLYLINE
  8
0
  6
CONTINUOUS
 66
     1
 40
0.000000
 41
0.000000
  0
VERTEX
  8
0
  6
CONTINUOUS
 10
6.793600
 20
2.528240
  0
VERTEX
  8
0
  6
CONTINUOUS
 10
7.448320
 20
2.147200
  0
VERTEX
  8
0
  6
CONTINUOUS
 10
7.391120
 20
2.051720
  0
VERTEX
  8
0
  6
CONTINUOUS
 10
6.735960
 20
2.432760
  0
VERTEX
  8
0
  6
CONTINUOUS
 10
6.793600
 20
2.528240
  0
SEQEND
  8
0
  0
SOLID
  8
0
 62
    15
 10
6.735960
 20
2.432760
 11
7.391120
 21
2.051720
 12
6.692840
 22
2.337280
 13
7.347560
 23
1.956240
  0
POLYLINE
  8
0
  6
CONTINUOUS
 66
     1
 40
0.000000
 41
0.000000
  0
VERTEX
  8
0
  6
CONTINUOUS
 10
6.735960
 20
2.432760
  0
VERTEX
  8
0
  6
CONTINUOUS
 10
7.391120
 20
2.051720
  0
VERTEX
  8
0
  6
CONTINUOUS
 10
7.347560
 20
1.956240
  0
VERTEX
  8
0
  6
CONTINUOUS
 10
6.692840
 20
2.337280
  0
VERTEX
  8
0
  6
CONTINUOUS
 10
6.735960
 20
2.432760
  0
SEQEND
  8
0
  0
SOLID
  8
0
 62
    15
 10
6.692840
 20
2.337280
 11
7.347560
 21
1.956240
 12
6.678760
 22
2.302960
 13
7.333920
 23
1.921920
  0
POLYLINE
  8
0
  6
CONTINUOUS
 66
     1
 40
0.000000
 41
0.000000
  0
VERTEX
  8
0
  6
CONTINUOUS
 10
6.692840
 20
2.337280
  0
VERTEX
  8
0
  6
CONTINUOUS
 10
7.347560
 20
1.956240
  0
VERTEX
  8
0
  6
CONTINUOUS
 10
7.333920
 20
1.921920
  0
VERTEX
  8
0
  6
CONTINUOUS
 10
6.678760
 20
2.302960
  0
VERTEX
  8
0
  6
CONTINUOUS
 10
6.692840
 20
2.337280
  0
SEQEND
  8
0
  0
SOLID
  8
0
 62
    15
 10
6.678760
 20
2.302960
 11
7.333920
 21
1.921920
 12
6.674360
 22
2.291960
 13
7.329080
 23
1.910920
  0
POLYLINE
  8
0
  6
CONTINUOUS
 66
     1
 40
0.000000
 41
0.000000
  0
VERTEX
  8
0
  6
CONTINUOUS
 10
6.678760
 20
2.302960
  0
VERTEX
  8
0
  6
CONTINUOUS
 10
7.333920
 20
1.921920
  0
VERTEX
  8
0
  6
CONTINUOUS
 10
7.329080
 20
1.910920
  0
VERTEX
  8
0
  6
CONTINUOUS
 10
6.674360
 20
2.291960
  0
VERTEX
  8
0
  6
CONTINUOUS
 10
6.678760
 20
2.302960
  0
SEQEND
  8
0
  0
SOLID
  8
0
 62
    15
 10
6.674360
 20
2.291960
 11
7.329080
 21
1.910920
 12
6.656760
 22
2.249720
 13
7.311920
 23
1.868680
  0
POLYLINE
  8
0
  6
CONTINUOUS
 66
     1
 40
0.000000
 41
0.000000
  0
VERTEX
  8
0
  6
CONTINUOUS
 10
6.674360
 20
2.291960
  0
VERTEX
  8
0
  6
CONTINUOUS
 10
7.329080
 20
1.910920
  0
VERTEX
  8
0
  6
CONTINUOUS
 10
7.311920
 20
1.868680
  0
VERTEX
  8
0
  6
CONTINUOUS
 10
6.656760
 20
2.249720
  0
VERTEX
  8
0
  6
CONTINUOUS
 10
6.674360
 20
2.291960
  0
SEQEND
  8
0
  0
SOLID
  8
0
 62
    15
 10
6.656760
 20
2.249720
 11
7.311920
 21
1.868680
 12
6.622000
 22
2.178000
 13
7.276720
 23
1.796960
  0
POLYLINE
  8
0
  6
CONTINUOUS
 66
     1
 40
0.000000
 41
0.000000
  0
VERTEX
  8
0
  6
CONTINUOUS
 10
6.656760
 20
2.249720
  0
VERTEX
  8
0
  6
CONTINUOUS
 10
7.311920
 20
1.868680
  0
VERTEX
  8
0
  6
CONTINUOUS
 10
7.276720
 20
1.796960
  0
VERTEX
  8
0
  6
CONTINUOUS
 10
6.622000
 20
2.178000
  0
VERTEX
  8
0
  6
CONTINUOUS
 10
6.656760
 20
2.249720
  0
SEQEND
  8
0
  0
SOLID
  8
0
 62
    15
 10
5.596360
 20
1.473120
 11
6.251080
 21
1.092080
 12
5.557640
 22
0.998800
 13
6.212360
 23
0.617760
  0
POLYLINE
  8
0
  6
CONTINUOUS
 66
     1
 40
0.000000
 41
0.000000
  0
VERTEX
  8
0
  6
CONTINUOUS
 10
5.596360
 20
1.473120
  0
VERTEX
  8
0
  6
CONTINUOUS
 10
6.251080
 20
1.092080
  0
VERTEX
  8
0
  6
CONTINUOUS
 10
6.212360
 20
0.617760
  0
VERTEX
  8
0
  6
CONTINUOUS
 10
5.557640
 20
0.998800
  0
VERTEX
  8
0
  6
CONTINUOUS
 10
5.596360
 20
1.473120
  0
SEQEND
  8
0
  0
SOLID
  8
0
 62
    15
 10
6.543680
 20
2.074160
 11
7.198840
 21
1.693120
 12
6.435880
 22
1.984840
 13
7.091040
 23
1.603800
  0
POLYLINE
  8
0
  6
CONTINUOUS
 66
     1
 40
0.000000
 41
0.000000
  0
VERTEX
  8
0
  6
CONTINUOUS
 10
6.543680
 20
2.074160
  0
VERTEX
  8
0
  6
CONTINUOUS
 10
7.198840
 20
1.693120
  0
VERTEX
  8
0
  6
CONTINUOUS
 10
7.091040
 20
1.603800
  0
VERTEX
  8
0
  6
CONTINUOUS
 10
6.435880
 20
1.984840
  0
VERTEX
  8
0
  6
CONTINUOUS
 10
6.543680
 20
2.074160
  0
SEQEND
  8
0
  0
SOLID
  8
0
 62
    15
 10
6.435880
 20
1.984840
 11
7.091040
 21
1.603800
 12
6.368560
 22
1.946120
 13
7.023720
 23
1.565080
  0
POLYLINE
  8
0
  6
CONTINUOUS
 66
     1
 40
0.000000
 41
0.000000
  0
VERTEX
  8
0
  6
CONTINUOUS
 10
6.435880
 20
1.984840
  0
VERTEX
  8
0
  6
CONTINUOUS
 10
7.091040
 20
1.603800
  0
VERTEX
  8
0
  6
CONTINUOUS
 10
7.023720
 20
1.565080
  0
VERTEX
  8
0
  6
CONTINUOUS
 10
6.368560
 20
1.946120
  0
VERTEX
  8
0
  6
CONTINUOUS
 10
6.435880
 20
1.984840
  0
SEQEND
  8
0
  0
SOLID
  8
0
 62
    15
 10
6.368560
 20
1.946120
 11
7.023720
 21
1.565080
 12
6.291120
 22
1.913120
 13
6.945840
 23
1.532080
  0
POLYLINE
  8
0
  6
CONTINUOUS
 66
     1
 40
0.000000
 41
0.000000
  0
VERTEX
  8
0
  6
CONTINUOUS
 10
6.368560
 20
1.946120
  0
VERTEX
  8
0
  6
CONTINUOUS
 10
7.023720
 20
1.565080
  0
VERTEX
  8
0
  6
CONTINUOUS
 10
6.945840
 20
1.532080
  0
VERTEX
  8
0
  6
CONTINUOUS
 10
6.291120
 20
1.913120
  0
VERTEX
  8
0
  6
CONTINUOUS
 10
6.368560
 20
1.946120
  0
SEQEND
  8
0
  0
SOLID
  8
0
 62
    15
 10
6.291120
 20
1.913120
 11
6.945840
 21
1.532080
 12
6.202240
 22
1.884960
 13
6.857400
 23
1.503920
  0
POLYLINE
  8
0
  6
CONTINUOUS
 66
     1
 40
0.000000
 41
0.000000
  0
VERTEX
  8
0
  6
CONTINUOUS
 10
6.291120
 20
1.913120
  0
VERTEX
  8
0
  6
CONTINUOUS
 10
6.945840
 20
1.532080
  0
VERTEX
  8
0
  6
CONTINUOUS
 10
6.857400
 20
1.503920
  0
VERTEX
  8
0
  6
CONTINUOUS
 10
6.202240
 20
1.884960
  0
VERTEX
  8
0
  6
CONTINUOUS
 10
6.291120
 20
1.913120
  0
SEQEND
  8
0
  0
SOLID
  8
0
 62
    15
 10
6.202240
 20
1.884960
 11
6.857400
 21
1.503920
 12
6.101480
 22
1.863400
 13
6.756200
 23
1.482360
  0
POLYLINE
  8
0
  6
CONTINUOUS
 66
     1
 40
0.000000
 41
0.000000
  0
VERTEX
  8
0
  6
CONTINUOUS
 10
6.202240
 20
1.884960
  0
VERTEX
  8
0
  6
CONTINUOUS
 10
6.857400
 20
1.503920
  0
VERTEX
  8
0
  6
CONTINUOUS
 10
6.756200
 20
1.482360
  0
VERTEX
  8
0
  6
CONTINUOUS
 10
6.101480
 20
1.863400
  0
VERTEX
  8
0
  6
CONTINUOUS
 10
6.202240
 20
1.884960
  0
SEQEND
  8
0
  0
SOLID
  8
0
 62
    15
 10
6.101480
 20
1.863400
 11
6.756200
 21
1.482360
 12
6.100600
 22
1.862520
 13
6.755320
 23
1.481040
  0
POLYLINE
  8
0
  6
CONTINUOUS
 66
     1
 40
0.000000
 41
0.000000
  0
VERTEX
  8
0
  6
CONTINUOUS
 10
6.101480
 20
1.863400
  0
VERTEX
  8
0
  6
CONTINUOUS
 10
6.756200
 20
1.482360
  0
VERTEX
  8
0
  6
CONTINUOUS
 10
6.755320
 20
1.481040
  0
VERTEX
  8
0
  6
CONTINUOUS
 10
6.100600
 20
1.862520
  0
VERTEX
  8
0
  6
CONTINUOUS
 10
6.101480
 20
1.863400
  0
SEQEND
  8
0
  0
SOLID
  8
0
 62
    15
 10
6.100600
 20
1.862520
 11
6.755320
 21
1.481040
 12
6.070240
 22
1.649120
 13
6.725400
 23
1.268080
  0
POLYLINE
  8
0
  6
CONTINUOUS
 66
     1
 40
0.000000
 41
0.000000
  0
VERTEX
  8
0
  6
CONTINUOUS
 10
6.100600
 20
1.862520
  0
VERTEX
  8
0
  6
CONTINUOUS
 10
6.755320
 20
1.481040
  0
VERTEX
  8
0
  6
CONTINUOUS
 10
6.725400
 20
1.268080
  0
VERTEX
  8
0
  6
CONTINUOUS
 10
6.070240
 20
1.649120
  0
VERTEX
  8
0
  6
CONTINUOUS
 10
6.100600
 20
1.862520
  0
SEQEND
  8
0
  0
SOLID
  8
0
 62
    15
 10
6.070240
 20
1.649120
 11
6.725400
 21
1.268080
 12
5.864760
 22
1.639880
 13
6.519920
 23
1.258840
  0
POLYLINE
  8
0
  6
CONTINUOUS
 66
     1
 40
0.000000
 41
0.000000
  0
VERTEX
  8
0
  6
CONTINUOUS
 10
6.070240
 20
1.649120
  0
VERTEX
  8
0
  6
CONTINUOUS
 10
6.725400
 20
1.268080
  0
VERTEX
  8
0
  6
CONTINUOUS
 10
6.519920
 20
1.258840
  0
VERTEX
  8
0
  6
CONTINUOUS
 10
5.864760
 20
1.639880
  0
VERTEX
  8
0
  6
CONTINUOUS
 10
6.070240
 20
1.649120
  0
SEQEND
  8
0
  0
SOLID
  8
0
 62
    15
 10
5.864760
 20
1.639880
 11
6.519920
 21
1.258840
 12
5.863880
 22
1.639000
 13
6.519040
 23
1.257960
  0
POLYLINE
  8
0
  6
CONTINUOUS
 66
     1
 40
0.000000
 41
0.000000
  0
VERTEX
  8
0
  6
CONTINUOUS
 10
5.864760
 20
1.639880
  0
VERTEX
  8
0
  6
CONTINUOUS
 10
6.519920
 20
1.258840
  0
VERTEX
  8
0
  6
CONTINUOUS
 10
6.519040
 20
1.257960
  0
VERTEX
  8
0
  6
CONTINUOUS
 10
5.863880
 20
1.639000
  0
VERTEX
  8
0
  6
CONTINUOUS
 10
5.864760
 20
1.639880
  0
SEQEND
  8
0
  0
SOLID
  8
0
 62
    15
 10
5.863880
 20
1.639000
 11
6.519040
 21
1.257960
 12
5.874440
 22
1.595440
 13
6.529160
 23
1.214400
  0
POLYLINE
  8
0
  6
CONTINUOUS
 66
     1
 40
0.000000
 41
0.000000
  0
VERTEX
  8
0
  6
CONTINUOUS
 10
5.863880
 20
1.639000
  0
VERTEX
  8
0
  6
CONTINUOUS
 10
6.519040
 20
1.257960
  0
VERTEX
  8
0
  6
CONTINUOUS
 10
6.529160
 20
1.214400
  0
VERTEX
  8
0
  6
CONTINUOUS
 10
5.874440
 20
1.595440
  0
VERTEX
  8
0
  6
CONTINUOUS
 10
5.863880
 20
1.639000
  0
SEQEND
  8
0
  0
SOLID
  8
0
 62
    15
 10
5.874440
 20
1.595440
 11
6.529160
 21
1.214400
 12
5.873120
 22
1.551000
 13
6.527840
 23
1.169960
  0
POLYLINE
  8
0
  6
CONTINUOUS
 66
     1
 40
0.000000
 41
0.000000
  0
VERTEX
  8
0
  6
CONTINUOUS
 10
5.874440
 20
1.595440
  0
VERTEX
  8
0
  6
CONTINUOUS
 10
6.529160
 20
1.214400
  0
VERTEX
  8
0
  6
CONTINUOUS
 10
6.527840
 20
1.169960
  0
VERTEX
  8
0
  6
CONTINUOUS
 10
5.873120
 20
1.551000
  0
VERTEX
  8
0
  6
CONTINUOUS
 10
5.874440
 20
1.595440
  0
SEQEND
  8
0
  0
SOLID
  8
0
 62
    15
 10
5.873120
 20
1.551000
 11
6.527840
 21
1.169960
 12
5.859040
 22
1.508760
 13
6.513760
 23
1.127280
  0
POLYLINE
  8
0
  6
CONTINUOUS
 66
     1
 40
0.000000
 41
0.000000
  0
VERTEX
  8
0
  6
CONTINUOUS
 10
5.873120
 20
1.551000
  0
VERTEX
  8
0
  6
CONTINUOUS
 10
6.527840
 20
1.169960
  0
VERTEX
  8
0
  6
CONTINUOUS
 10
6.513760
 20
1.127280
  0
VERTEX
  8
0
  6
CONTINUOUS
 10
5.859040
 20
1.508760
  0
VERTEX
  8
0
  6
CONTINUOUS
 10
5.873120
 20
1.551000
  0
SEQEND
  8
0
  0
SOLID
  8
0
 62
    15
 10
5.859040
 20
1.508760
 11
6.513760
 21
1.127280
 12
5.831760
 22
1.470920
 13
6.486920
 23
1.089880
  0
POLYLINE
  8
0
  6
CONTINUOUS
 66
     1
 40
0.000000
 41
0.000000
  0
VERTEX
  8
0
  6
CONTINUOUS
 10
5.859040
 20
1.508760
  0
VERTEX
  8
0
  6
CONTINUOUS
 10
6.513760
 20
1.127280
  0
VERTEX
  8
0
  6
CONTINUOUS
 10
6.486920
 20
1.089880
  0
VERTEX
  8
0
  6
CONTINUOUS
 10
5.831760
 20
1.470920
  0
VERTEX
  8
0
  6
CONTINUOUS
 10
5.859040
 20
1.508760
  0
SEQEND
  8
0
  0
SOLID
  8
0
 62
    15
 10
5.831760
 20
1.470920
 11
6.486920
 21
1.089880
 12
5.780280
 22
1.437040
 13
6.435440
 23
1.056000
  0
POLYLINE
  8
0
  6
CONTINUOUS
 66
     1
 40
0.000000
 41
0.000000
  0
VERTEX
  8
0
  6
CONTINUOUS
 10
5.831760
 20
1.470920
  0
VERTEX
  8
0
  6
CONTINUOUS
 10
6.486920
 20
1.089880
  0
VERTEX
  8
0
  6
CONTINUOUS
 10
6.435440
 20
1.056000
  0
VERTEX
  8
0
  6
CONTINUOUS
 10
5.780280
 20
1.437040
  0
VERTEX
  8
0
  6
CONTINUOUS
 10
5.831760
 20
1.470920
  0
SEQEND
  8
0
  0
SOLID
  8
0
 62
    15
 10
5.780280
 20
1.437040
 11
6.435440
 21
1.056000
 12
5.721760
 22
1.425600
 13
6.376480
 23
1.044560
  0
POLYLINE
  8
0
  6
CONTINUOUS
 66
     1
 40
0.000000
 41
0.000000
  0
VERTEX
  8
0
  6
CONTINUOUS
 10
5.780280
 20
1.437040
  0
VERTEX
  8
0
  6
CONTINUOUS
 10
6.435440
 20
1.056000
  0
VERTEX
  8
0
  6
CONTINUOUS
 10
6.376480
 20
1.044560
  0
VERTEX
  8
0
  6
CONTINUOUS
 10
5.721760
 20
1.425600
  0
VERTEX
  8
0
  6
CONTINUOUS
 10
5.780280
 20
1.437040
  0
SEQEND
  8
0
  0
SOLID
  8
0
 62
    15
 10
5.602960
 20
1.479720
 11
6.257680
 21
1.098240
 12
5.598120
 22
1.474880
 13
6.252840
 23
1.093840
  0
POLYLINE
  8
0
  6
CONTINUOUS
 66
     1
 40
0.000000
 41
0.000000
  0
VERTEX
  8
0
  6
CONTINUOUS
 10
5.602960
 20
1.479720
  0
VERTEX
  8
0
  6
CONTINUOUS
 10
6.257680
 20
1.098240
  0
VERTEX
  8
0
  6
CONTINUOUS
 10
6.252840
 20
1.093840
  0
VERTEX
  8
0
  6
CONTINUOUS
 10
5.598120
 20
1.474880
  0
VERTEX
  8
0
  6
CONTINUOUS
 10
5.602960
 20
1.479720
  0
SEQEND
  8
0
  0
SOLID
  8
0
 62
    15
 10
5.598120
 20
1.474880
 11
6.252840
 21
1.093840
 12
5.596360
 22
1.473120
 13
6.251080
 23
1.092080
  0
POLYLINE
  8
0
  6
CONTINUOUS
 66
     1
 40
0.000000
 41
0.000000
  0
VERTEX
  8
0
  6
CONTINUOUS
 10
5.598120
 20
1.474880
  0
VERTEX
  8
0
  6
CONTINUOUS
 10
6.252840
 20
1.093840
  0
VERTEX
  8
0
  6
CONTINUOUS
 10
6.251080
 20
1.092080
  0
VERTEX
  8
0
  6
CONTINUOUS
 10
5.596360
 20
1.473120
  0
VERTEX
  8
0
  6
CONTINUOUS
 10
5.598120
 20
1.474880
  0
SEQEND
  8
0
  0
SOLID
  8
0
 62
    15
 10
5.721760
 20
1.425600
 11
6.376480
 21
1.044560
 12
5.662800
 22
1.437040
 13
6.317520
 23
1.056000
  0
POLYLINE
  8
0
  6
CONTINUOUS
 66
     1
 40
0.000000
 41
0.000000
  0
VERTEX
  8
0
  6
CONTINUOUS
 10
5.721760
 20
1.425600
  0
VERTEX
  8
0
  6
CONTINUOUS
 10
6.376480
 20
1.044560
  0
VERTEX
  8
0
  6
CONTINUOUS
 10
6.317520
 20
1.056000
  0
VERTEX
  8
0
  6
CONTINUOUS
 10
5.662800
 20
1.437040
  0
VERTEX
  8
0
  6
CONTINUOUS
 10
5.721760
 20
1.425600
  0
SEQEND
  8
0
  0
POLYLINE
  8
0
  6
CONTINUOUS
 66
     1
 40
0.000000
 41
0.000000
  0
VERTEX
  8
0
  6
CONTINUOUS
 10
5.596360
 20
1.473120
  0
VERTEX
  8
0
  6
CONTINUOUS
 10
5.557640
 20
0.998800
  0
VERTEX
  8
0
  6
CONTINUOUS
 10
5.165160
 20
1.012000
  0
VERTEX
  8
0
  6
CONTINUOUS
 10
5.163400
 20
1.012000
  0
VERTEX
  8
0
  6
CONTINUOUS
 10
5.162520
 20
1.868680
  0
VERTEX
  8
0
  6
CONTINUOUS
 10
5.163400
 20
1.870000
  0
VERTEX
  8
0
  6
CONTINUOUS
 10
5.169120
 20
1.875720
  0
VERTEX
  8
0
  6
CONTINUOUS
 10
5.167360
 20
1.873520
  0
VERTEX
  8
0
  6
CONTINUOUS
 10
6.712640
 20
3.418800
  0
VERTEX
  8
0
  6
CONTINUOUS
 10
7.358120
 20
3.419680
  0
VERTEX
  8
0
  6
CONTINUOUS
 10
7.359000
 20
3.418800
  0
VERTEX
  8
0
  6
CONTINUOUS
 10
7.295200
 20
2.745600
  0
VERTEX
  8
0
  6
CONTINUOUS
 10
7.199720
 20
2.743400
  0
VERTEX
  8
0
  6
CONTINUOUS
 10
7.115680
 20
2.731960
  0
VERTEX
  8
0
  6
CONTINUOUS
 10
7.041320
 20
2.712600
  0
VERTEX
  8
0
  6
CONTINUOUS
 10
6.976640
 20
2.685760
  0
VERTEX
  8
0
  6
CONTINUOUS
 10
6.871480
 20
2.614920
  0
VERTEX
  8
0
  6
CONTINUOUS
 10
6.793600
 20
2.528240
  0
VERTEX
  8
0
  6
CONTINUOUS
 10
6.735960
 20
2.432760
  0
VERTEX
  8
0
  6
CONTINUOUS
 10
6.692840
 20
2.337280
  0
VERTEX
  8
0
  6
CONTINUOUS
 10
6.678760
 20
2.302960
  0
VERTEX
  8
0
  6
CONTINUOUS
 10
6.674360
 20
2.291960
  0
VERTEX
  8
0
  6
CONTINUOUS
 10
6.656760
 20
2.249720
  0
VERTEX
  8
0
  6
CONTINUOUS
 10
6.622000
 20
2.178000
  0
VERTEX
  8
0
  6
CONTINUOUS
 10
6.543680
 20
2.074160
  0
VERTEX
  8
0
  6
CONTINUOUS
 10
6.435880
 20
1.984840
  0
VERTEX
  8
0
  6
CONTINUOUS
 10
6.368560
 20
1.946120
  0
VERTEX
  8
0
  6
CONTINUOUS
 10
6.291120
 20
1.913120
  0
VERTEX
  8
0
  6
CONTINUOUS
 10
6.202240
 20
1.884960
  0
VERTEX
  8
0
  6
CONTINUOUS
 10
6.101480
 20
1.863400
  0
VERTEX
  8
0
  6
CONTINUOUS
 10
6.100600
 20
1.862520
  0
VERTEX
  8
0
  6
CONTINUOUS
 10
6.070240
 20
1.649120
  0
VERTEX
  8
0
  6
CONTINUOUS
 10
5.864760
 20
1.639880
  0
VERTEX
  8
0
  6
CONTINUOUS
 10
5.863880
 20
1.639000
  0
VERTEX
  8
0
  6
CONTINUOUS
 10
5.874440
 20
1.595440
  0
VERTEX
  8
0
  6
CONTINUOUS
 10
5.873120
 20
1.551000
  0
VERTEX
  8
0
  6
CONTINUOUS
 10
5.859040
 20
1.508760
  0
VERTEX
  8
0
  6
CONTINUOUS
 10
5.831760
 20
1.470920
  0
VERTEX
  8
0
  6
CONTINUOUS
 10
5.780280
 20
1.437040
  0
VERTEX
  8
0
  6
CONTINUOUS
 10
5.721760
 20
1.425600
  0
VERTEX
  8
0
  6
CONTINUOUS
 10
5.662800
 20
1.437040
  0
VERTEX
  8
0
  6
CONTINUOUS
 10
5.611320
 20
1.470920
  0
VERTEX
  8
0
  6
CONTINUOUS
 10
5.609120
 20
1.473120
  0
VERTEX
  8
0
  6
CONTINUOUS
 10
5.602960
 20
1.479720
  0
VERTEX
  8
0
  6
CONTINUOUS
 10
5.598120
 20
1.474880
  0
VERTEX
  8
0
  6
CONTINUOUS
 10
5.596360
 20
1.473120
  0
SEQEND
  8
0
  0
TEXT
  8
0
 10
6.752240
 20
0.823680
 40
0.138084
  1
BA  328
 41
1.000000
  7
SN0
 71
     0
 72
     5
 11
7.342643
 21
0.823680
  0
TEXT
  8
0
 10
6.596480
 20
0.631840
 40
0.138084
  1
7/8" x 3-1/4"
 41
1.000000
  7
SN0
 71
     0
 72
     5
 11
7.498024
 21
0.631840
  0
ENDSEC
  0
EOF
