  0
SECTION
  2
HEADER
  9
$ACADVER
  1
AC1006
  9
$EXTMIN
 10
5.060000
 20
0.411840
  9
$EXTMAX
 10
7.917360
 20
3.131920
  9
$LTSCALE
 40
0.044000
  9
$PDMODE
 70
    35
  9
$PDSIZE
 40
0.035200
  0
ENDSEC
  0
SECTION
  2
TABLES
  0
TABLE
  2
LTYPE
 70
     9
  0
LTYPE
  2
CONTINUOUS
 70
    64
  3
Solid line
 72
    65
 73
     0
 40
0.000000
  0
LTYPE
  2
DASHED
 70
    64
  3
__ __ __ __ __ __ __ __ __ __ __ __ __ __ __
 72
    65
 73
     2
 40
0.000330
 49
0.000220
 49
-0.000110
  0
LTYPE
  2
HIDDEN
 70
    64
  3
 _ _ _ _ _ _ _ _ _ _ _ _ _ _ _ _ _ _ _ _ _ _
 72
    65
 73
     2
 40
0.000165
 49
0.000110
 49
-0.000055
  0
LTYPE
  2
CENTER
 70
    64
  3
____ _ ____ _ ____ _ ____ _ ____ _ ____ _ ____
 72
    65
 73
     4
 40
0.000880
 49
0.000550
 49
-0.000110
 49
0.000110
 49
-0.000110
  0
LTYPE
  2
PHANTOM
 70
    64
  3
_____ _ _ _____ _ _ _____ _ _ _____ _ _ ____
 72
    65
 73
     6
 40
0.001100
 49
0.000550
 49
-0.000110
 49
0.000110
 49
-0.000110
 49
0.000110
 49
-0.000110
  0
LTYPE
  2
DOT
 70
    64
  3
...............................................
 72
    65
 73
     2
 40
0.000110
 49
0.000000
 49
-0.000110
  0
LTYPE
  2
DASHDOT
 70
    64
  3
__ . __ . __ . __ . __ . __ . __ . __ . __ . __
 72
    65
 73
     4
 40
0.000440
 49
0.000220
 49
-0.000110
 49
0.000000
 49
-0.000110
  0
LTYPE
  2
BORDER
 70
    64
  3
__ __ . __ __ . __ __ . __ __ . __ __ . __ __
 72
    65
 73
     6
 40
0.000770
 49
0.000220
 49
-0.000110
 49
0.000220
 49
-0.000110
 49
0.000000
 49
-0.000110
  0
LTYPE
  2
DIVIDE
 70
    64
  3
__ . . __ . . __ . . __ . . __ . . __ . . __
 72
    65
 73
     6
 40
0.000550
 49
0.000220
 49
-0.000110
 49
0.000000
 49
-0.000110
 49
0.000000
 49
-0.000110
  0
LTYPE
  2
DOTDOT
 70
    64
  3
 . .  . .  . .  . .  . .  . . 
 72
    65
 73
     5
 40
0.000242
 49
-0.000110
 49
0.000000
 49
-0.000110
 49
0.000000
 49
-0.000110
  0
ENDTAB
  0
TABLE
  2
STYLE
 70
     2
  0
STYLE
 70
     0
  2
SN0
 40
0.000000
 41
0.000440
 50
0.000000
 71
     0
 42
0.000000
  3
ROMAND
  0
STYLE
 70
    68
  2
SV0
 40
0.000000
 41
0.000440
 50
0.000000
 71
     0
 42
0.000000
  3
ROMAND
  0
ENDTAB
  0
TABLE
  2
LAYER
 70
     3
  0
LAYER
  2
FOREGROUND
 70
    64
 62
     7
  6
CONTINUOUS
  0
LAYER
  2
BACKGROUND
 70
    65
 62
    -7
  6
CONTINUOUS
  0
LAYER
  2
0
 70
    64
 62
     7
  6
CONTINUOUS
  0
ENDTAB
  0
ENDSEC
  0
SECTION
  2
ENTITIES
  0
POLYLINE
  8
FOREGROUND
  6
CONTINUOUS
 66
     1
 40
0.000000
 41
0.000000
  0
VERTEX
  8
FOREGROUND
  6
CONTINUOUS
 10
0.000000
 20
3.543760
  0
VERTEX
  8
FOREGROUND
  6
CONTINUOUS
 10
8.499920
 20
3.543760
  0
VERTEX
  8
FOREGROUND
  6
CONTINUOUS
 10
8.499920
 20
-7.456240
  0
VERTEX
  8
FOREGROUND
  6
CONTINUOUS
 10
0.000000
 20
-7.456240
  0
VERTEX
  8
FOREGROUND
  6
CONTINUOUS
 10
0.000000
 20
3.543760
  0
SEQEND
  8
0
  0
POLYLINE
  8
FOREGROUND
  6
CONTINUOUS
 66
     1
 40
0.000000
 41
0.000000
  0
VERTEX
  8
FOREGROUND
  6
CONTINUOUS
 10
0.000000
 20
3.543760
  0
VERTEX
  8
FOREGROUND
  6
CONTINUOUS
 10
8.499920
 20
3.543760
  0
VERTEX
  8
FOREGROUND
  6
CONTINUOUS
 10
8.499920
 20
-7.456240
  0
VERTEX
  8
FOREGROUND
  6
CONTINUOUS
 10
0.000000
 20
-7.456240
  0
VERTEX
  8
FOREGROUND
  6
CONTINUOUS
 10
0.000000
 20
3.543760
  0
SEQEND
  8
0
  0
POLYLINE
  8
0
  6
CONTINUOUS
 66
     1
 40
0.014080
 41
0.014080
  0
VERTEX
  8
0
  6
CONTINUOUS
 10
6.711760
 20
3.064600
  0
VERTEX
  8
0
  6
CONTINUOUS
 10
5.170000
 20
3.064600
  0
VERTEX
  8
0
  6
CONTINUOUS
 10
5.159440
 20
3.064160
  0
VERTEX
  8
0
  6
CONTINUOUS
 10
5.149320
 20
3.062400
  0
VERTEX
  8
0
  6
CONTINUOUS
 10
5.139640
 20
3.059760
  0
VERTEX
  8
0
  6
CONTINUOUS
 10
5.130400
 20
3.056240
  0
VERTEX
  8
0
  6
CONTINUOUS
 10
5.121160
 20
3.051840
  0
VERTEX
  8
0
  6
CONTINUOUS
 10
5.112800
 20
3.046560
  0
VERTEX
  8
0
  6
CONTINUOUS
 10
5.104880
 20
3.040400
  0
VERTEX
  8
0
  6
CONTINUOUS
 10
5.097840
 20
3.033800
  0
VERTEX
  8
0
  6
CONTINUOUS
 10
5.091240
 20
3.026320
  0
VERTEX
  8
0
  6
CONTINUOUS
 10
5.085520
 20
3.018400
  0
VERTEX
  8
0
  6
CONTINUOUS
 10
5.080240
 20
3.009600
  0
VERTEX
  8
0
  6
CONTINUOUS
 10
5.075840
 20
3.000800
  0
VERTEX
  8
0
  6
CONTINUOUS
 10
5.072320
 20
2.991120
  0
VERTEX
  8
0
  6
CONTINUOUS
 10
5.070120
 20
2.981440
  0
VERTEX
  8
0
  6
CONTINUOUS
 10
5.068360
 20
2.971320
  0
VERTEX
  8
0
  6
CONTINUOUS
 10
5.067920
 20
2.960760
  0
VERTEX
  8
0
  6
CONTINUOUS
 10
5.067920
 20
2.318800
  0
VERTEX
  8
0
  6
CONTINUOUS
 10
6.817800
 20
2.318800
  0
VERTEX
  8
0
  6
CONTINUOUS
 10
6.817800
 20
2.958560
  0
VERTEX
  8
0
  6
CONTINUOUS
 10
6.815600
 20
2.960760
  0
VERTEX
  8
0
  6
CONTINUOUS
 10
6.815160
 20
2.971320
  0
VERTEX
  8
0
  6
CONTINUOUS
 10
6.813400
 20
2.981440
  0
VERTEX
  8
0
  6
CONTINUOUS
 10
6.811200
 20
2.991120
  0
VERTEX
  8
0
  6
CONTINUOUS
 10
6.807680
 20
3.000800
  0
VERTEX
  8
0
  6
CONTINUOUS
 10
6.803280
 20
3.009600
  0
VERTEX
  8
0
  6
CONTINUOUS
 10
6.798000
 20
3.018400
  0
VERTEX
  8
0
  6
CONTINUOUS
 10
6.792280
 20
3.026320
  0
VERTEX
  8
0
  6
CONTINUOUS
 10
6.785680
 20
3.033800
  0
VERTEX
  8
0
  6
CONTINUOUS
 10
6.778640
 20
3.040400
  0
VERTEX
  8
0
  6
CONTINUOUS
 10
6.770720
 20
3.046560
  0
VERTEX
  8
0
  6
CONTINUOUS
 10
6.762360
 20
3.051840
  0
VERTEX
  8
0
  6
CONTINUOUS
 10
6.753120
 20
3.056240
  0
VERTEX
  8
0
  6
CONTINUOUS
 10
6.743880
 20
3.059760
  0
VERTEX
  8
0
  6
CONTINUOUS
 10
6.734200
 20
3.062400
  0
VERTEX
  8
0
  6
CONTINUOUS
 10
6.724080
 20
3.064160
  0
VERTEX
  8
0
  6
CONTINUOUS
 10
6.713520
 20
3.064600
  0
VERTEX
  8
0
  6
CONTINUOUS
 10
6.711760
 20
3.064600
  0
SEQEND
  8
0
  0
SOLID
  8
0
 62
    15
 10
7.148240
 20
1.522400
 11
7.777880
 21
1.882760
 12
7.150440
 22
1.501720
 13
7.779640
 23
1.862080
  0
POLYLINE
  8
0
  6
CONTINUOUS
 66
     1
 40
0.000000
 41
0.000000
  0
VERTEX
  8
0
  6
CONTINUOUS
 10
7.148240
 20
1.522400
  0
VERTEX
  8
0
  6
CONTINUOUS
 10
7.777880
 20
1.882760
  0
VERTEX
  8
0
  6
CONTINUOUS
 10
7.779640
 20
1.862080
  0
VERTEX
  8
0
  6
CONTINUOUS
 10
7.150440
 20
1.501720
  0
VERTEX
  8
0
  6
CONTINUOUS
 10
7.148240
 20
1.522400
  0
SEQEND
  8
0
  0
SOLID
  8
0
 62
     7
 10
7.069040
 20
1.603800
 11
7.698240
 21
1.964160
 12
7.087960
 22
1.597640
 13
7.717600
 23
1.958000
  0
POLYLINE
  8
0
  6
CONTINUOUS
 66
     1
 40
0.000000
 41
0.000000
  0
VERTEX
  8
0
  6
CONTINUOUS
 10
7.069040
 20
1.603800
  0
VERTEX
  8
0
  6
CONTINUOUS
 10
7.698240
 20
1.964160
  0
VERTEX
  8
0
  6
CONTINUOUS
 10
7.717600
 20
1.958000
  0
VERTEX
  8
0
  6
CONTINUOUS
 10
7.087960
 20
1.597640
  0
VERTEX
  8
0
  6
CONTINUOUS
 10
7.069040
 20
1.603800
  0
SEQEND
  8
0
  0
SOLID
  8
0
 62
     7
 10
7.087960
 20
1.597640
 11
7.717600
 21
1.958000
 12
7.105560
 22
1.587960
 13
7.734760
 23
1.948320
  0
POLYLINE
  8
0
  6
CONTINUOUS
 66
     1
 40
0.000000
 41
0.000000
  0
VERTEX
  8
0
  6
CONTINUOUS
 10
7.087960
 20
1.597640
  0
VERTEX
  8
0
  6
CONTINUOUS
 10
7.717600
 20
1.958000
  0
VERTEX
  8
0
  6
CONTINUOUS
 10
7.734760
 20
1.948320
  0
VERTEX
  8
0
  6
CONTINUOUS
 10
7.105560
 20
1.587960
  0
VERTEX
  8
0
  6
CONTINUOUS
 10
7.087960
 20
1.597640
  0
SEQEND
  8
0
  0
SOLID
  8
0
 62
     7
 10
7.105560
 20
1.587960
 11
7.734760
 21
1.948320
 12
7.120520
 22
1.575200
 13
7.749720
 23
1.935120
  0
POLYLINE
  8
0
  6
CONTINUOUS
 66
     1
 40
0.000000
 41
0.000000
  0
VERTEX
  8
0
  6
CONTINUOUS
 10
7.105560
 20
1.587960
  0
VERTEX
  8
0
  6
CONTINUOUS
 10
7.734760
 20
1.948320
  0
VERTEX
  8
0
  6
CONTINUOUS
 10
7.749720
 20
1.935120
  0
VERTEX
  8
0
  6
CONTINUOUS
 10
7.120520
 20
1.575200
  0
VERTEX
  8
0
  6
CONTINUOUS
 10
7.105560
 20
1.587960
  0
SEQEND
  8
0
  0
SOLID
  8
0
 62
     7
 10
7.120520
 20
1.575200
 11
7.749720
 21
1.935120
 12
7.132840
 22
1.559360
 13
7.762480
 23
1.919720
  0
POLYLINE
  8
0
  6
CONTINUOUS
 66
     1
 40
0.000000
 41
0.000000
  0
VERTEX
  8
0
  6
CONTINUOUS
 10
7.120520
 20
1.575200
  0
VERTEX
  8
0
  6
CONTINUOUS
 10
7.749720
 20
1.935120
  0
VERTEX
  8
0
  6
CONTINUOUS
 10
7.762480
 20
1.919720
  0
VERTEX
  8
0
  6
CONTINUOUS
 10
7.132840
 20
1.559360
  0
VERTEX
  8
0
  6
CONTINUOUS
 10
7.120520
 20
1.575200
  0
SEQEND
  8
0
  0
SOLID
  8
0
 62
     7
 10
7.132840
 20
1.559360
 11
7.762480
 21
1.919720
 12
7.142520
 22
1.541760
 13
7.771720
 23
1.902120
  0
POLYLINE
  8
0
  6
CONTINUOUS
 66
     1
 40
0.000000
 41
0.000000
  0
VERTEX
  8
0
  6
CONTINUOUS
 10
7.132840
 20
1.559360
  0
VERTEX
  8
0
  6
CONTINUOUS
 10
7.762480
 20
1.919720
  0
VERTEX
  8
0
  6
CONTINUOUS
 10
7.771720
 20
1.902120
  0
VERTEX
  8
0
  6
CONTINUOUS
 10
7.142520
 20
1.541760
  0
VERTEX
  8
0
  6
CONTINUOUS
 10
7.132840
 20
1.559360
  0
SEQEND
  8
0
  0
SOLID
  8
0
 62
    15
 10
7.142520
 20
1.541760
 11
7.771720
 21
1.902120
 12
7.148240
 22
1.522400
 13
7.777880
 23
1.882760
  0
POLYLINE
  8
0
  6
CONTINUOUS
 66
     1
 40
0.000000
 41
0.000000
  0
VERTEX
  8
0
  6
CONTINUOUS
 10
7.142520
 20
1.541760
  0
VERTEX
  8
0
  6
CONTINUOUS
 10
7.771720
 20
1.902120
  0
VERTEX
  8
0
  6
CONTINUOUS
 10
7.777880
 20
1.882760
  0
VERTEX
  8
0
  6
CONTINUOUS
 10
7.148240
 20
1.522400
  0
VERTEX
  8
0
  6
CONTINUOUS
 10
7.142520
 20
1.541760
  0
SEQEND
  8
0
  0
SOLID
  8
0
 62
    15
 10
7.048360
 20
1.606000
 11
7.677560
 21
1.966360
 12
7.069040
 22
1.603800
 13
7.698240
 23
1.964160
  0
POLYLINE
  8
0
  6
CONTINUOUS
 66
     1
 40
0.000000
 41
0.000000
  0
VERTEX
  8
0
  6
CONTINUOUS
 10
7.048360
 20
1.606000
  0
VERTEX
  8
0
  6
CONTINUOUS
 10
7.677560
 20
1.966360
  0
VERTEX
  8
0
  6
CONTINUOUS
 10
7.698240
 20
1.964160
  0
VERTEX
  8
0
  6
CONTINUOUS
 10
7.069040
 20
1.603800
  0
VERTEX
  8
0
  6
CONTINUOUS
 10
7.048360
 20
1.606000
  0
SEQEND
  8
0
  0
SOLID
  8
0
 62
     7
 10
7.150440
 20
1.501720
 11
7.779640
 21
1.862080
 12
7.152640
 22
1.499520
 13
7.781840
 23
1.859880
  0
POLYLINE
  8
0
  6
CONTINUOUS
 66
     1
 40
0.000000
 41
0.000000
  0
VERTEX
  8
0
  6
CONTINUOUS
 10
7.150440
 20
1.501720
  0
VERTEX
  8
0
  6
CONTINUOUS
 10
7.779640
 20
1.862080
  0
VERTEX
  8
0
  6
CONTINUOUS
 10
7.781840
 20
1.859880
  0
VERTEX
  8
0
  6
CONTINUOUS
 10
7.152640
 20
1.499520
  0
VERTEX
  8
0
  6
CONTINUOUS
 10
7.150440
 20
1.501720
  0
SEQEND
  8
0
  0
SOLID
  8
0
 62
    15
 10
7.152640
 20
1.499520
 11
7.781840
 21
1.859880
 12
7.152640
 22
0.860200
 13
7.781840
 23
1.220560
  0
POLYLINE
  8
0
  6
CONTINUOUS
 66
     1
 40
0.000000
 41
0.000000
  0
VERTEX
  8
0
  6
CONTINUOUS
 10
7.152640
 20
1.499520
  0
VERTEX
  8
0
  6
CONTINUOUS
 10
7.781840
 20
1.859880
  0
VERTEX
  8
0
  6
CONTINUOUS
 10
7.781840
 20
1.220560
  0
VERTEX
  8
0
  6
CONTINUOUS
 10
7.152640
 20
0.860200
  0
VERTEX
  8
0
  6
CONTINUOUS
 10
7.152640
 20
1.499520
  0
SEQEND
  8
0
  0
SOLID
  8
0
 62
    15
 10
5.447640
 20
1.587960
 11
6.076840
 21
1.948320
 12
5.464800
 22
1.597640
 13
6.094440
 23
1.958000
  0
POLYLINE
  8
0
  6
CONTINUOUS
 66
     1
 40
0.000000
 41
0.000000
  0
VERTEX
  8
0
  6
CONTINUOUS
 10
5.447640
 20
1.587960
  0
VERTEX
  8
0
  6
CONTINUOUS
 10
6.076840
 20
1.948320
  0
VERTEX
  8
0
  6
CONTINUOUS
 10
6.094440
 20
1.958000
  0
VERTEX
  8
0
  6
CONTINUOUS
 10
5.464800
 20
1.597640
  0
VERTEX
  8
0
  6
CONTINUOUS
 10
5.447640
 20
1.587960
  0
SEQEND
  8
0
  0
SOLID
  8
0
 62
    15
 10
5.464800
 20
1.597640
 11
6.094440
 21
1.958000
 12
5.484160
 22
1.603800
 13
6.113360
 23
1.964160
  0
POLYLINE
  8
0
  6
CONTINUOUS
 66
     1
 40
0.000000
 41
0.000000
  0
VERTEX
  8
0
  6
CONTINUOUS
 10
5.464800
 20
1.597640
  0
VERTEX
  8
0
  6
CONTINUOUS
 10
6.094440
 20
1.958000
  0
VERTEX
  8
0
  6
CONTINUOUS
 10
6.113360
 20
1.964160
  0
VERTEX
  8
0
  6
CONTINUOUS
 10
5.484160
 20
1.603800
  0
VERTEX
  8
0
  6
CONTINUOUS
 10
5.464800
 20
1.597640
  0
SEQEND
  8
0
  0
SOLID
  8
0
 62
    15
 10
5.484160
 20
1.603800
 11
6.113360
 21
1.964160
 12
5.504840
 22
1.606000
 13
6.134040
 23
1.966360
  0
POLYLINE
  8
0
  6
CONTINUOUS
 66
     1
 40
0.000000
 41
0.000000
  0
VERTEX
  8
0
  6
CONTINUOUS
 10
5.484160
 20
1.603800
  0
VERTEX
  8
0
  6
CONTINUOUS
 10
6.113360
 20
1.964160
  0
VERTEX
  8
0
  6
CONTINUOUS
 10
6.134040
 20
1.966360
  0
VERTEX
  8
0
  6
CONTINUOUS
 10
5.504840
 20
1.606000
  0
VERTEX
  8
0
  6
CONTINUOUS
 10
5.484160
 20
1.603800
  0
SEQEND
  8
0
  0
SOLID
  8
0
 62
    15
 10
5.504840
 20
1.606000
 11
6.134040
 21
1.966360
 12
7.046160
 22
1.606000
 13
7.675800
 23
1.966360
  0
POLYLINE
  8
0
  6
CONTINUOUS
 66
     1
 40
0.000000
 41
0.000000
  0
VERTEX
  8
0
  6
CONTINUOUS
 10
5.504840
 20
1.606000
  0
VERTEX
  8
0
  6
CONTINUOUS
 10
6.134040
 20
1.966360
  0
VERTEX
  8
0
  6
CONTINUOUS
 10
7.675800
 20
1.966360
  0
VERTEX
  8
0
  6
CONTINUOUS
 10
7.046160
 20
1.606000
  0
VERTEX
  8
0
  6
CONTINUOUS
 10
5.504840
 20
1.606000
  0
SEQEND
  8
0
  0
SOLID
  8
0
 62
    15
 10
7.046160
 20
1.606000
 11
7.675800
 21
1.966360
 12
7.048360
 22
1.606000
 13
7.677560
 23
1.966360
  0
POLYLINE
  8
0
  6
CONTINUOUS
 66
     1
 40
0.000000
 41
0.000000
  0
VERTEX
  8
0
  6
CONTINUOUS
 10
7.046160
 20
1.606000
  0
VERTEX
  8
0
  6
CONTINUOUS
 10
7.675800
 20
1.966360
  0
VERTEX
  8
0
  6
CONTINUOUS
 10
7.677560
 20
1.966360
  0
VERTEX
  8
0
  6
CONTINUOUS
 10
7.048360
 20
1.606000
  0
VERTEX
  8
0
  6
CONTINUOUS
 10
7.046160
 20
1.606000
  0
SEQEND
  8
0
  0
POLYLINE
  8
0
  6
CONTINUOUS
 66
     1
 40
0.000000
 41
0.000000
  0
VERTEX
  8
0
  6
CONTINUOUS
 10
7.048360
 20
1.606000
  0
VERTEX
  8
0
  6
CONTINUOUS
 10
7.069040
 20
1.603800
  0
VERTEX
  8
0
  6
CONTINUOUS
 10
7.087960
 20
1.597640
  0
VERTEX
  8
0
  6
CONTINUOUS
 10
7.105560
 20
1.587960
  0
VERTEX
  8
0
  6
CONTINUOUS
 10
7.120520
 20
1.575200
  0
VERTEX
  8
0
  6
CONTINUOUS
 10
7.132840
 20
1.559360
  0
VERTEX
  8
0
  6
CONTINUOUS
 10
7.142520
 20
1.541760
  0
VERTEX
  8
0
  6
CONTINUOUS
 10
7.148240
 20
1.522400
  0
VERTEX
  8
0
  6
CONTINUOUS
 10
7.150440
 20
1.501720
  0
VERTEX
  8
0
  6
CONTINUOUS
 10
7.152640
 20
1.499520
  0
VERTEX
  8
0
  6
CONTINUOUS
 10
7.152640
 20
0.860200
  0
VERTEX
  8
0
  6
CONTINUOUS
 10
5.402760
 20
0.860200
  0
VERTEX
  8
0
  6
CONTINUOUS
 10
5.402760
 20
1.501720
  0
VERTEX
  8
0
  6
CONTINUOUS
 10
5.404520
 20
1.522400
  0
VERTEX
  8
0
  6
CONTINUOUS
 10
5.410680
 20
1.541760
  0
VERTEX
  8
0
  6
CONTINUOUS
 10
5.419920
 20
1.559360
  0
VERTEX
  8
0
  6
CONTINUOUS
 10
5.432680
 20
1.575200
  0
VERTEX
  8
0
  6
CONTINUOUS
 10
5.447640
 20
1.587960
  0
VERTEX
  8
0
  6
CONTINUOUS
 10
5.464800
 20
1.597640
  0
VERTEX
  8
0
  6
CONTINUOUS
 10
5.484160
 20
1.603800
  0
VERTEX
  8
0
  6
CONTINUOUS
 10
5.504840
 20
1.606000
  0
VERTEX
  8
0
  6
CONTINUOUS
 10
7.046160
 20
1.606000
  0
VERTEX
  8
0
  6
CONTINUOUS
 10
7.048360
 20
1.606000
  0
SEQEND
  8
0
  0
TEXT
  8
0
 10
6.454800
 20
0.643280
 40
0.138170
  1
327
 41
1.000000
  7
SN0
 71
     0
 72
     5
 11
6.731678
 21
0.643280
  0
TEXT
  8
0
 10
6.109840
 20
0.451440
 40
0.138170
  1
3/4" x 1-3/4"*
 41
1.000000
  7
SN0
 71
     0
 72
     5
 11
7.074056
 21
0.451440
  0
TEXT
  8
0
 10
7.400800
 20
2.981000
 40
0.138170
  1
1/2 rnd
 41
1.000000
  7
SN0
 71
     0
 72
     5
 11
7.916553
 21
2.981000
  0
TEXT
  8
0
 10
7.520920
 20
2.789600
 40
0.138170
  1
327
 41
1.000000
  7
SN0
 71
     0
 72
     5
 11
7.797798
 21
2.789600
  0
ENDSEC
  0
EOF
