  0
SECTION
  2
HEADER
  9
$ACADVER
  1
AC1006
  9
$EXTMIN
 10
4.689080
 20
0.415360
  9
$EXTMAX
 10
7.941120
 20
4.308480
  9
$LTSCALE
 40
0.044000
  9
$PDMODE
 70
    35
  9
$PDSIZE
 40
0.035200
  0
ENDSEC
  0
SECTION
  2
TABLES
  0
TABLE
  2
LTYPE
 70
     9
  0
LTYPE
  2
CONTINUOUS
 70
    64
  3
Solid line
 72
    65
 73
     0
 40
0.000000
  0
LTYPE
  2
DASHED
 70
    64
  3
__ __ __ __ __ __ __ __ __ __ __ __ __ __ __
 72
    65
 73
     2
 40
0.000330
 49
0.000220
 49
-0.000110
  0
LTYPE
  2
HIDDEN
 70
    64
  3
 _ _ _ _ _ _ _ _ _ _ _ _ _ _ _ _ _ _ _ _ _ _
 72
    65
 73
     2
 40
0.000165
 49
0.000110
 49
-0.000055
  0
LTYPE
  2
CENTER
 70
    64
  3
____ _ ____ _ ____ _ ____ _ ____ _ ____ _ ____
 72
    65
 73
     4
 40
0.000880
 49
0.000550
 49
-0.000110
 49
0.000110
 49
-0.000110
  0
LTYPE
  2
PHANTOM
 70
    64
  3
_____ _ _ _____ _ _ _____ _ _ _____ _ _ ____
 72
    65
 73
     6
 40
0.001100
 49
0.000550
 49
-0.000110
 49
0.000110
 49
-0.000110
 49
0.000110
 49
-0.000110
  0
LTYPE
  2
DOT
 70
    64
  3
...............................................
 72
    65
 73
     2
 40
0.000110
 49
0.000000
 49
-0.000110
  0
LTYPE
  2
DASHDOT
 70
    64
  3
__ . __ . __ . __ . __ . __ . __ . __ . __ . __
 72
    65
 73
     4
 40
0.000440
 49
0.000220
 49
-0.000110
 49
0.000000
 49
-0.000110
  0
LTYPE
  2
BORDER
 70
    64
  3
__ __ . __ __ . __ __ . __ __ . __ __ . __ __
 72
    65
 73
     6
 40
0.000770
 49
0.000220
 49
-0.000110
 49
0.000220
 49
-0.000110
 49
0.000000
 49
-0.000110
  0
LTYPE
  2
DIVIDE
 70
    64
  3
__ . . __ . . __ . . __ . . __ . . __ . . __
 72
    65
 73
     6
 40
0.000550
 49
0.000220
 49
-0.000110
 49
0.000000
 49
-0.000110
 49
0.000000
 49
-0.000110
  0
LTYPE
  2
DOTDOT
 70
    64
  3
 . .  . .  . .  . .  . .  . . 
 72
    65
 73
     5
 40
0.000242
 49
-0.000110
 49
0.000000
 49
-0.000110
 49
0.000000
 49
-0.000110
  0
ENDTAB
  0
TABLE
  2
STYLE
 70
     2
  0
STYLE
 70
     0
  2
SN0
 40
0.000000
 41
0.000440
 50
0.000000
 71
     0
 42
0.000000
  3
ROMAND
  0
STYLE
 70
    68
  2
SV0
 40
0.000000
 41
0.000440
 50
0.000000
 71
     0
 42
0.000000
  3
ROMAND
  0
ENDTAB
  0
TABLE
  2
LAYER
 70
     3
  0
LAYER
  2
FOREGROUND
 70
    64
 62
     7
  6
CONTINUOUS
  0
LAYER
  2
BACKGROUND
 70
    65
 62
    -7
  6
CONTINUOUS
  0
LAYER
  2
0
 70
    64
 62
     7
  6
CONTINUOUS
  0
ENDTAB
  0
ENDSEC
  0
SECTION
  2
ENTITIES
  0
POLYLINE
  8
FOREGROUND
  6
CONTINUOUS
 66
     1
 40
0.000000
 41
0.000000
  0
VERTEX
  8
FOREGROUND
  6
CONTINUOUS
 10
0.000000
 20
4.723840
  0
VERTEX
  8
FOREGROUND
  6
CONTINUOUS
 10
8.499920
 20
4.723840
  0
VERTEX
  8
FOREGROUND
  6
CONTINUOUS
 10
8.499920
 20
-6.276160
  0
VERTEX
  8
FOREGROUND
  6
CONTINUOUS
 10
0.000000
 20
-6.276160
  0
VERTEX
  8
FOREGROUND
  6
CONTINUOUS
 10
0.000000
 20
4.723840
  0
SEQEND
  8
0
  0
POLYLINE
  8
FOREGROUND
  6
CONTINUOUS
 66
     1
 40
0.000000
 41
0.000000
  0
VERTEX
  8
FOREGROUND
  6
CONTINUOUS
 10
0.000000
 20
4.723840
  0
VERTEX
  8
FOREGROUND
  6
CONTINUOUS
 10
8.499920
 20
4.723840
  0
VERTEX
  8
FOREGROUND
  6
CONTINUOUS
 10
8.499920
 20
-6.276160
  0
VERTEX
  8
FOREGROUND
  6
CONTINUOUS
 10
0.000000
 20
-6.276160
  0
VERTEX
  8
FOREGROUND
  6
CONTINUOUS
 10
0.000000
 20
4.723840
  0
SEQEND
  8
0
  0
POLYLINE
  8
0
  6
CONTINUOUS
 66
     1
 40
0.014080
 41
0.014080
  0
VERTEX
  8
0
  6
CONTINUOUS
 10
6.468880
 20
3.132360
  0
VERTEX
  8
0
  6
CONTINUOUS
 10
6.530920
 20
3.153040
  0
VERTEX
  8
0
  6
CONTINUOUS
 10
6.589000
 20
3.178560
  0
VERTEX
  8
0
  6
CONTINUOUS
 10
6.644000
 20
3.207600
  0
VERTEX
  8
0
  6
CONTINUOUS
 10
6.695480
 20
3.240600
  0
VERTEX
  8
0
  6
CONTINUOUS
 10
6.742560
 20
3.276680
  0
VERTEX
  8
0
  6
CONTINUOUS
 10
6.785680
 20
3.316280
  0
VERTEX
  8
0
  6
CONTINUOUS
 10
6.824400
 20
3.358080
  0
VERTEX
  8
0
  6
CONTINUOUS
 10
6.858720
 20
3.402520
  0
VERTEX
  8
0
  6
CONTINUOUS
 10
6.888640
 20
3.449160
  0
VERTEX
  8
0
  6
CONTINUOUS
 10
6.913280
 20
3.497120
  0
VERTEX
  8
0
  6
CONTINUOUS
 10
6.933080
 20
3.546840
  0
VERTEX
  8
0
  6
CONTINUOUS
 10
6.947160
 20
3.597000
  0
VERTEX
  8
0
  6
CONTINUOUS
 10
6.952440
 20
3.622520
  0
VERTEX
  8
0
  6
CONTINUOUS
 10
6.958600
 20
3.674000
  0
VERTEX
  8
0
  6
CONTINUOUS
 10
6.959040
 20
3.725480
  0
VERTEX
  8
0
  6
CONTINUOUS
 10
6.953320
 20
3.776960
  0
VERTEX
  8
0
  6
CONTINUOUS
 10
6.941440
 20
3.828000
  0
VERTEX
  8
0
  6
CONTINUOUS
 10
6.923400
 20
3.877720
  0
VERTEX
  8
0
  6
CONTINUOUS
 10
6.898760
 20
3.926560
  0
VERTEX
  8
0
  6
CONTINUOUS
 10
6.883800
 20
3.950760
  0
VERTEX
  8
0
  6
CONTINUOUS
 10
6.849040
 20
3.996960
  0
VERTEX
  8
0
  6
CONTINUOUS
 10
6.807240
 20
4.041400
  0
VERTEX
  8
0
  6
CONTINUOUS
 10
6.758400
 20
4.083640
  0
VERTEX
  8
0
  6
CONTINUOUS
 10
6.701640
 20
4.122800
  0
VERTEX
  8
0
  6
CONTINUOUS
 10
6.670840
 20
4.141720
  0
VERTEX
  8
0
  6
CONTINUOUS
 10
6.602640
 20
4.176480
  0
VERTEX
  8
0
  6
CONTINUOUS
 10
6.526960
 20
4.207720
  0
VERTEX
  8
0
  6
CONTINUOUS
 10
6.443360
 20
4.235000
  0
VERTEX
  8
0
  6
CONTINUOUS
 10
6.350960
 20
4.257880
  0
VERTEX
  8
0
  6
CONTINUOUS
 10
6.276600
 20
4.272400
  0
VERTEX
  8
0
  6
CONTINUOUS
 10
6.169240
 20
4.287360
  0
VERTEX
  8
0
  6
CONTINUOUS
 10
6.083440
 20
4.295280
  0
VERTEX
  8
0
  6
CONTINUOUS
 10
5.992360
 20
4.300120
  0
VERTEX
  8
0
  6
CONTINUOUS
 10
5.896000
 20
4.301880
  0
VERTEX
  8
0
  6
CONTINUOUS
 10
5.793040
 20
4.301440
  0
VERTEX
  8
0
  6
CONTINUOUS
 10
5.695360
 20
4.301000
  0
VERTEX
  8
0
  6
CONTINUOUS
 10
5.602520
 20
4.297040
  0
VERTEX
  8
0
  6
CONTINUOUS
 10
5.514520
 20
4.290440
  0
VERTEX
  8
0
  6
CONTINUOUS
 10
5.405400
 20
4.276360
  0
VERTEX
  8
0
  6
CONTINUOUS
 10
5.354360
 20
4.268000
  0
VERTEX
  8
0
  6
CONTINUOUS
 10
5.258000
 20
4.246880
  0
VERTEX
  8
0
  6
CONTINUOUS
 10
5.212680
 20
4.235000
  0
VERTEX
  8
0
  6
CONTINUOUS
 10
5.129080
 20
4.207720
  0
VERTEX
  8
0
  6
CONTINUOUS
 10
5.053400
 20
4.176480
  0
VERTEX
  8
0
  6
CONTINUOUS
 10
4.985200
 20
4.141720
  0
VERTEX
  8
0
  6
CONTINUOUS
 10
4.925360
 20
4.103440
  0
VERTEX
  8
0
  6
CONTINUOUS
 10
4.872560
 20
4.062960
  0
VERTEX
  8
0
  6
CONTINUOUS
 10
4.827240
 20
4.019400
  0
VERTEX
  8
0
  6
CONTINUOUS
 10
4.807000
 20
3.996960
  0
VERTEX
  8
0
  6
CONTINUOUS
 10
4.772240
 20
3.950760
  0
VERTEX
  8
0
  6
CONTINUOUS
 10
4.744080
 20
3.902360
  0
VERTEX
  8
0
  6
CONTINUOUS
 10
4.722960
 20
3.853080
  0
VERTEX
  8
0
  6
CONTINUOUS
 10
4.714600
 20
3.828000
  0
VERTEX
  8
0
  6
CONTINUOUS
 10
4.702720
 20
3.776960
  0
VERTEX
  8
0
  6
CONTINUOUS
 10
4.699200
 20
3.751440
  0
VERTEX
  8
0
  6
CONTINUOUS
 10
4.696560
 20
3.699960
  0
VERTEX
  8
0
  6
CONTINUOUS
 10
4.697440
 20
3.674000
  0
VERTEX
  8
0
  6
CONTINUOUS
 10
4.703600
 20
3.622520
  0
VERTEX
  8
0
  6
CONTINUOUS
 10
4.715480
 20
3.571920
  0
VERTEX
  8
0
  6
CONTINUOUS
 10
4.732640
 20
3.521760
  0
VERTEX
  8
0
  6
CONTINUOUS
 10
4.742760
 20
3.497120
  0
VERTEX
  8
0
  6
CONTINUOUS
 10
4.767840
 20
3.449160
  0
VERTEX
  8
0
  6
CONTINUOUS
 10
4.797320
 20
3.402520
  0
VERTEX
  8
0
  6
CONTINUOUS
 10
4.831640
 20
3.358080
  0
VERTEX
  8
0
  6
CONTINUOUS
 10
4.870360
 20
3.316280
  0
VERTEX
  8
0
  6
CONTINUOUS
 10
4.913920
 20
3.276680
  0
VERTEX
  8
0
  6
CONTINUOUS
 10
4.961000
 20
3.240600
  0
VERTEX
  8
0
  6
CONTINUOUS
 10
5.012040
 20
3.207600
  0
VERTEX
  8
0
  6
CONTINUOUS
 10
5.067040
 20
3.178560
  0
VERTEX
  8
0
  6
CONTINUOUS
 10
5.125560
 20
3.153040
  0
VERTEX
  8
0
  6
CONTINUOUS
 10
5.187600
 20
3.132360
  0
VERTEX
  8
0
  6
CONTINUOUS
 10
5.189360
 20
3.127960
  0
VERTEX
  8
0
  6
CONTINUOUS
 10
5.189360
 20
3.040400
  0
VERTEX
  8
0
  6
CONTINUOUS
 10
6.466680
 20
3.040400
  0
VERTEX
  8
0
  6
CONTINUOUS
 10
6.466680
 20
3.127960
  0
VERTEX
  8
0
  6
CONTINUOUS
 10
6.468880
 20
3.132360
  0
SEQEND
  8
0
  0
SOLID
  8
0
 62
    15
 10
6.979280
 20
2.022680
 11
7.619040
 21
2.385240
 12
7.043520
 22
1.986600
 13
7.682840
 23
2.348720
  0
POLYLINE
  8
0
  6
CONTINUOUS
 66
     1
 40
0.000000
 41
0.000000
  0
VERTEX
  8
0
  6
CONTINUOUS
 10
6.979280
 20
2.022680
  0
VERTEX
  8
0
  6
CONTINUOUS
 10
7.619040
 20
2.385240
  0
VERTEX
  8
0
  6
CONTINUOUS
 10
7.682840
 20
2.348720
  0
VERTEX
  8
0
  6
CONTINUOUS
 10
7.043520
 20
1.986600
  0
VERTEX
  8
0
  6
CONTINUOUS
 10
6.979280
 20
2.022680
  0
SEQEND
  8
0
  0
SOLID
  8
0
 62
    15
 10
5.360080
 20
2.022680
 11
5.999840
 21
2.385240
 12
5.431800
 22
2.055680
 13
6.071560
 23
2.418240
  0
POLYLINE
  8
0
  6
CONTINUOUS
 66
     1
 40
0.000000
 41
0.000000
  0
VERTEX
  8
0
  6
CONTINUOUS
 10
5.360080
 20
2.022680
  0
VERTEX
  8
0
  6
CONTINUOUS
 10
5.999840
 20
2.385240
  0
VERTEX
  8
0
  6
CONTINUOUS
 10
6.071560
 20
2.418240
  0
VERTEX
  8
0
  6
CONTINUOUS
 10
5.431800
 20
2.055680
  0
VERTEX
  8
0
  6
CONTINUOUS
 10
5.360080
 20
2.022680
  0
SEQEND
  8
0
  0
SOLID
  8
0
 62
    15
 10
5.431800
 20
2.055680
 11
6.071560
 21
2.418240
 12
5.511880
 22
2.085160
 13
6.151200
 23
2.447280
  0
POLYLINE
  8
0
  6
CONTINUOUS
 66
     1
 40
0.000000
 41
0.000000
  0
VERTEX
  8
0
  6
CONTINUOUS
 10
5.431800
 20
2.055680
  0
VERTEX
  8
0
  6
CONTINUOUS
 10
6.071560
 20
2.418240
  0
VERTEX
  8
0
  6
CONTINUOUS
 10
6.151200
 20
2.447280
  0
VERTEX
  8
0
  6
CONTINUOUS
 10
5.511880
 20
2.085160
  0
VERTEX
  8
0
  6
CONTINUOUS
 10
5.431800
 20
2.055680
  0
SEQEND
  8
0
  0
SOLID
  8
0
 62
    15
 10
5.511880
 20
2.085160
 11
6.151200
 21
2.447280
 12
5.599440
 22
2.110240
 13
6.239200
 23
2.472800
  0
POLYLINE
  8
0
  6
CONTINUOUS
 66
     1
 40
0.000000
 41
0.000000
  0
VERTEX
  8
0
  6
CONTINUOUS
 10
5.511880
 20
2.085160
  0
VERTEX
  8
0
  6
CONTINUOUS
 10
6.151200
 20
2.447280
  0
VERTEX
  8
0
  6
CONTINUOUS
 10
6.239200
 20
2.472800
  0
VERTEX
  8
0
  6
CONTINUOUS
 10
5.599440
 20
2.110240
  0
VERTEX
  8
0
  6
CONTINUOUS
 10
5.511880
 20
2.085160
  0
SEQEND
  8
0
  0
SOLID
  8
0
 62
    15
 10
5.599440
 20
2.110240
 11
6.239200
 21
2.472800
 12
5.695800
 22
2.131360
 13
6.335560
 23
2.493480
  0
POLYLINE
  8
0
  6
CONTINUOUS
 66
     1
 40
0.000000
 41
0.000000
  0
VERTEX
  8
0
  6
CONTINUOUS
 10
5.599440
 20
2.110240
  0
VERTEX
  8
0
  6
CONTINUOUS
 10
6.239200
 20
2.472800
  0
VERTEX
  8
0
  6
CONTINUOUS
 10
6.335560
 20
2.493480
  0
VERTEX
  8
0
  6
CONTINUOUS
 10
5.695800
 20
2.131360
  0
VERTEX
  8
0
  6
CONTINUOUS
 10
5.599440
 20
2.110240
  0
SEQEND
  8
0
  0
SOLID
  8
0
 62
    15
 10
5.695800
 20
2.131360
 11
6.335560
 21
2.493480
 12
5.800960
 22
2.147640
 13
6.440280
 23
2.509760
  0
POLYLINE
  8
0
  6
CONTINUOUS
 66
     1
 40
0.000000
 41
0.000000
  0
VERTEX
  8
0
  6
CONTINUOUS
 10
5.695800
 20
2.131360
  0
VERTEX
  8
0
  6
CONTINUOUS
 10
6.335560
 20
2.493480
  0
VERTEX
  8
0
  6
CONTINUOUS
 10
6.440280
 20
2.509760
  0
VERTEX
  8
0
  6
CONTINUOUS
 10
5.800960
 20
2.147640
  0
VERTEX
  8
0
  6
CONTINUOUS
 10
5.695800
 20
2.131360
  0
SEQEND
  8
0
  0
SOLID
  8
0
 62
    15
 10
5.800960
 20
2.147640
 11
6.440280
 21
2.509760
 12
5.914480
 22
2.158640
 13
6.554240
 23
2.520760
  0
POLYLINE
  8
0
  6
CONTINUOUS
 66
     1
 40
0.000000
 41
0.000000
  0
VERTEX
  8
0
  6
CONTINUOUS
 10
5.800960
 20
2.147640
  0
VERTEX
  8
0
  6
CONTINUOUS
 10
6.440280
 20
2.509760
  0
VERTEX
  8
0
  6
CONTINUOUS
 10
6.554240
 20
2.520760
  0
VERTEX
  8
0
  6
CONTINUOUS
 10
5.914480
 20
2.158640
  0
VERTEX
  8
0
  6
CONTINUOUS
 10
5.800960
 20
2.147640
  0
SEQEND
  8
0
  0
SOLID
  8
0
 62
    15
 10
5.914480
 20
2.158640
 11
6.554240
 21
2.520760
 12
6.036800
 22
2.164360
 13
6.676560
 23
2.526480
  0
POLYLINE
  8
0
  6
CONTINUOUS
 66
     1
 40
0.000000
 41
0.000000
  0
VERTEX
  8
0
  6
CONTINUOUS
 10
5.914480
 20
2.158640
  0
VERTEX
  8
0
  6
CONTINUOUS
 10
6.554240
 20
2.520760
  0
VERTEX
  8
0
  6
CONTINUOUS
 10
6.676560
 20
2.526480
  0
VERTEX
  8
0
  6
CONTINUOUS
 10
6.036800
 20
2.164360
  0
VERTEX
  8
0
  6
CONTINUOUS
 10
5.914480
 20
2.158640
  0
SEQEND
  8
0
  0
SOLID
  8
0
 62
    15
 10
6.036800
 20
2.164360
 11
6.676560
 21
2.526480
 12
6.302560
 22
2.164360
 13
6.942320
 23
2.526480
  0
POLYLINE
  8
0
  6
CONTINUOUS
 66
     1
 40
0.000000
 41
0.000000
  0
VERTEX
  8
0
  6
CONTINUOUS
 10
6.036800
 20
2.164360
  0
VERTEX
  8
0
  6
CONTINUOUS
 10
6.676560
 20
2.526480
  0
VERTEX
  8
0
  6
CONTINUOUS
 10
6.942320
 20
2.526480
  0
VERTEX
  8
0
  6
CONTINUOUS
 10
6.302560
 20
2.164360
  0
VERTEX
  8
0
  6
CONTINUOUS
 10
6.036800
 20
2.164360
  0
SEQEND
  8
0
  0
SOLID
  8
0
 62
    15
 10
6.302560
 20
2.164360
 11
6.942320
 21
2.526480
 12
6.424880
 22
2.158640
 13
7.064640
 23
2.520760
  0
POLYLINE
  8
0
  6
CONTINUOUS
 66
     1
 40
0.000000
 41
0.000000
  0
VERTEX
  8
0
  6
CONTINUOUS
 10
6.302560
 20
2.164360
  0
VERTEX
  8
0
  6
CONTINUOUS
 10
6.942320
 20
2.526480
  0
VERTEX
  8
0
  6
CONTINUOUS
 10
7.064640
 20
2.520760
  0
VERTEX
  8
0
  6
CONTINUOUS
 10
6.424880
 20
2.158640
  0
VERTEX
  8
0
  6
CONTINUOUS
 10
6.302560
 20
2.164360
  0
SEQEND
  8
0
  0
SOLID
  8
0
 62
    15
 10
6.424880
 20
2.158640
 11
7.064640
 21
2.520760
 12
6.538840
 22
2.147640
 13
7.178160
 23
2.509760
  0
POLYLINE
  8
0
  6
CONTINUOUS
 66
     1
 40
0.000000
 41
0.000000
  0
VERTEX
  8
0
  6
CONTINUOUS
 10
6.424880
 20
2.158640
  0
VERTEX
  8
0
  6
CONTINUOUS
 10
7.064640
 20
2.520760
  0
VERTEX
  8
0
  6
CONTINUOUS
 10
7.178160
 20
2.509760
  0
VERTEX
  8
0
  6
CONTINUOUS
 10
6.538840
 20
2.147640
  0
VERTEX
  8
0
  6
CONTINUOUS
 10
6.424880
 20
2.158640
  0
SEQEND
  8
0
  0
SOLID
  8
0
 62
    15
 10
6.538840
 20
2.147640
 11
7.178160
 21
2.509760
 12
6.643560
 22
2.131360
 13
7.283320
 23
2.493480
  0
POLYLINE
  8
0
  6
CONTINUOUS
 66
     1
 40
0.000000
 41
0.000000
  0
VERTEX
  8
0
  6
CONTINUOUS
 10
6.538840
 20
2.147640
  0
VERTEX
  8
0
  6
CONTINUOUS
 10
7.178160
 20
2.509760
  0
VERTEX
  8
0
  6
CONTINUOUS
 10
7.283320
 20
2.493480
  0
VERTEX
  8
0
  6
CONTINUOUS
 10
6.643560
 20
2.131360
  0
VERTEX
  8
0
  6
CONTINUOUS
 10
6.538840
 20
2.147640
  0
SEQEND
  8
0
  0
SOLID
  8
0
 62
    15
 10
6.643560
 20
2.131360
 11
7.283320
 21
2.493480
 12
6.739920
 22
2.110240
 13
7.379680
 23
2.472800
  0
POLYLINE
  8
0
  6
CONTINUOUS
 66
     1
 40
0.000000
 41
0.000000
  0
VERTEX
  8
0
  6
CONTINUOUS
 10
6.643560
 20
2.131360
  0
VERTEX
  8
0
  6
CONTINUOUS
 10
7.283320
 20
2.493480
  0
VERTEX
  8
0
  6
CONTINUOUS
 10
7.379680
 20
2.472800
  0
VERTEX
  8
0
  6
CONTINUOUS
 10
6.739920
 20
2.110240
  0
VERTEX
  8
0
  6
CONTINUOUS
 10
6.643560
 20
2.131360
  0
SEQEND
  8
0
  0
SOLID
  8
0
 62
    15
 10
6.739920
 20
2.110240
 11
7.379680
 21
2.472800
 12
6.827920
 22
2.085160
 13
7.467240
 23
2.447280
  0
POLYLINE
  8
0
  6
CONTINUOUS
 66
     1
 40
0.000000
 41
0.000000
  0
VERTEX
  8
0
  6
CONTINUOUS
 10
6.739920
 20
2.110240
  0
VERTEX
  8
0
  6
CONTINUOUS
 10
7.379680
 20
2.472800
  0
VERTEX
  8
0
  6
CONTINUOUS
 10
7.467240
 20
2.447280
  0
VERTEX
  8
0
  6
CONTINUOUS
 10
6.827920
 20
2.085160
  0
VERTEX
  8
0
  6
CONTINUOUS
 10
6.739920
 20
2.110240
  0
SEQEND
  8
0
  0
SOLID
  8
0
 62
    15
 10
6.827920
 20
2.085160
 11
7.467240
 21
2.447280
 12
6.907560
 22
2.055680
 13
7.547320
 23
2.418240
  0
POLYLINE
  8
0
  6
CONTINUOUS
 66
     1
 40
0.000000
 41
0.000000
  0
VERTEX
  8
0
  6
CONTINUOUS
 10
6.827920
 20
2.085160
  0
VERTEX
  8
0
  6
CONTINUOUS
 10
7.467240
 20
2.447280
  0
VERTEX
  8
0
  6
CONTINUOUS
 10
7.547320
 20
2.418240
  0
VERTEX
  8
0
  6
CONTINUOUS
 10
6.907560
 20
2.055680
  0
VERTEX
  8
0
  6
CONTINUOUS
 10
6.827920
 20
2.085160
  0
SEQEND
  8
0
  0
SOLID
  8
0
 62
    15
 10
6.907560
 20
2.055680
 11
7.547320
 21
2.418240
 12
6.979280
 22
2.022680
 13
7.619040
 23
2.385240
  0
POLYLINE
  8
0
  6
CONTINUOUS
 66
     1
 40
0.000000
 41
0.000000
  0
VERTEX
  8
0
  6
CONTINUOUS
 10
6.907560
 20
2.055680
  0
VERTEX
  8
0
  6
CONTINUOUS
 10
7.547320
 20
2.418240
  0
VERTEX
  8
0
  6
CONTINUOUS
 10
7.619040
 20
2.385240
  0
VERTEX
  8
0
  6
CONTINUOUS
 10
6.979280
 20
2.022680
  0
VERTEX
  8
0
  6
CONTINUOUS
 10
6.907560
 20
2.055680
  0
SEQEND
  8
0
  0
SOLID
  8
0
 62
    15
 10
6.808560
 20
0.991320
 11
7.447880
 21
1.353880
 12
6.808560
 22
0.903760
 13
7.447880
 23
1.266320
  0
POLYLINE
  8
0
  6
CONTINUOUS
 66
     1
 40
0.000000
 41
0.000000
  0
VERTEX
  8
0
  6
CONTINUOUS
 10
6.808560
 20
0.991320
  0
VERTEX
  8
0
  6
CONTINUOUS
 10
7.447880
 20
1.353880
  0
VERTEX
  8
0
  6
CONTINUOUS
 10
7.447880
 20
1.266320
  0
VERTEX
  8
0
  6
CONTINUOUS
 10
6.808560
 20
0.903760
  0
VERTEX
  8
0
  6
CONTINUOUS
 10
6.808560
 20
0.991320
  0
SEQEND
  8
0
  0
SOLID
  8
0
 62
    15
 10
7.043520
 20
1.986600
 11
7.682840
 21
2.348720
 12
7.099840
 22
1.947000
 13
7.739600
 23
2.309120
  0
POLYLINE
  8
0
  6
CONTINUOUS
 66
     1
 40
0.000000
 41
0.000000
  0
VERTEX
  8
0
  6
CONTINUOUS
 10
7.043520
 20
1.986600
  0
VERTEX
  8
0
  6
CONTINUOUS
 10
7.682840
 20
2.348720
  0
VERTEX
  8
0
  6
CONTINUOUS
 10
7.739600
 20
2.309120
  0
VERTEX
  8
0
  6
CONTINUOUS
 10
7.099840
 20
1.947000
  0
VERTEX
  8
0
  6
CONTINUOUS
 10
7.043520
 20
1.986600
  0
SEQEND
  8
0
  0
SOLID
  8
0
 62
    15
 10
7.099840
 20
1.947000
 11
7.739600
 21
2.309120
 12
7.148680
 22
1.905200
 13
7.788440
 23
2.267320
  0
POLYLINE
  8
0
  6
CONTINUOUS
 66
     1
 40
0.000000
 41
0.000000
  0
VERTEX
  8
0
  6
CONTINUOUS
 10
7.099840
 20
1.947000
  0
VERTEX
  8
0
  6
CONTINUOUS
 10
7.739600
 20
2.309120
  0
VERTEX
  8
0
  6
CONTINUOUS
 10
7.788440
 20
2.267320
  0
VERTEX
  8
0
  6
CONTINUOUS
 10
7.148680
 20
1.905200
  0
VERTEX
  8
0
  6
CONTINUOUS
 10
7.099840
 20
1.947000
  0
SEQEND
  8
0
  0
SOLID
  8
0
 62
    15
 10
7.148680
 20
1.905200
 11
7.788440
 21
2.267320
 12
7.190920
 22
1.860320
 13
7.830240
 23
2.222880
  0
POLYLINE
  8
0
  6
CONTINUOUS
 66
     1
 40
0.000000
 41
0.000000
  0
VERTEX
  8
0
  6
CONTINUOUS
 10
7.148680
 20
1.905200
  0
VERTEX
  8
0
  6
CONTINUOUS
 10
7.788440
 20
2.267320
  0
VERTEX
  8
0
  6
CONTINUOUS
 10
7.830240
 20
2.222880
  0
VERTEX
  8
0
  6
CONTINUOUS
 10
7.190920
 20
1.860320
  0
VERTEX
  8
0
  6
CONTINUOUS
 10
7.148680
 20
1.905200
  0
SEQEND
  8
0
  0
SOLID
  8
0
 62
    15
 10
7.190920
 20
1.860320
 11
7.830240
 21
2.222880
 12
7.225680
 22
1.814120
 13
7.865000
 23
2.176240
  0
POLYLINE
  8
0
  6
CONTINUOUS
 66
     1
 40
0.000000
 41
0.000000
  0
VERTEX
  8
0
  6
CONTINUOUS
 10
7.190920
 20
1.860320
  0
VERTEX
  8
0
  6
CONTINUOUS
 10
7.830240
 20
2.222880
  0
VERTEX
  8
0
  6
CONTINUOUS
 10
7.865000
 20
2.176240
  0
VERTEX
  8
0
  6
CONTINUOUS
 10
7.225680
 20
1.814120
  0
VERTEX
  8
0
  6
CONTINUOUS
 10
7.190920
 20
1.860320
  0
SEQEND
  8
0
  0
SOLID
  8
0
 62
    15
 10
7.225680
 20
1.814120
 11
7.865000
 21
2.176240
 12
7.253400
 22
1.765720
 13
7.893160
 23
2.128280
  0
POLYLINE
  8
0
  6
CONTINUOUS
 66
     1
 40
0.000000
 41
0.000000
  0
VERTEX
  8
0
  6
CONTINUOUS
 10
7.225680
 20
1.814120
  0
VERTEX
  8
0
  6
CONTINUOUS
 10
7.865000
 20
2.176240
  0
VERTEX
  8
0
  6
CONTINUOUS
 10
7.893160
 20
2.128280
  0
VERTEX
  8
0
  6
CONTINUOUS
 10
7.253400
 20
1.765720
  0
VERTEX
  8
0
  6
CONTINUOUS
 10
7.225680
 20
1.814120
  0
SEQEND
  8
0
  0
SOLID
  8
0
 62
    15
 10
7.253400
 20
1.765720
 11
7.893160
 21
2.128280
 12
7.274960
 22
1.716440
 13
7.914280
 23
2.078560
  0
POLYLINE
  8
0
  6
CONTINUOUS
 66
     1
 40
0.000000
 41
0.000000
  0
VERTEX
  8
0
  6
CONTINUOUS
 10
7.253400
 20
1.765720
  0
VERTEX
  8
0
  6
CONTINUOUS
 10
7.893160
 20
2.128280
  0
VERTEX
  8
0
  6
CONTINUOUS
 10
7.914280
 20
2.078560
  0
VERTEX
  8
0
  6
CONTINUOUS
 10
7.274960
 20
1.716440
  0
VERTEX
  8
0
  6
CONTINUOUS
 10
7.253400
 20
1.765720
  0
SEQEND
  8
0
  0
SOLID
  8
0
 62
    15
 10
7.274960
 20
1.716440
 11
7.914280
 21
2.078560
 12
7.289920
 22
1.665840
 13
7.929240
 23
2.027960
  0
POLYLINE
  8
0
  6
CONTINUOUS
 66
     1
 40
0.000000
 41
0.000000
  0
VERTEX
  8
0
  6
CONTINUOUS
 10
7.274960
 20
1.716440
  0
VERTEX
  8
0
  6
CONTINUOUS
 10
7.914280
 20
2.078560
  0
VERTEX
  8
0
  6
CONTINUOUS
 10
7.929240
 20
2.027960
  0
VERTEX
  8
0
  6
CONTINUOUS
 10
7.289920
 20
1.665840
  0
VERTEX
  8
0
  6
CONTINUOUS
 10
7.274960
 20
1.716440
  0
SEQEND
  8
0
  0
SOLID
  8
0
 62
    15
 10
7.289920
 20
1.665840
 11
7.929240
 21
2.027960
 12
7.300920
 22
1.563320
 13
7.940680
 23
1.925440
  0
POLYLINE
  8
0
  6
CONTINUOUS
 66
     1
 40
0.000000
 41
0.000000
  0
VERTEX
  8
0
  6
CONTINUOUS
 10
7.289920
 20
1.665840
  0
VERTEX
  8
0
  6
CONTINUOUS
 10
7.929240
 20
2.027960
  0
VERTEX
  8
0
  6
CONTINUOUS
 10
7.940680
 20
1.925440
  0
VERTEX
  8
0
  6
CONTINUOUS
 10
7.300920
 20
1.563320
  0
VERTEX
  8
0
  6
CONTINUOUS
 10
7.289920
 20
1.665840
  0
SEQEND
  8
0
  0
SOLID
  8
0
 62
    15
 10
7.300920
 20
1.563320
 11
7.940680
 21
1.925440
 12
7.289040
 22
1.460800
 13
7.928800
 23
1.822920
  0
POLYLINE
  8
0
  6
CONTINUOUS
 66
     1
 40
0.000000
 41
0.000000
  0
VERTEX
  8
0
  6
CONTINUOUS
 10
7.300920
 20
1.563320
  0
VERTEX
  8
0
  6
CONTINUOUS
 10
7.940680
 20
1.925440
  0
VERTEX
  8
0
  6
CONTINUOUS
 10
7.928800
 20
1.822920
  0
VERTEX
  8
0
  6
CONTINUOUS
 10
7.289040
 20
1.460800
  0
VERTEX
  8
0
  6
CONTINUOUS
 10
7.300920
 20
1.563320
  0
SEQEND
  8
0
  0
SOLID
  8
0
 62
    15
 10
7.289040
 20
1.460800
 11
7.928800
 21
1.822920
 12
7.254720
 22
1.360920
 13
7.894480
 23
1.723040
  0
POLYLINE
  8
0
  6
CONTINUOUS
 66
     1
 40
0.000000
 41
0.000000
  0
VERTEX
  8
0
  6
CONTINUOUS
 10
7.289040
 20
1.460800
  0
VERTEX
  8
0
  6
CONTINUOUS
 10
7.928800
 20
1.822920
  0
VERTEX
  8
0
  6
CONTINUOUS
 10
7.894480
 20
1.723040
  0
VERTEX
  8
0
  6
CONTINUOUS
 10
7.254720
 20
1.360920
  0
VERTEX
  8
0
  6
CONTINUOUS
 10
7.289040
 20
1.460800
  0
SEQEND
  8
0
  0
SOLID
  8
0
 62
    15
 10
7.254720
 20
1.360920
 11
7.894480
 21
1.723040
 12
7.200600
 22
1.266320
 13
7.840360
 23
1.628440
  0
POLYLINE
  8
0
  6
CONTINUOUS
 66
     1
 40
0.000000
 41
0.000000
  0
VERTEX
  8
0
  6
CONTINUOUS
 10
7.254720
 20
1.360920
  0
VERTEX
  8
0
  6
CONTINUOUS
 10
7.894480
 20
1.723040
  0
VERTEX
  8
0
  6
CONTINUOUS
 10
7.840360
 20
1.628440
  0
VERTEX
  8
0
  6
CONTINUOUS
 10
7.200600
 20
1.266320
  0
VERTEX
  8
0
  6
CONTINUOUS
 10
7.254720
 20
1.360920
  0
SEQEND
  8
0
  0
SOLID
  8
0
 62
    15
 10
7.200600
 20
1.266320
 11
7.840360
 21
1.628440
 12
7.127560
 22
1.179640
 13
7.766880
 23
1.541760
  0
POLYLINE
  8
0
  6
CONTINUOUS
 66
     1
 40
0.000000
 41
0.000000
  0
VERTEX
  8
0
  6
CONTINUOUS
 10
7.200600
 20
1.266320
  0
VERTEX
  8
0
  6
CONTINUOUS
 10
7.840360
 20
1.628440
  0
VERTEX
  8
0
  6
CONTINUOUS
 10
7.766880
 20
1.541760
  0
VERTEX
  8
0
  6
CONTINUOUS
 10
7.127560
 20
1.179640
  0
VERTEX
  8
0
  6
CONTINUOUS
 10
7.200600
 20
1.266320
  0
SEQEND
  8
0
  0
SOLID
  8
0
 62
    15
 10
7.036920
 20
1.103960
 11
7.676680
 21
1.466080
 12
6.930880
 22
1.041920
 13
7.570200
 23
1.404040
  0
POLYLINE
  8
0
  6
CONTINUOUS
 66
     1
 40
0.000000
 41
0.000000
  0
VERTEX
  8
0
  6
CONTINUOUS
 10
7.036920
 20
1.103960
  0
VERTEX
  8
0
  6
CONTINUOUS
 10
7.676680
 20
1.466080
  0
VERTEX
  8
0
  6
CONTINUOUS
 10
7.570200
 20
1.404040
  0
VERTEX
  8
0
  6
CONTINUOUS
 10
6.930880
 20
1.041920
  0
VERTEX
  8
0
  6
CONTINUOUS
 10
7.036920
 20
1.103960
  0
SEQEND
  8
0
  0
SOLID
  8
0
 62
    15
 10
6.810320
 20
0.995720
 11
7.450080
 21
1.357840
 12
6.808560
 22
0.991320
 13
7.447880
 23
1.353880
  0
POLYLINE
  8
0
  6
CONTINUOUS
 66
     1
 40
0.000000
 41
0.000000
  0
VERTEX
  8
0
  6
CONTINUOUS
 10
6.810320
 20
0.995720
  0
VERTEX
  8
0
  6
CONTINUOUS
 10
7.450080
 20
1.357840
  0
VERTEX
  8
0
  6
CONTINUOUS
 10
7.447880
 20
1.353880
  0
VERTEX
  8
0
  6
CONTINUOUS
 10
6.808560
 20
0.991320
  0
VERTEX
  8
0
  6
CONTINUOUS
 10
6.810320
 20
0.995720
  0
SEQEND
  8
0
  0
SOLID
  8
0
 62
    15
 10
7.127560
 20
1.179640
 11
7.766880
 21
1.541760
 12
7.036920
 22
1.103960
 13
7.676680
 23
1.466080
  0
POLYLINE
  8
0
  6
CONTINUOUS
 66
     1
 40
0.000000
 41
0.000000
  0
VERTEX
  8
0
  6
CONTINUOUS
 10
7.127560
 20
1.179640
  0
VERTEX
  8
0
  6
CONTINUOUS
 10
7.766880
 20
1.541760
  0
VERTEX
  8
0
  6
CONTINUOUS
 10
7.676680
 20
1.466080
  0
VERTEX
  8
0
  6
CONTINUOUS
 10
7.036920
 20
1.103960
  0
VERTEX
  8
0
  6
CONTINUOUS
 10
7.127560
 20
1.179640
  0
SEQEND
  8
0
  0
POLYLINE
  8
0
  6
CONTINUOUS
 66
     1
 40
0.000000
 41
0.000000
  0
VERTEX
  8
0
  6
CONTINUOUS
 10
6.808560
 20
0.991320
  0
VERTEX
  8
0
  6
CONTINUOUS
 10
6.808560
 20
0.903760
  0
VERTEX
  8
0
  6
CONTINUOUS
 10
5.531240
 20
0.903760
  0
VERTEX
  8
0
  6
CONTINUOUS
 10
5.531240
 20
0.991320
  0
VERTEX
  8
0
  6
CONTINUOUS
 10
5.529040
 20
0.995720
  0
VERTEX
  8
0
  6
CONTINUOUS
 10
5.408920
 20
1.041920
  0
VERTEX
  8
0
  6
CONTINUOUS
 10
5.302440
 20
1.103960
  0
VERTEX
  8
0
  6
CONTINUOUS
 10
5.212240
 20
1.179640
  0
VERTEX
  8
0
  6
CONTINUOUS
 10
5.138760
 20
1.266320
  0
VERTEX
  8
0
  6
CONTINUOUS
 10
5.084640
 20
1.360920
  0
VERTEX
  8
0
  6
CONTINUOUS
 10
5.050760
 20
1.460800
  0
VERTEX
  8
0
  6
CONTINUOUS
 10
5.038440
 20
1.563320
  0
VERTEX
  8
0
  6
CONTINUOUS
 10
5.049880
 20
1.665840
  0
VERTEX
  8
0
  6
CONTINUOUS
 10
5.064840
 20
1.716440
  0
VERTEX
  8
0
  6
CONTINUOUS
 10
5.085960
 20
1.765720
  0
VERTEX
  8
0
  6
CONTINUOUS
 10
5.114120
 20
1.814120
  0
VERTEX
  8
0
  6
CONTINUOUS
 10
5.148880
 20
1.860320
  0
VERTEX
  8
0
  6
CONTINUOUS
 10
5.190680
 20
1.905200
  0
VERTEX
  8
0
  6
CONTINUOUS
 10
5.239520
 20
1.947000
  0
VERTEX
  8
0
  6
CONTINUOUS
 10
5.296280
 20
1.986600
  0
VERTEX
  8
0
  6
CONTINUOUS
 10
5.360080
 20
2.022680
  0
VERTEX
  8
0
  6
CONTINUOUS
 10
5.431800
 20
2.055680
  0
VERTEX
  8
0
  6
CONTINUOUS
 10
5.511880
 20
2.085160
  0
VERTEX
  8
0
  6
CONTINUOUS
 10
5.599440
 20
2.110240
  0
VERTEX
  8
0
  6
CONTINUOUS
 10
5.695800
 20
2.131360
  0
VERTEX
  8
0
  6
CONTINUOUS
 10
5.800960
 20
2.147640
  0
VERTEX
  8
0
  6
CONTINUOUS
 10
5.914480
 20
2.158640
  0
VERTEX
  8
0
  6
CONTINUOUS
 10
6.036800
 20
2.164360
  0
VERTEX
  8
0
  6
CONTINUOUS
 10
6.302560
 20
2.164360
  0
VERTEX
  8
0
  6
CONTINUOUS
 10
6.424880
 20
2.158640
  0
VERTEX
  8
0
  6
CONTINUOUS
 10
6.538840
 20
2.147640
  0
VERTEX
  8
0
  6
CONTINUOUS
 10
6.643560
 20
2.131360
  0
VERTEX
  8
0
  6
CONTINUOUS
 10
6.739920
 20
2.110240
  0
VERTEX
  8
0
  6
CONTINUOUS
 10
6.827920
 20
2.085160
  0
VERTEX
  8
0
  6
CONTINUOUS
 10
6.907560
 20
2.055680
  0
VERTEX
  8
0
  6
CONTINUOUS
 10
6.979280
 20
2.022680
  0
VERTEX
  8
0
  6
CONTINUOUS
 10
7.043520
 20
1.986600
  0
VERTEX
  8
0
  6
CONTINUOUS
 10
7.099840
 20
1.947000
  0
VERTEX
  8
0
  6
CONTINUOUS
 10
7.148680
 20
1.905200
  0
VERTEX
  8
0
  6
CONTINUOUS
 10
7.190920
 20
1.860320
  0
VERTEX
  8
0
  6
CONTINUOUS
 10
7.225680
 20
1.814120
  0
VERTEX
  8
0
  6
CONTINUOUS
 10
7.253400
 20
1.765720
  0
VERTEX
  8
0
  6
CONTINUOUS
 10
7.274960
 20
1.716440
  0
VERTEX
  8
0
  6
CONTINUOUS
 10
7.289920
 20
1.665840
  0
VERTEX
  8
0
  6
CONTINUOUS
 10
7.300920
 20
1.563320
  0
VERTEX
  8
0
  6
CONTINUOUS
 10
7.289040
 20
1.460800
  0
VERTEX
  8
0
  6
CONTINUOUS
 10
7.254720
 20
1.360920
  0
VERTEX
  8
0
  6
CONTINUOUS
 10
7.200600
 20
1.266320
  0
VERTEX
  8
0
  6
CONTINUOUS
 10
7.127560
 20
1.179640
  0
VERTEX
  8
0
  6
CONTINUOUS
 10
7.036920
 20
1.103960
  0
VERTEX
  8
0
  6
CONTINUOUS
 10
6.930880
 20
1.041920
  0
VERTEX
  8
0
  6
CONTINUOUS
 10
6.810320
 20
0.995720
  0
VERTEX
  8
0
  6
CONTINUOUS
 10
6.808560
 20
0.991320
  0
SEQEND
  8
0
  0
TEXT
  8
0
 10
6.193440
 20
0.650320
 40
0.138113
  1
BA  326
 41
1.000000
  7
SN0
 71
     0
 72
     5
 11
6.783637
 21
0.650320
  0
TEXT
  8
0
 10
5.963760
 20
0.458480
 40
0.138113
  1
1-1/4" x 2-1/4"
 41
1.000000
  7
SN0
 71
     0
 72
     5
 11
7.012177
 21
0.458480
  0
ENDSEC
  0
EOF
