  0
SECTION
  2
HEADER
  9
$ACADVER
  1
AC1006
  9
$EXTMIN
 10
6.682280
 20
0.539880
  9
$EXTMAX
 10
8.129000
 20
3.603160
  9
$LTSCALE
 40
0.044000
  9
$PDMODE
 70
    35
  9
$PDSIZE
 40
0.035200
  0
ENDSEC
  0
SECTION
  2
TABLES
  0
TABLE
  2
LTYPE
 70
     9
  0
LTYPE
  2
CONTINUOUS
 70
    64
  3
Solid line
 72
    65
 73
     0
 40
0.000000
  0
LTYPE
  2
DASHED
 70
    64
  3
__ __ __ __ __ __ __ __ __ __ __ __ __ __ __
 72
    65
 73
     2
 40
0.000330
 49
0.000220
 49
-0.000110
  0
LTYPE
  2
HIDDEN
 70
    64
  3
 _ _ _ _ _ _ _ _ _ _ _ _ _ _ _ _ _ _ _ _ _ _
 72
    65
 73
     2
 40
0.000165
 49
0.000110
 49
-0.000055
  0
LTYPE
  2
CENTER
 70
    64
  3
____ _ ____ _ ____ _ ____ _ ____ _ ____ _ ____
 72
    65
 73
     4
 40
0.000880
 49
0.000550
 49
-0.000110
 49
0.000110
 49
-0.000110
  0
LTYPE
  2
PHANTOM
 70
    64
  3
_____ _ _ _____ _ _ _____ _ _ _____ _ _ ____
 72
    65
 73
     6
 40
0.001100
 49
0.000550
 49
-0.000110
 49
0.000110
 49
-0.000110
 49
0.000110
 49
-0.000110
  0
LTYPE
  2
DOT
 70
    64
  3
...............................................
 72
    65
 73
     2
 40
0.000110
 49
0.000000
 49
-0.000110
  0
LTYPE
  2
DASHDOT
 70
    64
  3
__ . __ . __ . __ . __ . __ . __ . __ . __ . __
 72
    65
 73
     4
 40
0.000440
 49
0.000220
 49
-0.000110
 49
0.000000
 49
-0.000110
  0
LTYPE
  2
BORDER
 70
    64
  3
__ __ . __ __ . __ __ . __ __ . __ __ . __ __
 72
    65
 73
     6
 40
0.000770
 49
0.000220
 49
-0.000110
 49
0.000220
 49
-0.000110
 49
0.000000
 49
-0.000110
  0
LTYPE
  2
DIVIDE
 70
    64
  3
__ . . __ . . __ . . __ . . __ . . __ . . __
 72
    65
 73
     6
 40
0.000550
 49
0.000220
 49
-0.000110
 49
0.000000
 49
-0.000110
 49
0.000000
 49
-0.000110
  0
LTYPE
  2
DOTDOT
 70
    64
  3
 . .  . .  . .  . .  . .  . . 
 72
    65
 73
     5
 40
0.000242
 49
-0.000110
 49
0.000000
 49
-0.000110
 49
0.000000
 49
-0.000110
  0
ENDTAB
  0
TABLE
  2
STYLE
 70
     2
  0
STYLE
 70
     0
  2
SN0
 40
0.000000
 41
0.000440
 50
0.000000
 71
     0
 42
0.000000
  3
ROMAND
  0
STYLE
 70
    68
  2
SV0
 40
0.000000
 41
0.000440
 50
0.000000
 71
     0
 42
0.000000
  3
ROMAND
  0
ENDTAB
  0
TABLE
  2
LAYER
 70
     3
  0
LAYER
  2
FOREGROUND
 70
    64
 62
     7
  6
CONTINUOUS
  0
LAYER
  2
BACKGROUND
 70
    65
 62
    -7
  6
CONTINUOUS
  0
LAYER
  2
0
 70
    64
 62
     7
  6
CONTINUOUS
  0
ENDTAB
  0
ENDSEC
  0
SECTION
  2
ENTITIES
  0
POLYLINE
  8
FOREGROUND
  6
CONTINUOUS
 66
     1
 40
0.000000
 41
0.000000
  0
VERTEX
  8
FOREGROUND
  6
CONTINUOUS
 10
0.000000
 20
4.143040
  0
VERTEX
  8
FOREGROUND
  6
CONTINUOUS
 10
8.499920
 20
4.143040
  0
VERTEX
  8
FOREGROUND
  6
CONTINUOUS
 10
8.499920
 20
-6.856960
  0
VERTEX
  8
FOREGROUND
  6
CONTINUOUS
 10
0.000000
 20
-6.856960
  0
VERTEX
  8
FOREGROUND
  6
CONTINUOUS
 10
0.000000
 20
4.143040
  0
SEQEND
  8
0
  0
POLYLINE
  8
FOREGROUND
  6
CONTINUOUS
 66
     1
 40
0.000000
 41
0.000000
  0
VERTEX
  8
FOREGROUND
  6
CONTINUOUS
 10
0.000000
 20
4.143040
  0
VERTEX
  8
FOREGROUND
  6
CONTINUOUS
 10
8.499920
 20
4.143040
  0
VERTEX
  8
FOREGROUND
  6
CONTINUOUS
 10
8.499920
 20
-6.856960
  0
VERTEX
  8
FOREGROUND
  6
CONTINUOUS
 10
0.000000
 20
-6.856960
  0
VERTEX
  8
FOREGROUND
  6
CONTINUOUS
 10
0.000000
 20
4.143040
  0
SEQEND
  8
0
  0
POLYLINE
  8
0
  6
CONTINUOUS
 66
     1
 40
0.014080
 41
0.014080
  0
VERTEX
  8
0
  6
CONTINUOUS
 10
6.812960
 20
3.435080
  0
VERTEX
  8
0
  6
CONTINUOUS
 10
6.812960
 20
3.329040
  0
VERTEX
  8
0
  6
CONTINUOUS
 10
6.828360
 20
3.327280
  0
VERTEX
  8
0
  6
CONTINUOUS
 10
6.842880
 20
3.322440
  0
VERTEX
  8
0
  6
CONTINUOUS
 10
6.862240
 20
3.310120
  0
VERTEX
  8
0
  6
CONTINUOUS
 10
6.873240
 20
3.299560
  0
VERTEX
  8
0
  6
CONTINUOUS
 10
6.885120
 20
3.279760
  0
VERTEX
  8
0
  6
CONTINUOUS
 10
6.889960
 20
3.265240
  0
VERTEX
  8
0
  6
CONTINUOUS
 10
6.891720
 20
3.249840
  0
VERTEX
  8
0
  6
CONTINUOUS
 10
6.889960
 20
3.234440
  0
VERTEX
  8
0
  6
CONTINUOUS
 10
6.885120
 20
3.219920
  0
VERTEX
  8
0
  6
CONTINUOUS
 10
6.873240
 20
3.200120
  0
VERTEX
  8
0
  6
CONTINUOUS
 10
6.856080
 20
3.184720
  0
VERTEX
  8
0
  6
CONTINUOUS
 10
6.835400
 20
3.174160
  0
VERTEX
  8
0
  6
CONTINUOUS
 10
6.820880
 20
3.171080
  0
VERTEX
  8
0
  6
CONTINUOUS
 10
6.812960
 20
3.170640
  0
VERTEX
  8
0
  6
CONTINUOUS
 10
6.812960
 20
3.062400
  0
VERTEX
  8
0
  6
CONTINUOUS
 10
6.828360
 20
3.060640
  0
VERTEX
  8
0
  6
CONTINUOUS
 10
6.849480
 20
3.052280
  0
VERTEX
  8
0
  6
CONTINUOUS
 10
6.867960
 20
3.038200
  0
VERTEX
  8
0
  6
CONTINUOUS
 10
6.881600
 20
3.019720
  0
VERTEX
  8
0
  6
CONTINUOUS
 10
6.888200
 20
3.006080
  0
VERTEX
  8
0
  6
CONTINUOUS
 10
6.891280
 20
2.991120
  0
VERTEX
  8
0
  6
CONTINUOUS
 10
6.891280
 20
2.975280
  0
VERTEX
  8
0
  6
CONTINUOUS
 10
6.888200
 20
2.960320
  0
VERTEX
  8
0
  6
CONTINUOUS
 10
6.877640
 20
2.939640
  0
VERTEX
  8
0
  6
CONTINUOUS
 10
6.867960
 20
2.927760
  0
VERTEX
  8
0
  6
CONTINUOUS
 10
6.849480
 20
2.914120
  0
VERTEX
  8
0
  6
CONTINUOUS
 10
6.835400
 20
2.907520
  0
VERTEX
  8
0
  6
CONTINUOUS
 10
6.820880
 20
2.904440
  0
VERTEX
  8
0
  6
CONTINUOUS
 10
6.812960
 20
2.904000
  0
VERTEX
  8
0
  6
CONTINUOUS
 10
6.812960
 20
2.791360
  0
VERTEX
  8
0
  6
CONTINUOUS
 10
6.828360
 20
2.789600
  0
VERTEX
  8
0
  6
CONTINUOUS
 10
6.842880
 20
2.784760
  0
VERTEX
  8
0
  6
CONTINUOUS
 10
6.862240
 20
2.772440
  0
VERTEX
  8
0
  6
CONTINUOUS
 10
6.873240
 20
2.761880
  0
VERTEX
  8
0
  6
CONTINUOUS
 10
6.885120
 20
2.742080
  0
VERTEX
  8
0
  6
CONTINUOUS
 10
6.889960
 20
2.727560
  0
VERTEX
  8
0
  6
CONTINUOUS
 10
6.891720
 20
2.712160
  0
VERTEX
  8
0
  6
CONTINUOUS
 10
6.889960
 20
2.696760
  0
VERTEX
  8
0
  6
CONTINUOUS
 10
6.885120
 20
2.682240
  0
VERTEX
  8
0
  6
CONTINUOUS
 10
6.873240
 20
2.662440
  0
VERTEX
  8
0
  6
CONTINUOUS
 10
6.856080
 20
2.647040
  0
VERTEX
  8
0
  6
CONTINUOUS
 10
6.835400
 20
2.636480
  0
VERTEX
  8
0
  6
CONTINUOUS
 10
6.820880
 20
2.633400
  0
VERTEX
  8
0
  6
CONTINUOUS
 10
6.812960
 20
2.632960
  0
VERTEX
  8
0
  6
CONTINUOUS
 10
6.812960
 20
2.541440
  0
VERTEX
  8
0
  6
CONTINUOUS
 10
6.689760
 20
2.541440
  0
VERTEX
  8
0
  6
CONTINUOUS
 10
6.689760
 20
3.595680
  0
VERTEX
  8
0
  6
CONTINUOUS
 10
6.820880
 20
3.595240
  0
VERTEX
  8
0
  6
CONTINUOUS
 10
6.835400
 20
3.592160
  0
VERTEX
  8
0
  6
CONTINUOUS
 10
6.856080
 20
3.581600
  0
VERTEX
  8
0
  6
CONTINUOUS
 10
6.873240
 20
3.566200
  0
VERTEX
  8
0
  6
CONTINUOUS
 10
6.885120
 20
3.546400
  0
VERTEX
  8
0
  6
CONTINUOUS
 10
6.889960
 20
3.531880
  0
VERTEX
  8
0
  6
CONTINUOUS
 10
6.891720
 20
3.516480
  0
VERTEX
  8
0
  6
CONTINUOUS
 10
6.889960
 20
3.501080
  0
VERTEX
  8
0
  6
CONTINUOUS
 10
6.885120
 20
3.486560
  0
VERTEX
  8
0
  6
CONTINUOUS
 10
6.873240
 20
3.466760
  0
VERTEX
  8
0
  6
CONTINUOUS
 10
6.856080
 20
3.451360
  0
VERTEX
  8
0
  6
CONTINUOUS
 10
6.835400
 20
3.440800
  0
VERTEX
  8
0
  6
CONTINUOUS
 10
6.820880
 20
3.437720
  0
VERTEX
  8
0
  6
CONTINUOUS
 10
6.812960
 20
3.437280
  0
VERTEX
  8
0
  6
CONTINUOUS
 10
6.812960
 20
3.435080
  0
SEQEND
  8
0
  0
SOLID
  8
0
 62
    15
 10
7.173760
 20
1.233320
 11
7.817480
 21
1.608200
 12
7.189160
 22
1.232000
 13
7.832880
 23
1.606440
  0
POLYLINE
  8
0
  6
CONTINUOUS
 66
     1
 40
0.000000
 41
0.000000
  0
VERTEX
  8
0
  6
CONTINUOUS
 10
7.173760
 20
1.233320
  0
VERTEX
  8
0
  6
CONTINUOUS
 10
7.817480
 20
1.608200
  0
VERTEX
  8
0
  6
CONTINUOUS
 10
7.832880
 20
1.606440
  0
VERTEX
  8
0
  6
CONTINUOUS
 10
7.189160
 20
1.232000
  0
VERTEX
  8
0
  6
CONTINUOUS
 10
7.173760
 20
1.233320
  0
SEQEND
  8
0
  0
SOLID
  8
0
 62
    15
 10
7.173760
 20
1.771000
 11
7.817480
 21
2.145880
 12
7.189160
 22
1.769240
 13
7.832880
 23
2.144120
  0
POLYLINE
  8
0
  6
CONTINUOUS
 66
     1
 40
0.000000
 41
0.000000
  0
VERTEX
  8
0
  6
CONTINUOUS
 10
7.173760
 20
1.771000
  0
VERTEX
  8
0
  6
CONTINUOUS
 10
7.817480
 20
2.145880
  0
VERTEX
  8
0
  6
CONTINUOUS
 10
7.832880
 20
2.144120
  0
VERTEX
  8
0
  6
CONTINUOUS
 10
7.189160
 20
1.769240
  0
VERTEX
  8
0
  6
CONTINUOUS
 10
7.173760
 20
1.771000
  0
SEQEND
  8
0
  0
SOLID
  8
0
 62
    15
 10
7.189160
 20
1.769240
 11
7.832880
 21
2.144120
 12
7.203680
 22
1.764400
 13
7.847400
 23
2.139280
  0
POLYLINE
  8
0
  6
CONTINUOUS
 66
     1
 40
0.000000
 41
0.000000
  0
VERTEX
  8
0
  6
CONTINUOUS
 10
7.189160
 20
1.769240
  0
VERTEX
  8
0
  6
CONTINUOUS
 10
7.832880
 20
2.144120
  0
VERTEX
  8
0
  6
CONTINUOUS
 10
7.847400
 20
2.139280
  0
VERTEX
  8
0
  6
CONTINUOUS
 10
7.203680
 20
1.764400
  0
VERTEX
  8
0
  6
CONTINUOUS
 10
7.189160
 20
1.769240
  0
SEQEND
  8
0
  0
SOLID
  8
0
 62
    15
 10
7.203680
 20
1.764400
 11
7.847400
 21
2.139280
 12
7.216880
 22
1.756920
 13
7.860600
 23
2.131800
  0
POLYLINE
  8
0
  6
CONTINUOUS
 66
     1
 40
0.000000
 41
0.000000
  0
VERTEX
  8
0
  6
CONTINUOUS
 10
7.203680
 20
1.764400
  0
VERTEX
  8
0
  6
CONTINUOUS
 10
7.847400
 20
2.139280
  0
VERTEX
  8
0
  6
CONTINUOUS
 10
7.860600
 20
2.131800
  0
VERTEX
  8
0
  6
CONTINUOUS
 10
7.216880
 20
1.756920
  0
VERTEX
  8
0
  6
CONTINUOUS
 10
7.203680
 20
1.764400
  0
SEQEND
  8
0
  0
SOLID
  8
0
 62
    15
 10
7.216880
 20
1.756920
 11
7.860600
 21
2.131800
 12
7.228760
 22
1.747240
 13
7.872480
 23
2.121680
  0
POLYLINE
  8
0
  6
CONTINUOUS
 66
     1
 40
0.000000
 41
0.000000
  0
VERTEX
  8
0
  6
CONTINUOUS
 10
7.216880
 20
1.756920
  0
VERTEX
  8
0
  6
CONTINUOUS
 10
7.860600
 20
2.131800
  0
VERTEX
  8
0
  6
CONTINUOUS
 10
7.872480
 20
2.121680
  0
VERTEX
  8
0
  6
CONTINUOUS
 10
7.228760
 20
1.747240
  0
VERTEX
  8
0
  6
CONTINUOUS
 10
7.216880
 20
1.756920
  0
SEQEND
  8
0
  0
SOLID
  8
0
 62
     7
 10
7.228760
 20
1.747240
 11
7.872480
 21
2.121680
 12
7.238880
 22
1.735360
 13
7.882600
 23
2.109800
  0
POLYLINE
  8
0
  6
CONTINUOUS
 66
     1
 40
0.000000
 41
0.000000
  0
VERTEX
  8
0
  6
CONTINUOUS
 10
7.228760
 20
1.747240
  0
VERTEX
  8
0
  6
CONTINUOUS
 10
7.872480
 20
2.121680
  0
VERTEX
  8
0
  6
CONTINUOUS
 10
7.882600
 20
2.109800
  0
VERTEX
  8
0
  6
CONTINUOUS
 10
7.238880
 20
1.735360
  0
VERTEX
  8
0
  6
CONTINUOUS
 10
7.228760
 20
1.747240
  0
SEQEND
  8
0
  0
SOLID
  8
0
 62
     7
 10
7.238880
 20
1.735360
 11
7.882600
 21
2.109800
 12
7.246360
 22
1.721720
 13
7.890080
 23
2.096600
  0
POLYLINE
  8
0
  6
CONTINUOUS
 66
     1
 40
0.000000
 41
0.000000
  0
VERTEX
  8
0
  6
CONTINUOUS
 10
7.238880
 20
1.735360
  0
VERTEX
  8
0
  6
CONTINUOUS
 10
7.882600
 20
2.109800
  0
VERTEX
  8
0
  6
CONTINUOUS
 10
7.890080
 20
2.096600
  0
VERTEX
  8
0
  6
CONTINUOUS
 10
7.246360
 20
1.721720
  0
VERTEX
  8
0
  6
CONTINUOUS
 10
7.238880
 20
1.735360
  0
SEQEND
  8
0
  0
SOLID
  8
0
 62
     7
 10
7.246360
 20
1.721720
 11
7.890080
 21
2.096600
 12
7.251200
 22
1.707200
 13
7.894920
 23
2.082080
  0
POLYLINE
  8
0
  6
CONTINUOUS
 66
     1
 40
0.000000
 41
0.000000
  0
VERTEX
  8
0
  6
CONTINUOUS
 10
7.246360
 20
1.721720
  0
VERTEX
  8
0
  6
CONTINUOUS
 10
7.890080
 20
2.096600
  0
VERTEX
  8
0
  6
CONTINUOUS
 10
7.894920
 20
2.082080
  0
VERTEX
  8
0
  6
CONTINUOUS
 10
7.251200
 20
1.707200
  0
VERTEX
  8
0
  6
CONTINUOUS
 10
7.246360
 20
1.721720
  0
SEQEND
  8
0
  0
SOLID
  8
0
 62
     7
 10
7.251200
 20
1.707200
 11
7.894920
 21
2.082080
 12
7.252960
 22
1.691800
 13
7.896240
 23
2.066680
  0
POLYLINE
  8
0
  6
CONTINUOUS
 66
     1
 40
0.000000
 41
0.000000
  0
VERTEX
  8
0
  6
CONTINUOUS
 10
7.251200
 20
1.707200
  0
VERTEX
  8
0
  6
CONTINUOUS
 10
7.894920
 20
2.082080
  0
VERTEX
  8
0
  6
CONTINUOUS
 10
7.896240
 20
2.066680
  0
VERTEX
  8
0
  6
CONTINUOUS
 10
7.252960
 20
1.691800
  0
VERTEX
  8
0
  6
CONTINUOUS
 10
7.251200
 20
1.707200
  0
SEQEND
  8
0
  0
SOLID
  8
0
 62
    15
 10
7.252960
 20
1.691800
 11
7.896240
 21
2.066680
 12
7.251200
 22
1.676400
 13
7.894920
 23
2.051280
  0
POLYLINE
  8
0
  6
CONTINUOUS
 66
     1
 40
0.000000
 41
0.000000
  0
VERTEX
  8
0
  6
CONTINUOUS
 10
7.252960
 20
1.691800
  0
VERTEX
  8
0
  6
CONTINUOUS
 10
7.896240
 20
2.066680
  0
VERTEX
  8
0
  6
CONTINUOUS
 10
7.894920
 20
2.051280
  0
VERTEX
  8
0
  6
CONTINUOUS
 10
7.251200
 20
1.676400
  0
VERTEX
  8
0
  6
CONTINUOUS
 10
7.252960
 20
1.691800
  0
SEQEND
  8
0
  0
SOLID
  8
0
 62
    15
 10
7.251200
 20
1.676400
 11
7.894920
 21
2.051280
 12
7.246360
 22
1.661880
 13
7.890080
 23
2.036760
  0
POLYLINE
  8
0
  6
CONTINUOUS
 66
     1
 40
0.000000
 41
0.000000
  0
VERTEX
  8
0
  6
CONTINUOUS
 10
7.251200
 20
1.676400
  0
VERTEX
  8
0
  6
CONTINUOUS
 10
7.894920
 20
2.051280
  0
VERTEX
  8
0
  6
CONTINUOUS
 10
7.890080
 20
2.036760
  0
VERTEX
  8
0
  6
CONTINUOUS
 10
7.246360
 20
1.661880
  0
VERTEX
  8
0
  6
CONTINUOUS
 10
7.251200
 20
1.676400
  0
SEQEND
  8
0
  0
SOLID
  8
0
 62
     7
 10
7.173760
 20
1.612600
 11
7.817480
 21
1.987480
 12
7.173760
 22
1.504360
 13
7.817480
 23
1.879240
  0
POLYLINE
  8
0
  6
CONTINUOUS
 66
     1
 40
0.000000
 41
0.000000
  0
VERTEX
  8
0
  6
CONTINUOUS
 10
7.173760
 20
1.612600
  0
VERTEX
  8
0
  6
CONTINUOUS
 10
7.817480
 20
1.987480
  0
VERTEX
  8
0
  6
CONTINUOUS
 10
7.817480
 20
1.879240
  0
VERTEX
  8
0
  6
CONTINUOUS
 10
7.173760
 20
1.504360
  0
VERTEX
  8
0
  6
CONTINUOUS
 10
7.173760
 20
1.612600
  0
SEQEND
  8
0
  0
SOLID
  8
0
 62
    15
 10
7.238880
 20
1.648680
 11
7.882600
 21
2.023120
 12
7.228760
 22
1.636800
 13
7.872480
 23
2.011240
  0
POLYLINE
  8
0
  6
CONTINUOUS
 66
     1
 40
0.000000
 41
0.000000
  0
VERTEX
  8
0
  6
CONTINUOUS
 10
7.238880
 20
1.648680
  0
VERTEX
  8
0
  6
CONTINUOUS
 10
7.882600
 20
2.023120
  0
VERTEX
  8
0
  6
CONTINUOUS
 10
7.872480
 20
2.011240
  0
VERTEX
  8
0
  6
CONTINUOUS
 10
7.228760
 20
1.636800
  0
VERTEX
  8
0
  6
CONTINUOUS
 10
7.238880
 20
1.648680
  0
SEQEND
  8
0
  0
SOLID
  8
0
 62
    15
 10
7.228760
 20
1.636800
 11
7.872480
 21
2.011240
 12
7.216880
 22
1.626680
 13
7.860600
 23
2.001560
  0
POLYLINE
  8
0
  6
CONTINUOUS
 66
     1
 40
0.000000
 41
0.000000
  0
VERTEX
  8
0
  6
CONTINUOUS
 10
7.228760
 20
1.636800
  0
VERTEX
  8
0
  6
CONTINUOUS
 10
7.872480
 20
2.011240
  0
VERTEX
  8
0
  6
CONTINUOUS
 10
7.860600
 20
2.001560
  0
VERTEX
  8
0
  6
CONTINUOUS
 10
7.216880
 20
1.626680
  0
VERTEX
  8
0
  6
CONTINUOUS
 10
7.228760
 20
1.636800
  0
SEQEND
  8
0
  0
SOLID
  8
0
 62
    15
 10
7.246360
 20
1.661880
 11
7.890080
 21
2.036760
 12
7.238880
 22
1.648680
 13
7.882600
 23
2.023120
  0
POLYLINE
  8
0
  6
CONTINUOUS
 66
     1
 40
0.000000
 41
0.000000
  0
VERTEX
  8
0
  6
CONTINUOUS
 10
7.246360
 20
1.661880
  0
VERTEX
  8
0
  6
CONTINUOUS
 10
7.890080
 20
2.036760
  0
VERTEX
  8
0
  6
CONTINUOUS
 10
7.882600
 20
2.023120
  0
VERTEX
  8
0
  6
CONTINUOUS
 10
7.238880
 20
1.648680
  0
VERTEX
  8
0
  6
CONTINUOUS
 10
7.246360
 20
1.661880
  0
SEQEND
  8
0
  0
SOLID
  8
0
 62
    15
 10
7.173760
 20
1.504360
 11
7.817480
 21
1.879240
 12
7.189160
 22
1.502600
 13
7.832880
 23
1.877480
  0
POLYLINE
  8
0
  6
CONTINUOUS
 66
     1
 40
0.000000
 41
0.000000
  0
VERTEX
  8
0
  6
CONTINUOUS
 10
7.173760
 20
1.504360
  0
VERTEX
  8
0
  6
CONTINUOUS
 10
7.817480
 20
1.879240
  0
VERTEX
  8
0
  6
CONTINUOUS
 10
7.832880
 20
1.877480
  0
VERTEX
  8
0
  6
CONTINUOUS
 10
7.189160
 20
1.502600
  0
VERTEX
  8
0
  6
CONTINUOUS
 10
7.173760
 20
1.504360
  0
SEQEND
  8
0
  0
SOLID
  8
0
 62
    15
 10
7.189160
 20
1.502600
 11
7.832880
 21
1.877480
 12
7.203680
 22
1.497760
 13
7.847400
 23
1.872640
  0
POLYLINE
  8
0
  6
CONTINUOUS
 66
     1
 40
0.000000
 41
0.000000
  0
VERTEX
  8
0
  6
CONTINUOUS
 10
7.189160
 20
1.502600
  0
VERTEX
  8
0
  6
CONTINUOUS
 10
7.832880
 20
1.877480
  0
VERTEX
  8
0
  6
CONTINUOUS
 10
7.847400
 20
1.872640
  0
VERTEX
  8
0
  6
CONTINUOUS
 10
7.203680
 20
1.497760
  0
VERTEX
  8
0
  6
CONTINUOUS
 10
7.189160
 20
1.502600
  0
SEQEND
  8
0
  0
SOLID
  8
0
 62
     7
 10
7.203680
 20
1.497760
 11
7.847400
 21
1.872640
 12
7.216880
 22
1.490280
 13
7.860600
 23
1.865160
  0
POLYLINE
  8
0
  6
CONTINUOUS
 66
     1
 40
0.000000
 41
0.000000
  0
VERTEX
  8
0
  6
CONTINUOUS
 10
7.203680
 20
1.497760
  0
VERTEX
  8
0
  6
CONTINUOUS
 10
7.847400
 20
1.872640
  0
VERTEX
  8
0
  6
CONTINUOUS
 10
7.860600
 20
1.865160
  0
VERTEX
  8
0
  6
CONTINUOUS
 10
7.216880
 20
1.490280
  0
VERTEX
  8
0
  6
CONTINUOUS
 10
7.203680
 20
1.497760
  0
SEQEND
  8
0
  0
SOLID
  8
0
 62
     7
 10
7.216880
 20
1.490280
 11
7.860600
 21
1.865160
 12
7.228760
 22
1.480600
 13
7.872480
 23
1.855040
  0
POLYLINE
  8
0
  6
CONTINUOUS
 66
     1
 40
0.000000
 41
0.000000
  0
VERTEX
  8
0
  6
CONTINUOUS
 10
7.216880
 20
1.490280
  0
VERTEX
  8
0
  6
CONTINUOUS
 10
7.860600
 20
1.865160
  0
VERTEX
  8
0
  6
CONTINUOUS
 10
7.872480
 20
1.855040
  0
VERTEX
  8
0
  6
CONTINUOUS
 10
7.228760
 20
1.480600
  0
VERTEX
  8
0
  6
CONTINUOUS
 10
7.216880
 20
1.490280
  0
SEQEND
  8
0
  0
SOLID
  8
0
 62
     7
 10
7.228760
 20
1.480600
 11
7.872480
 21
1.855040
 12
7.238880
 22
1.468720
 13
7.882600
 23
1.843160
  0
POLYLINE
  8
0
  6
CONTINUOUS
 66
     1
 40
0.000000
 41
0.000000
  0
VERTEX
  8
0
  6
CONTINUOUS
 10
7.228760
 20
1.480600
  0
VERTEX
  8
0
  6
CONTINUOUS
 10
7.872480
 20
1.855040
  0
VERTEX
  8
0
  6
CONTINUOUS
 10
7.882600
 20
1.843160
  0
VERTEX
  8
0
  6
CONTINUOUS
 10
7.238880
 20
1.468720
  0
VERTEX
  8
0
  6
CONTINUOUS
 10
7.228760
 20
1.480600
  0
SEQEND
  8
0
  0
SOLID
  8
0
 62
     7
 10
7.238880
 20
1.468720
 11
7.882600
 21
1.843160
 12
7.246360
 22
1.455080
 13
7.890080
 23
1.829960
  0
POLYLINE
  8
0
  6
CONTINUOUS
 66
     1
 40
0.000000
 41
0.000000
  0
VERTEX
  8
0
  6
CONTINUOUS
 10
7.238880
 20
1.468720
  0
VERTEX
  8
0
  6
CONTINUOUS
 10
7.882600
 20
1.843160
  0
VERTEX
  8
0
  6
CONTINUOUS
 10
7.890080
 20
1.829960
  0
VERTEX
  8
0
  6
CONTINUOUS
 10
7.246360
 20
1.455080
  0
VERTEX
  8
0
  6
CONTINUOUS
 10
7.238880
 20
1.468720
  0
SEQEND
  8
0
  0
SOLID
  8
0
 62
     7
 10
7.246360
 20
1.455080
 11
7.890080
 21
1.829960
 12
7.251200
 22
1.440560
 13
7.894920
 23
1.815440
  0
POLYLINE
  8
0
  6
CONTINUOUS
 66
     1
 40
0.000000
 41
0.000000
  0
VERTEX
  8
0
  6
CONTINUOUS
 10
7.246360
 20
1.455080
  0
VERTEX
  8
0
  6
CONTINUOUS
 10
7.890080
 20
1.829960
  0
VERTEX
  8
0
  6
CONTINUOUS
 10
7.894920
 20
1.815440
  0
VERTEX
  8
0
  6
CONTINUOUS
 10
7.251200
 20
1.440560
  0
VERTEX
  8
0
  6
CONTINUOUS
 10
7.246360
 20
1.455080
  0
SEQEND
  8
0
  0
SOLID
  8
0
 62
     7
 10
7.251200
 20
1.440560
 11
7.894920
 21
1.815440
 12
7.252960
 22
1.425160
 13
7.896240
 23
1.800040
  0
POLYLINE
  8
0
  6
CONTINUOUS
 66
     1
 40
0.000000
 41
0.000000
  0
VERTEX
  8
0
  6
CONTINUOUS
 10
7.251200
 20
1.440560
  0
VERTEX
  8
0
  6
CONTINUOUS
 10
7.894920
 20
1.815440
  0
VERTEX
  8
0
  6
CONTINUOUS
 10
7.896240
 20
1.800040
  0
VERTEX
  8
0
  6
CONTINUOUS
 10
7.252960
 20
1.425160
  0
VERTEX
  8
0
  6
CONTINUOUS
 10
7.251200
 20
1.440560
  0
SEQEND
  8
0
  0
SOLID
  8
0
 62
    15
 10
7.252960
 20
1.425160
 11
7.896240
 21
1.800040
 12
7.251200
 22
1.409760
 13
7.894920
 23
1.784640
  0
POLYLINE
  8
0
  6
CONTINUOUS
 66
     1
 40
0.000000
 41
0.000000
  0
VERTEX
  8
0
  6
CONTINUOUS
 10
7.252960
 20
1.425160
  0
VERTEX
  8
0
  6
CONTINUOUS
 10
7.896240
 20
1.800040
  0
VERTEX
  8
0
  6
CONTINUOUS
 10
7.894920
 20
1.784640
  0
VERTEX
  8
0
  6
CONTINUOUS
 10
7.251200
 20
1.409760
  0
VERTEX
  8
0
  6
CONTINUOUS
 10
7.252960
 20
1.425160
  0
SEQEND
  8
0
  0
SOLID
  8
0
 62
    15
 10
7.251200
 20
1.409760
 11
7.894920
 21
1.784640
 12
7.246360
 22
1.395240
 13
7.890080
 23
1.770120
  0
POLYLINE
  8
0
  6
CONTINUOUS
 66
     1
 40
0.000000
 41
0.000000
  0
VERTEX
  8
0
  6
CONTINUOUS
 10
7.251200
 20
1.409760
  0
VERTEX
  8
0
  6
CONTINUOUS
 10
7.894920
 20
1.784640
  0
VERTEX
  8
0
  6
CONTINUOUS
 10
7.890080
 20
1.770120
  0
VERTEX
  8
0
  6
CONTINUOUS
 10
7.246360
 20
1.395240
  0
VERTEX
  8
0
  6
CONTINUOUS
 10
7.251200
 20
1.409760
  0
SEQEND
  8
0
  0
SOLID
  8
0
 62
     7
 10
7.173760
 20
1.345960
 11
7.817480
 21
1.720840
 12
7.173760
 22
1.233320
 13
7.817480
 23
1.608200
  0
POLYLINE
  8
0
  6
CONTINUOUS
 66
     1
 40
0.000000
 41
0.000000
  0
VERTEX
  8
0
  6
CONTINUOUS
 10
7.173760
 20
1.345960
  0
VERTEX
  8
0
  6
CONTINUOUS
 10
7.817480
 20
1.720840
  0
VERTEX
  8
0
  6
CONTINUOUS
 10
7.817480
 20
1.608200
  0
VERTEX
  8
0
  6
CONTINUOUS
 10
7.173760
 20
1.233320
  0
VERTEX
  8
0
  6
CONTINUOUS
 10
7.173760
 20
1.345960
  0
SEQEND
  8
0
  0
SOLID
  8
0
 62
    15
 10
7.238880
 20
1.382040
 11
7.882600
 21
1.756480
 12
7.228760
 22
1.370160
 13
7.872480
 23
1.744600
  0
POLYLINE
  8
0
  6
CONTINUOUS
 66
     1
 40
0.000000
 41
0.000000
  0
VERTEX
  8
0
  6
CONTINUOUS
 10
7.238880
 20
1.382040
  0
VERTEX
  8
0
  6
CONTINUOUS
 10
7.882600
 20
1.756480
  0
VERTEX
  8
0
  6
CONTINUOUS
 10
7.872480
 20
1.744600
  0
VERTEX
  8
0
  6
CONTINUOUS
 10
7.228760
 20
1.370160
  0
VERTEX
  8
0
  6
CONTINUOUS
 10
7.238880
 20
1.382040
  0
SEQEND
  8
0
  0
SOLID
  8
0
 62
    15
 10
7.228760
 20
1.370160
 11
7.872480
 21
1.744600
 12
7.216880
 22
1.360040
 13
7.860600
 23
1.734920
  0
POLYLINE
  8
0
  6
CONTINUOUS
 66
     1
 40
0.000000
 41
0.000000
  0
VERTEX
  8
0
  6
CONTINUOUS
 10
7.228760
 20
1.370160
  0
VERTEX
  8
0
  6
CONTINUOUS
 10
7.872480
 20
1.744600
  0
VERTEX
  8
0
  6
CONTINUOUS
 10
7.860600
 20
1.734920
  0
VERTEX
  8
0
  6
CONTINUOUS
 10
7.216880
 20
1.360040
  0
VERTEX
  8
0
  6
CONTINUOUS
 10
7.228760
 20
1.370160
  0
SEQEND
  8
0
  0
SOLID
  8
0
 62
    15
 10
7.246360
 20
1.395240
 11
7.890080
 21
1.770120
 12
7.238880
 22
1.382040
 13
7.882600
 23
1.756480
  0
POLYLINE
  8
0
  6
CONTINUOUS
 66
     1
 40
0.000000
 41
0.000000
  0
VERTEX
  8
0
  6
CONTINUOUS
 10
7.246360
 20
1.395240
  0
VERTEX
  8
0
  6
CONTINUOUS
 10
7.890080
 20
1.770120
  0
VERTEX
  8
0
  6
CONTINUOUS
 10
7.882600
 20
1.756480
  0
VERTEX
  8
0
  6
CONTINUOUS
 10
7.238880
 20
1.382040
  0
VERTEX
  8
0
  6
CONTINUOUS
 10
7.246360
 20
1.395240
  0
SEQEND
  8
0
  0
SOLID
  8
0
 62
     7
 10
7.173760
 20
1.877480
 11
7.817480
 21
2.251920
 12
7.173760
 22
1.771000
 13
7.817480
 23
2.145880
  0
POLYLINE
  8
0
  6
CONTINUOUS
 66
     1
 40
0.000000
 41
0.000000
  0
VERTEX
  8
0
  6
CONTINUOUS
 10
7.173760
 20
1.877480
  0
VERTEX
  8
0
  6
CONTINUOUS
 10
7.817480
 20
2.251920
  0
VERTEX
  8
0
  6
CONTINUOUS
 10
7.817480
 20
2.145880
  0
VERTEX
  8
0
  6
CONTINUOUS
 10
7.173760
 20
1.771000
  0
VERTEX
  8
0
  6
CONTINUOUS
 10
7.173760
 20
1.877480
  0
SEQEND
  8
0
  0
SOLID
  8
0
 62
     7
 10
7.189160
 20
1.232000
 11
7.832880
 21
1.606440
 12
7.203680
 22
1.227160
 13
7.847400
 23
1.601600
  0
POLYLINE
  8
0
  6
CONTINUOUS
 66
     1
 40
0.000000
 41
0.000000
  0
VERTEX
  8
0
  6
CONTINUOUS
 10
7.189160
 20
1.232000
  0
VERTEX
  8
0
  6
CONTINUOUS
 10
7.832880
 20
1.606440
  0
VERTEX
  8
0
  6
CONTINUOUS
 10
7.847400
 20
1.601600
  0
VERTEX
  8
0
  6
CONTINUOUS
 10
7.203680
 20
1.227160
  0
VERTEX
  8
0
  6
CONTINUOUS
 10
7.189160
 20
1.232000
  0
SEQEND
  8
0
  0
SOLID
  8
0
 62
     7
 10
7.203680
 20
1.227160
 11
7.847400
 21
1.601600
 12
7.216880
 22
1.219240
 13
7.860600
 23
1.594120
  0
POLYLINE
  8
0
  6
CONTINUOUS
 66
     1
 40
0.000000
 41
0.000000
  0
VERTEX
  8
0
  6
CONTINUOUS
 10
7.203680
 20
1.227160
  0
VERTEX
  8
0
  6
CONTINUOUS
 10
7.847400
 20
1.601600
  0
VERTEX
  8
0
  6
CONTINUOUS
 10
7.860600
 20
1.594120
  0
VERTEX
  8
0
  6
CONTINUOUS
 10
7.216880
 20
1.219240
  0
VERTEX
  8
0
  6
CONTINUOUS
 10
7.203680
 20
1.227160
  0
SEQEND
  8
0
  0
SOLID
  8
0
 62
     7
 10
7.216880
 20
1.219240
 11
7.860600
 21
1.594120
 12
7.228760
 22
1.209560
 13
7.872480
 23
1.584440
  0
POLYLINE
  8
0
  6
CONTINUOUS
 66
     1
 40
0.000000
 41
0.000000
  0
VERTEX
  8
0
  6
CONTINUOUS
 10
7.216880
 20
1.219240
  0
VERTEX
  8
0
  6
CONTINUOUS
 10
7.860600
 20
1.594120
  0
VERTEX
  8
0
  6
CONTINUOUS
 10
7.872480
 20
1.584440
  0
VERTEX
  8
0
  6
CONTINUOUS
 10
7.228760
 20
1.209560
  0
VERTEX
  8
0
  6
CONTINUOUS
 10
7.216880
 20
1.219240
  0
SEQEND
  8
0
  0
SOLID
  8
0
 62
     7
 10
7.228760
 20
1.209560
 11
7.872480
 21
1.584440
 12
7.238880
 22
1.197680
 13
7.882600
 23
1.572560
  0
POLYLINE
  8
0
  6
CONTINUOUS
 66
     1
 40
0.000000
 41
0.000000
  0
VERTEX
  8
0
  6
CONTINUOUS
 10
7.228760
 20
1.209560
  0
VERTEX
  8
0
  6
CONTINUOUS
 10
7.872480
 20
1.584440
  0
VERTEX
  8
0
  6
CONTINUOUS
 10
7.882600
 20
1.572560
  0
VERTEX
  8
0
  6
CONTINUOUS
 10
7.238880
 20
1.197680
  0
VERTEX
  8
0
  6
CONTINUOUS
 10
7.228760
 20
1.209560
  0
SEQEND
  8
0
  0
SOLID
  8
0
 62
     7
 10
7.238880
 20
1.197680
 11
7.882600
 21
1.572560
 12
7.246360
 22
1.184480
 13
7.890080
 23
1.558920
  0
POLYLINE
  8
0
  6
CONTINUOUS
 66
     1
 40
0.000000
 41
0.000000
  0
VERTEX
  8
0
  6
CONTINUOUS
 10
7.238880
 20
1.197680
  0
VERTEX
  8
0
  6
CONTINUOUS
 10
7.882600
 20
1.572560
  0
VERTEX
  8
0
  6
CONTINUOUS
 10
7.890080
 20
1.558920
  0
VERTEX
  8
0
  6
CONTINUOUS
 10
7.246360
 20
1.184480
  0
VERTEX
  8
0
  6
CONTINUOUS
 10
7.238880
 20
1.197680
  0
SEQEND
  8
0
  0
SOLID
  8
0
 62
     7
 10
7.246360
 20
1.184480
 11
7.890080
 21
1.558920
 12
7.251200
 22
1.169520
 13
7.894920
 23
1.544400
  0
POLYLINE
  8
0
  6
CONTINUOUS
 66
     1
 40
0.000000
 41
0.000000
  0
VERTEX
  8
0
  6
CONTINUOUS
 10
7.246360
 20
1.184480
  0
VERTEX
  8
0
  6
CONTINUOUS
 10
7.890080
 20
1.558920
  0
VERTEX
  8
0
  6
CONTINUOUS
 10
7.894920
 20
1.544400
  0
VERTEX
  8
0
  6
CONTINUOUS
 10
7.251200
 20
1.169520
  0
VERTEX
  8
0
  6
CONTINUOUS
 10
7.246360
 20
1.184480
  0
SEQEND
  8
0
  0
SOLID
  8
0
 62
     7
 10
7.251200
 20
1.169520
 11
7.894920
 21
1.544400
 12
7.252960
 22
1.154120
 13
7.896240
 23
1.529000
  0
POLYLINE
  8
0
  6
CONTINUOUS
 66
     1
 40
0.000000
 41
0.000000
  0
VERTEX
  8
0
  6
CONTINUOUS
 10
7.251200
 20
1.169520
  0
VERTEX
  8
0
  6
CONTINUOUS
 10
7.894920
 20
1.544400
  0
VERTEX
  8
0
  6
CONTINUOUS
 10
7.896240
 20
1.529000
  0
VERTEX
  8
0
  6
CONTINUOUS
 10
7.252960
 20
1.154120
  0
VERTEX
  8
0
  6
CONTINUOUS
 10
7.251200
 20
1.169520
  0
SEQEND
  8
0
  0
SOLID
  8
0
 62
    15
 10
7.252960
 20
1.154120
 11
7.896240
 21
1.529000
 12
7.251200
 22
1.139160
 13
7.894920
 23
1.513600
  0
POLYLINE
  8
0
  6
CONTINUOUS
 66
     1
 40
0.000000
 41
0.000000
  0
VERTEX
  8
0
  6
CONTINUOUS
 10
7.252960
 20
1.154120
  0
VERTEX
  8
0
  6
CONTINUOUS
 10
7.896240
 20
1.529000
  0
VERTEX
  8
0
  6
CONTINUOUS
 10
7.894920
 20
1.513600
  0
VERTEX
  8
0
  6
CONTINUOUS
 10
7.251200
 20
1.139160
  0
VERTEX
  8
0
  6
CONTINUOUS
 10
7.252960
 20
1.154120
  0
SEQEND
  8
0
  0
SOLID
  8
0
 62
    15
 10
7.251200
 20
1.139160
 11
7.894920
 21
1.513600
 12
7.246360
 22
1.124200
 13
7.890080
 23
1.499080
  0
POLYLINE
  8
0
  6
CONTINUOUS
 66
     1
 40
0.000000
 41
0.000000
  0
VERTEX
  8
0
  6
CONTINUOUS
 10
7.251200
 20
1.139160
  0
VERTEX
  8
0
  6
CONTINUOUS
 10
7.894920
 20
1.513600
  0
VERTEX
  8
0
  6
CONTINUOUS
 10
7.890080
 20
1.499080
  0
VERTEX
  8
0
  6
CONTINUOUS
 10
7.246360
 20
1.124200
  0
VERTEX
  8
0
  6
CONTINUOUS
 10
7.251200
 20
1.139160
  0
SEQEND
  8
0
  0
SOLID
  8
0
 62
    15
 10
7.173760
 20
1.075360
 11
7.817480
 21
1.449800
 12
7.173760
 22
0.983400
 13
7.817480
 23
1.358280
  0
POLYLINE
  8
0
  6
CONTINUOUS
 66
     1
 40
0.000000
 41
0.000000
  0
VERTEX
  8
0
  6
CONTINUOUS
 10
7.173760
 20
1.075360
  0
VERTEX
  8
0
  6
CONTINUOUS
 10
7.817480
 20
1.449800
  0
VERTEX
  8
0
  6
CONTINUOUS
 10
7.817480
 20
1.358280
  0
VERTEX
  8
0
  6
CONTINUOUS
 10
7.173760
 20
0.983400
  0
VERTEX
  8
0
  6
CONTINUOUS
 10
7.173760
 20
1.075360
  0
SEQEND
  8
0
  0
SOLID
  8
0
 62
    15
 10
7.238880
 20
1.111000
 11
7.882600
 21
1.485880
 12
7.228760
 22
1.099120
 13
7.872480
 23
1.474000
  0
POLYLINE
  8
0
  6
CONTINUOUS
 66
     1
 40
0.000000
 41
0.000000
  0
VERTEX
  8
0
  6
CONTINUOUS
 10
7.238880
 20
1.111000
  0
VERTEX
  8
0
  6
CONTINUOUS
 10
7.882600
 20
1.485880
  0
VERTEX
  8
0
  6
CONTINUOUS
 10
7.872480
 20
1.474000
  0
VERTEX
  8
0
  6
CONTINUOUS
 10
7.228760
 20
1.099120
  0
VERTEX
  8
0
  6
CONTINUOUS
 10
7.238880
 20
1.111000
  0
SEQEND
  8
0
  0
SOLID
  8
0
 62
    15
 10
7.228760
 20
1.099120
 11
7.872480
 21
1.474000
 12
7.216880
 22
1.089440
 13
7.860600
 23
1.463880
  0
POLYLINE
  8
0
  6
CONTINUOUS
 66
     1
 40
0.000000
 41
0.000000
  0
VERTEX
  8
0
  6
CONTINUOUS
 10
7.228760
 20
1.099120
  0
VERTEX
  8
0
  6
CONTINUOUS
 10
7.872480
 20
1.474000
  0
VERTEX
  8
0
  6
CONTINUOUS
 10
7.860600
 20
1.463880
  0
VERTEX
  8
0
  6
CONTINUOUS
 10
7.216880
 20
1.089440
  0
VERTEX
  8
0
  6
CONTINUOUS
 10
7.228760
 20
1.099120
  0
SEQEND
  8
0
  0
SOLID
  8
0
 62
    15
 10
7.246360
 20
1.124200
 11
7.890080
 21
1.499080
 12
7.238880
 22
1.111000
 13
7.882600
 23
1.485880
  0
POLYLINE
  8
0
  6
CONTINUOUS
 66
     1
 40
0.000000
 41
0.000000
  0
VERTEX
  8
0
  6
CONTINUOUS
 10
7.246360
 20
1.124200
  0
VERTEX
  8
0
  6
CONTINUOUS
 10
7.890080
 20
1.499080
  0
VERTEX
  8
0
  6
CONTINUOUS
 10
7.882600
 20
1.485880
  0
VERTEX
  8
0
  6
CONTINUOUS
 10
7.238880
 20
1.111000
  0
VERTEX
  8
0
  6
CONTINUOUS
 10
7.246360
 20
1.124200
  0
SEQEND
  8
0
  0
SOLID
  8
0
 62
    15
 10
7.051000
 20
2.037640
 11
7.694280
 21
2.412520
 12
7.173760
 22
2.037640
 13
7.817480
 23
2.412520
  0
POLYLINE
  8
0
  6
CONTINUOUS
 66
     1
 40
0.000000
 41
0.000000
  0
VERTEX
  8
0
  6
CONTINUOUS
 10
7.051000
 20
2.037640
  0
VERTEX
  8
0
  6
CONTINUOUS
 10
7.694280
 20
2.412520
  0
VERTEX
  8
0
  6
CONTINUOUS
 10
7.817480
 20
2.412520
  0
VERTEX
  8
0
  6
CONTINUOUS
 10
7.173760
 20
2.037640
  0
VERTEX
  8
0
  6
CONTINUOUS
 10
7.051000
 20
2.037640
  0
SEQEND
  8
0
  0
SOLID
  8
0
 62
    15
 10
7.173760
 20
2.037640
 11
7.817480
 21
2.412520
 12
7.189160
 22
2.035880
 13
7.832880
 23
2.410760
  0
POLYLINE
  8
0
  6
CONTINUOUS
 66
     1
 40
0.000000
 41
0.000000
  0
VERTEX
  8
0
  6
CONTINUOUS
 10
7.173760
 20
2.037640
  0
VERTEX
  8
0
  6
CONTINUOUS
 10
7.817480
 20
2.412520
  0
VERTEX
  8
0
  6
CONTINUOUS
 10
7.832880
 20
2.410760
  0
VERTEX
  8
0
  6
CONTINUOUS
 10
7.189160
 20
2.035880
  0
VERTEX
  8
0
  6
CONTINUOUS
 10
7.173760
 20
2.037640
  0
SEQEND
  8
0
  0
SOLID
  8
0
 62
    15
 10
7.189160
 20
2.035880
 11
7.832880
 21
2.410760
 12
7.203680
 22
2.031040
 13
7.847400
 23
2.405920
  0
POLYLINE
  8
0
  6
CONTINUOUS
 66
     1
 40
0.000000
 41
0.000000
  0
VERTEX
  8
0
  6
CONTINUOUS
 10
7.189160
 20
2.035880
  0
VERTEX
  8
0
  6
CONTINUOUS
 10
7.832880
 20
2.410760
  0
VERTEX
  8
0
  6
CONTINUOUS
 10
7.847400
 20
2.405920
  0
VERTEX
  8
0
  6
CONTINUOUS
 10
7.203680
 20
2.031040
  0
VERTEX
  8
0
  6
CONTINUOUS
 10
7.189160
 20
2.035880
  0
SEQEND
  8
0
  0
SOLID
  8
0
 62
    15
 10
7.203680
 20
2.031040
 11
7.847400
 21
2.405920
 12
7.216880
 22
2.023560
 13
7.860600
 23
2.398440
  0
POLYLINE
  8
0
  6
CONTINUOUS
 66
     1
 40
0.000000
 41
0.000000
  0
VERTEX
  8
0
  6
CONTINUOUS
 10
7.203680
 20
2.031040
  0
VERTEX
  8
0
  6
CONTINUOUS
 10
7.847400
 20
2.405920
  0
VERTEX
  8
0
  6
CONTINUOUS
 10
7.860600
 20
2.398440
  0
VERTEX
  8
0
  6
CONTINUOUS
 10
7.216880
 20
2.023560
  0
VERTEX
  8
0
  6
CONTINUOUS
 10
7.203680
 20
2.031040
  0
SEQEND
  8
0
  0
SOLID
  8
0
 62
    15
 10
7.216880
 20
2.023560
 11
7.860600
 21
2.398440
 12
7.228760
 22
2.013880
 13
7.872480
 23
2.388320
  0
POLYLINE
  8
0
  6
CONTINUOUS
 66
     1
 40
0.000000
 41
0.000000
  0
VERTEX
  8
0
  6
CONTINUOUS
 10
7.216880
 20
2.023560
  0
VERTEX
  8
0
  6
CONTINUOUS
 10
7.860600
 20
2.398440
  0
VERTEX
  8
0
  6
CONTINUOUS
 10
7.872480
 20
2.388320
  0
VERTEX
  8
0
  6
CONTINUOUS
 10
7.228760
 20
2.013880
  0
VERTEX
  8
0
  6
CONTINUOUS
 10
7.216880
 20
2.023560
  0
SEQEND
  8
0
  0
SOLID
  8
0
 62
    15
 10
7.228760
 20
2.013880
 11
7.872480
 21
2.388320
 12
7.238880
 22
2.002000
 13
7.882600
 23
2.376440
  0
POLYLINE
  8
0
  6
CONTINUOUS
 66
     1
 40
0.000000
 41
0.000000
  0
VERTEX
  8
0
  6
CONTINUOUS
 10
7.228760
 20
2.013880
  0
VERTEX
  8
0
  6
CONTINUOUS
 10
7.872480
 20
2.388320
  0
VERTEX
  8
0
  6
CONTINUOUS
 10
7.882600
 20
2.376440
  0
VERTEX
  8
0
  6
CONTINUOUS
 10
7.238880
 20
2.002000
  0
VERTEX
  8
0
  6
CONTINUOUS
 10
7.228760
 20
2.013880
  0
SEQEND
  8
0
  0
SOLID
  8
0
 62
    15
 10
7.238880
 20
2.002000
 11
7.882600
 21
2.376440
 12
7.246360
 22
1.988360
 13
7.890080
 23
2.363240
  0
POLYLINE
  8
0
  6
CONTINUOUS
 66
     1
 40
0.000000
 41
0.000000
  0
VERTEX
  8
0
  6
CONTINUOUS
 10
7.238880
 20
2.002000
  0
VERTEX
  8
0
  6
CONTINUOUS
 10
7.882600
 20
2.376440
  0
VERTEX
  8
0
  6
CONTINUOUS
 10
7.890080
 20
2.363240
  0
VERTEX
  8
0
  6
CONTINUOUS
 10
7.246360
 20
1.988360
  0
VERTEX
  8
0
  6
CONTINUOUS
 10
7.238880
 20
2.002000
  0
SEQEND
  8
0
  0
SOLID
  8
0
 62
    15
 10
7.246360
 20
1.988360
 11
7.890080
 21
2.363240
 12
7.251200
 22
1.973840
 13
7.894920
 23
2.348720
  0
POLYLINE
  8
0
  6
CONTINUOUS
 66
     1
 40
0.000000
 41
0.000000
  0
VERTEX
  8
0
  6
CONTINUOUS
 10
7.246360
 20
1.988360
  0
VERTEX
  8
0
  6
CONTINUOUS
 10
7.890080
 20
2.363240
  0
VERTEX
  8
0
  6
CONTINUOUS
 10
7.894920
 20
2.348720
  0
VERTEX
  8
0
  6
CONTINUOUS
 10
7.251200
 20
1.973840
  0
VERTEX
  8
0
  6
CONTINUOUS
 10
7.246360
 20
1.988360
  0
SEQEND
  8
0
  0
SOLID
  8
0
 62
     7
 10
7.251200
 20
1.973840
 11
7.894920
 21
2.348720
 12
7.252960
 22
1.958440
 13
7.896240
 23
2.333320
  0
POLYLINE
  8
0
  6
CONTINUOUS
 66
     1
 40
0.000000
 41
0.000000
  0
VERTEX
  8
0
  6
CONTINUOUS
 10
7.251200
 20
1.973840
  0
VERTEX
  8
0
  6
CONTINUOUS
 10
7.894920
 20
2.348720
  0
VERTEX
  8
0
  6
CONTINUOUS
 10
7.896240
 20
2.333320
  0
VERTEX
  8
0
  6
CONTINUOUS
 10
7.252960
 20
1.958440
  0
VERTEX
  8
0
  6
CONTINUOUS
 10
7.251200
 20
1.973840
  0
SEQEND
  8
0
  0
SOLID
  8
0
 62
    15
 10
7.252960
 20
1.958440
 11
7.896240
 21
2.333320
 12
7.251200
 22
1.943040
 13
7.894920
 23
2.317920
  0
POLYLINE
  8
0
  6
CONTINUOUS
 66
     1
 40
0.000000
 41
0.000000
  0
VERTEX
  8
0
  6
CONTINUOUS
 10
7.252960
 20
1.958440
  0
VERTEX
  8
0
  6
CONTINUOUS
 10
7.896240
 20
2.333320
  0
VERTEX
  8
0
  6
CONTINUOUS
 10
7.894920
 20
2.317920
  0
VERTEX
  8
0
  6
CONTINUOUS
 10
7.251200
 20
1.943040
  0
VERTEX
  8
0
  6
CONTINUOUS
 10
7.252960
 20
1.958440
  0
SEQEND
  8
0
  0
SOLID
  8
0
 62
    15
 10
7.251200
 20
1.943040
 11
7.894920
 21
2.317920
 12
7.246360
 22
1.928520
 13
7.890080
 23
2.303400
  0
POLYLINE
  8
0
  6
CONTINUOUS
 66
     1
 40
0.000000
 41
0.000000
  0
VERTEX
  8
0
  6
CONTINUOUS
 10
7.251200
 20
1.943040
  0
VERTEX
  8
0
  6
CONTINUOUS
 10
7.894920
 20
2.317920
  0
VERTEX
  8
0
  6
CONTINUOUS
 10
7.890080
 20
2.303400
  0
VERTEX
  8
0
  6
CONTINUOUS
 10
7.246360
 20
1.928520
  0
VERTEX
  8
0
  6
CONTINUOUS
 10
7.251200
 20
1.943040
  0
SEQEND
  8
0
  0
SOLID
  8
0
 62
     7
 10
7.173760
 20
1.879240
 11
7.817480
 21
2.254120
 12
7.173760
 22
1.877480
 13
7.817480
 23
2.251920
  0
POLYLINE
  8
0
  6
CONTINUOUS
 66
     1
 40
0.000000
 41
0.000000
  0
VERTEX
  8
0
  6
CONTINUOUS
 10
7.173760
 20
1.879240
  0
VERTEX
  8
0
  6
CONTINUOUS
 10
7.817480
 20
2.254120
  0
VERTEX
  8
0
  6
CONTINUOUS
 10
7.817480
 20
2.251920
  0
VERTEX
  8
0
  6
CONTINUOUS
 10
7.173760
 20
1.877480
  0
VERTEX
  8
0
  6
CONTINUOUS
 10
7.173760
 20
1.879240
  0
SEQEND
  8
0
  0
SOLID
  8
0
 62
    15
 10
7.238880
 20
1.915320
 11
7.882600
 21
2.289760
 12
7.228760
 22
1.903440
 13
7.872480
 23
2.277880
  0
POLYLINE
  8
0
  6
CONTINUOUS
 66
     1
 40
0.000000
 41
0.000000
  0
VERTEX
  8
0
  6
CONTINUOUS
 10
7.238880
 20
1.915320
  0
VERTEX
  8
0
  6
CONTINUOUS
 10
7.882600
 20
2.289760
  0
VERTEX
  8
0
  6
CONTINUOUS
 10
7.872480
 20
2.277880
  0
VERTEX
  8
0
  6
CONTINUOUS
 10
7.228760
 20
1.903440
  0
VERTEX
  8
0
  6
CONTINUOUS
 10
7.238880
 20
1.915320
  0
SEQEND
  8
0
  0
SOLID
  8
0
 62
    15
 10
7.228760
 20
1.903440
 11
7.872480
 21
2.277880
 12
7.216880
 22
1.893320
 13
7.860600
 23
2.268200
  0
POLYLINE
  8
0
  6
CONTINUOUS
 66
     1
 40
0.000000
 41
0.000000
  0
VERTEX
  8
0
  6
CONTINUOUS
 10
7.228760
 20
1.903440
  0
VERTEX
  8
0
  6
CONTINUOUS
 10
7.872480
 20
2.277880
  0
VERTEX
  8
0
  6
CONTINUOUS
 10
7.860600
 20
2.268200
  0
VERTEX
  8
0
  6
CONTINUOUS
 10
7.216880
 20
1.893320
  0
VERTEX
  8
0
  6
CONTINUOUS
 10
7.228760
 20
1.903440
  0
SEQEND
  8
0
  0
SOLID
  8
0
 62
    15
 10
7.246360
 20
1.928520
 11
7.890080
 21
2.303400
 12
7.238880
 22
1.915320
 13
7.882600
 23
2.289760
  0
POLYLINE
  8
0
  6
CONTINUOUS
 66
     1
 40
0.000000
 41
0.000000
  0
VERTEX
  8
0
  6
CONTINUOUS
 10
7.246360
 20
1.928520
  0
VERTEX
  8
0
  6
CONTINUOUS
 10
7.890080
 20
2.303400
  0
VERTEX
  8
0
  6
CONTINUOUS
 10
7.882600
 20
2.289760
  0
VERTEX
  8
0
  6
CONTINUOUS
 10
7.238880
 20
1.915320
  0
VERTEX
  8
0
  6
CONTINUOUS
 10
7.246360
 20
1.928520
  0
SEQEND
  8
0
  0
POLYLINE
  8
0
  6
CONTINUOUS
 66
     1
 40
0.000000
 41
0.000000
  0
VERTEX
  8
0
  6
CONTINUOUS
 10
7.173760
 20
1.877480
  0
VERTEX
  8
0
  6
CONTINUOUS
 10
7.173760
 20
1.771000
  0
VERTEX
  8
0
  6
CONTINUOUS
 10
7.189160
 20
1.769240
  0
VERTEX
  8
0
  6
CONTINUOUS
 10
7.203680
 20
1.764400
  0
VERTEX
  8
0
  6
CONTINUOUS
 10
7.216880
 20
1.756920
  0
VERTEX
  8
0
  6
CONTINUOUS
 10
7.228760
 20
1.747240
  0
VERTEX
  8
0
  6
CONTINUOUS
 10
7.238880
 20
1.735360
  0
VERTEX
  8
0
  6
CONTINUOUS
 10
7.246360
 20
1.721720
  0
VERTEX
  8
0
  6
CONTINUOUS
 10
7.251200
 20
1.707200
  0
VERTEX
  8
0
  6
CONTINUOUS
 10
7.252960
 20
1.691800
  0
VERTEX
  8
0
  6
CONTINUOUS
 10
7.251200
 20
1.676400
  0
VERTEX
  8
0
  6
CONTINUOUS
 10
7.246360
 20
1.661880
  0
VERTEX
  8
0
  6
CONTINUOUS
 10
7.238880
 20
1.648680
  0
VERTEX
  8
0
  6
CONTINUOUS
 10
7.228760
 20
1.636800
  0
VERTEX
  8
0
  6
CONTINUOUS
 10
7.216880
 20
1.626680
  0
VERTEX
  8
0
  6
CONTINUOUS
 10
7.203680
 20
1.619200
  0
VERTEX
  8
0
  6
CONTINUOUS
 10
7.189160
 20
1.614360
  0
VERTEX
  8
0
  6
CONTINUOUS
 10
7.173760
 20
1.612600
  0
VERTEX
  8
0
  6
CONTINUOUS
 10
7.173760
 20
1.504360
  0
VERTEX
  8
0
  6
CONTINUOUS
 10
7.189160
 20
1.502600
  0
VERTEX
  8
0
  6
CONTINUOUS
 10
7.203680
 20
1.497760
  0
VERTEX
  8
0
  6
CONTINUOUS
 10
7.216880
 20
1.490280
  0
VERTEX
  8
0
  6
CONTINUOUS
 10
7.228760
 20
1.480600
  0
VERTEX
  8
0
  6
CONTINUOUS
 10
7.238880
 20
1.468720
  0
VERTEX
  8
0
  6
CONTINUOUS
 10
7.246360
 20
1.455080
  0
VERTEX
  8
0
  6
CONTINUOUS
 10
7.251200
 20
1.440560
  0
VERTEX
  8
0
  6
CONTINUOUS
 10
7.252960
 20
1.425160
  0
VERTEX
  8
0
  6
CONTINUOUS
 10
7.251200
 20
1.409760
  0
VERTEX
  8
0
  6
CONTINUOUS
 10
7.246360
 20
1.395240
  0
VERTEX
  8
0
  6
CONTINUOUS
 10
7.238880
 20
1.382040
  0
VERTEX
  8
0
  6
CONTINUOUS
 10
7.228760
 20
1.370160
  0
VERTEX
  8
0
  6
CONTINUOUS
 10
7.216880
 20
1.360040
  0
VERTEX
  8
0
  6
CONTINUOUS
 10
7.203680
 20
1.352560
  0
VERTEX
  8
0
  6
CONTINUOUS
 10
7.189160
 20
1.347720
  0
VERTEX
  8
0
  6
CONTINUOUS
 10
7.173760
 20
1.345960
  0
VERTEX
  8
0
  6
CONTINUOUS
 10
7.173760
 20
1.233320
  0
VERTEX
  8
0
  6
CONTINUOUS
 10
7.189160
 20
1.232000
  0
VERTEX
  8
0
  6
CONTINUOUS
 10
7.203680
 20
1.227160
  0
VERTEX
  8
0
  6
CONTINUOUS
 10
7.216880
 20
1.219240
  0
VERTEX
  8
0
  6
CONTINUOUS
 10
7.228760
 20
1.209560
  0
VERTEX
  8
0
  6
CONTINUOUS
 10
7.238880
 20
1.197680
  0
VERTEX
  8
0
  6
CONTINUOUS
 10
7.246360
 20
1.184480
  0
VERTEX
  8
0
  6
CONTINUOUS
 10
7.251200
 20
1.169520
  0
VERTEX
  8
0
  6
CONTINUOUS
 10
7.252960
 20
1.154120
  0
VERTEX
  8
0
  6
CONTINUOUS
 10
7.251200
 20
1.139160
  0
VERTEX
  8
0
  6
CONTINUOUS
 10
7.246360
 20
1.124200
  0
VERTEX
  8
0
  6
CONTINUOUS
 10
7.238880
 20
1.111000
  0
VERTEX
  8
0
  6
CONTINUOUS
 10
7.228760
 20
1.099120
  0
VERTEX
  8
0
  6
CONTINUOUS
 10
7.216880
 20
1.089440
  0
VERTEX
  8
0
  6
CONTINUOUS
 10
7.203680
 20
1.081520
  0
VERTEX
  8
0
  6
CONTINUOUS
 10
7.189160
 20
1.076680
  0
VERTEX
  8
0
  6
CONTINUOUS
 10
7.173760
 20
1.075360
  0
VERTEX
  8
0
  6
CONTINUOUS
 10
7.173760
 20
0.983400
  0
VERTEX
  8
0
  6
CONTINUOUS
 10
7.051000
 20
0.983400
  0
VERTEX
  8
0
  6
CONTINUOUS
 10
7.051000
 20
2.037640
  0
VERTEX
  8
0
  6
CONTINUOUS
 10
7.173760
 20
2.037640
  0
VERTEX
  8
0
  6
CONTINUOUS
 10
7.189160
 20
2.035880
  0
VERTEX
  8
0
  6
CONTINUOUS
 10
7.203680
 20
2.031040
  0
VERTEX
  8
0
  6
CONTINUOUS
 10
7.216880
 20
2.023560
  0
VERTEX
  8
0
  6
CONTINUOUS
 10
7.228760
 20
2.013880
  0
VERTEX
  8
0
  6
CONTINUOUS
 10
7.238880
 20
2.002000
  0
VERTEX
  8
0
  6
CONTINUOUS
 10
7.246360
 20
1.988360
  0
VERTEX
  8
0
  6
CONTINUOUS
 10
7.251200
 20
1.973840
  0
VERTEX
  8
0
  6
CONTINUOUS
 10
7.252960
 20
1.958440
  0
VERTEX
  8
0
  6
CONTINUOUS
 10
7.251200
 20
1.943040
  0
VERTEX
  8
0
  6
CONTINUOUS
 10
7.246360
 20
1.928520
  0
VERTEX
  8
0
  6
CONTINUOUS
 10
7.238880
 20
1.915320
  0
VERTEX
  8
0
  6
CONTINUOUS
 10
7.228760
 20
1.903440
  0
VERTEX
  8
0
  6
CONTINUOUS
 10
7.216880
 20
1.893320
  0
VERTEX
  8
0
  6
CONTINUOUS
 10
7.203680
 20
1.885840
  0
VERTEX
  8
0
  6
CONTINUOUS
 10
7.189160
 20
1.881000
  0
VERTEX
  8
0
  6
CONTINUOUS
 10
7.173760
 20
1.879240
  0
VERTEX
  8
0
  6
CONTINUOUS
 10
7.173760
 20
1.877480
  0
SEQEND
  8
0
  0
TEXT
  8
0
 10
7.177720
 20
0.774840
 40
0.138159
  1
BA  323
 41
1.000000
  7
SN0
 71
     0
 72
     5
 11
7.768474
 21
0.774840
  0
TEXT
  8
0
 10
6.929560
 20
0.583000
 40
0.138159
  1
3/16" x 1-1/16"
 41
1.000000
  7
SN0
 71
     0
 72
     5
 11
8.015952
 21
0.583000
  0
ENDSEC
  0
EOF
