  0
SECTION
  2
HEADER
  9
$ACADVER
  1
AC1006
  9
$EXTMIN
 10
6.327200
 20
0.481360
  9
$EXTMAX
 10
8.054200
 20
2.942720
  9
$LTSCALE
 40
0.044000
  9
$PDMODE
 70
    35
  9
$PDSIZE
 40
0.035200
  0
ENDSEC
  0
SECTION
  2
TABLES
  0
TABLE
  2
LTYPE
 70
     9
  0
LTYPE
  2
CONTINUOUS
 70
    64
  3
Solid line
 72
    65
 73
     0
 40
0.000000
  0
LTYPE
  2
DASHED
 70
    64
  3
__ __ __ __ __ __ __ __ __ __ __ __ __ __ __
 72
    65
 73
     2
 40
0.000330
 49
0.000220
 49
-0.000110
  0
LTYPE
  2
HIDDEN
 70
    64
  3
 _ _ _ _ _ _ _ _ _ _ _ _ _ _ _ _ _ _ _ _ _ _
 72
    65
 73
     2
 40
0.000165
 49
0.000110
 49
-0.000055
  0
LTYPE
  2
CENTER
 70
    64
  3
____ _ ____ _ ____ _ ____ _ ____ _ ____ _ ____
 72
    65
 73
     4
 40
0.000880
 49
0.000550
 49
-0.000110
 49
0.000110
 49
-0.000110
  0
LTYPE
  2
PHANTOM
 70
    64
  3
_____ _ _ _____ _ _ _____ _ _ _____ _ _ ____
 72
    65
 73
     6
 40
0.001100
 49
0.000550
 49
-0.000110
 49
0.000110
 49
-0.000110
 49
0.000110
 49
-0.000110
  0
LTYPE
  2
DOT
 70
    64
  3
...............................................
 72
    65
 73
     2
 40
0.000110
 49
0.000000
 49
-0.000110
  0
LTYPE
  2
DASHDOT
 70
    64
  3
__ . __ . __ . __ . __ . __ . __ . __ . __ . __
 72
    65
 73
     4
 40
0.000440
 49
0.000220
 49
-0.000110
 49
0.000000
 49
-0.000110
  0
LTYPE
  2
BORDER
 70
    64
  3
__ __ . __ __ . __ __ . __ __ . __ __ . __ __
 72
    65
 73
     6
 40
0.000770
 49
0.000220
 49
-0.000110
 49
0.000220
 49
-0.000110
 49
0.000000
 49
-0.000110
  0
LTYPE
  2
DIVIDE
 70
    64
  3
__ . . __ . . __ . . __ . . __ . . __ . . __
 72
    65
 73
     6
 40
0.000550
 49
0.000220
 49
-0.000110
 49
0.000000
 49
-0.000110
 49
0.000000
 49
-0.000110
  0
LTYPE
  2
DOTDOT
 70
    64
  3
 . .  . .  . .  . .  . .  . . 
 72
    65
 73
     5
 40
0.000242
 49
-0.000110
 49
0.000000
 49
-0.000110
 49
0.000000
 49
-0.000110
  0
ENDTAB
  0
TABLE
  2
STYLE
 70
     2
  0
STYLE
 70
     0
  2
SN0
 40
0.000000
 41
0.000440
 50
0.000000
 71
     0
 42
0.000000
  3
ROMAND
  0
STYLE
 70
    68
  2
SV0
 40
0.000000
 41
0.000440
 50
0.000000
 71
     0
 42
0.000000
  3
ROMAND
  0
ENDTAB
  0
TABLE
  2
LAYER
 70
     3
  0
LAYER
  2
FOREGROUND
 70
    64
 62
     7
  6
CONTINUOUS
  0
LAYER
  2
BACKGROUND
 70
    65
 62
    -7
  6
CONTINUOUS
  0
LAYER
  2
0
 70
    64
 62
     7
  6
CONTINUOUS
  0
ENDTAB
  0
ENDSEC
  0
SECTION
  2
ENTITIES
  0
POLYLINE
  8
FOREGROUND
  6
CONTINUOUS
 66
     1
 40
0.000000
 41
0.000000
  0
VERTEX
  8
FOREGROUND
  6
CONTINUOUS
 10
0.000000
 20
3.424080
  0
VERTEX
  8
FOREGROUND
  6
CONTINUOUS
 10
8.499920
 20
3.424080
  0
VERTEX
  8
FOREGROUND
  6
CONTINUOUS
 10
8.499920
 20
-7.575920
  0
VERTEX
  8
FOREGROUND
  6
CONTINUOUS
 10
0.000000
 20
-7.575920
  0
VERTEX
  8
FOREGROUND
  6
CONTINUOUS
 10
0.000000
 20
3.424080
  0
SEQEND
  8
0
  0
POLYLINE
  8
FOREGROUND
  6
CONTINUOUS
 66
     1
 40
0.000000
 41
0.000000
  0
VERTEX
  8
FOREGROUND
  6
CONTINUOUS
 10
0.000000
 20
3.424080
  0
VERTEX
  8
FOREGROUND
  6
CONTINUOUS
 10
8.499920
 20
3.424080
  0
VERTEX
  8
FOREGROUND
  6
CONTINUOUS
 10
8.499920
 20
-7.575920
  0
VERTEX
  8
FOREGROUND
  6
CONTINUOUS
 10
0.000000
 20
-7.575920
  0
VERTEX
  8
FOREGROUND
  6
CONTINUOUS
 10
0.000000
 20
3.424080
  0
SEQEND
  8
0
  0
POLYLINE
  8
0
  6
CONTINUOUS
 66
     1
 40
0.014080
 41
0.014080
  0
VERTEX
  8
0
  6
CONTINUOUS
 10
7.032520
 20
2.433200
  0
VERTEX
  8
0
  6
CONTINUOUS
 10
7.032520
 20
2.564320
  0
VERTEX
  8
0
  6
CONTINUOUS
 10
6.919880
 20
2.564320
  0
VERTEX
  8
0
  6
CONTINUOUS
 10
6.897000
 20
2.607000
  0
VERTEX
  8
0
  6
CONTINUOUS
 10
6.875440
 20
2.635160
  0
VERTEX
  8
0
  6
CONTINUOUS
 10
6.862680
 20
2.647480
  0
VERTEX
  8
0
  6
CONTINUOUS
 10
6.850360
 20
2.654520
  0
VERTEX
  8
0
  6
CONTINUOUS
 10
6.838920
 20
2.657600
  0
VERTEX
  8
0
  6
CONTINUOUS
 10
6.827920
 20
2.657160
  0
VERTEX
  8
0
  6
CONTINUOUS
 10
6.818240
 20
2.653640
  0
VERTEX
  8
0
  6
CONTINUOUS
 10
6.801080
 20
2.640440
  0
VERTEX
  8
0
  6
CONTINUOUS
 10
6.776880
 20
2.606560
  0
VERTEX
  8
0
  6
CONTINUOUS
 10
6.764560
 20
2.588960
  0
VERTEX
  8
0
  6
CONTINUOUS
 10
6.750480
 20
2.574880
  0
VERTEX
  8
0
  6
CONTINUOUS
 10
6.735080
 20
2.565200
  0
VERTEX
  8
0
  6
CONTINUOUS
 10
6.728480
 20
2.563440
  0
VERTEX
  8
0
  6
CONTINUOUS
 10
6.723200
 20
2.565200
  0
VERTEX
  8
0
  6
CONTINUOUS
 10
6.717920
 20
2.574880
  0
VERTEX
  8
0
  6
CONTINUOUS
 10
6.689760
 20
2.668600
  0
VERTEX
  8
0
  6
CONTINUOUS
 10
6.658960
 20
2.746480
  0
VERTEX
  8
0
  6
CONTINUOUS
 10
6.625960
 20
2.810280
  0
VERTEX
  8
0
  6
CONTINUOUS
 10
6.603080
 20
2.845040
  0
VERTEX
  8
0
  6
CONTINUOUS
 10
6.567440
 20
2.885960
  0
VERTEX
  8
0
  6
CONTINUOUS
 10
6.543240
 20
2.906200
  0
VERTEX
  8
0
  6
CONTINUOUS
 10
6.518600
 20
2.920720
  0
VERTEX
  8
0
  6
CONTINUOUS
 10
6.493960
 20
2.930400
  0
VERTEX
  8
0
  6
CONTINUOUS
 10
6.468880
 20
2.934800
  0
VERTEX
  8
0
  6
CONTINUOUS
 10
6.444240
 20
2.933920
  0
VERTEX
  8
0
  6
CONTINUOUS
 10
6.419600
 20
2.929080
  0
VERTEX
  8
0
  6
CONTINUOUS
 10
6.394960
 20
2.919400
  0
VERTEX
  8
0
  6
CONTINUOUS
 10
6.358880
 20
2.896960
  0
VERTEX
  8
0
  6
CONTINUOUS
 10
6.347000
 20
2.887280
  0
VERTEX
  8
0
  6
CONTINUOUS
 10
6.344800
 20
2.881120
  0
VERTEX
  8
0
  6
CONTINUOUS
 10
6.344800
 20
2.433200
  0
VERTEX
  8
0
  6
CONTINUOUS
 10
7.032520
 20
2.433200
  0
SEQEND
  8
0
  0
SOLID
  8
0
 62
    15
 10
7.516520
 20
1.039720
 11
7.513880
 21
1.776720
 12
7.521800
 22
1.037960
 13
7.519160
 23
1.774960
  0
POLYLINE
  8
0
  6
CONTINUOUS
 66
     1
 40
0.000000
 41
0.000000
  0
VERTEX
  8
0
  6
CONTINUOUS
 10
7.516520
 20
1.039720
  0
VERTEX
  8
0
  6
CONTINUOUS
 10
7.513880
 20
1.776720
  0
VERTEX
  8
0
  6
CONTINUOUS
 10
7.519160
 20
1.774960
  0
VERTEX
  8
0
  6
CONTINUOUS
 10
7.521800
 20
1.037960
  0
VERTEX
  8
0
  6
CONTINUOUS
 10
7.516520
 20
1.039720
  0
SEQEND
  8
0
  0
SOLID
  8
0
 62
    15
 10
7.138120
 20
0.907720
 11
7.135480
 21
1.644720
 12
7.138120
 22
1.355640
 13
7.135480
 23
2.092640
  0
POLYLINE
  8
0
  6
CONTINUOUS
 66
     1
 40
0.000000
 41
0.000000
  0
VERTEX
  8
0
  6
CONTINUOUS
 10
7.138120
 20
0.907720
  0
VERTEX
  8
0
  6
CONTINUOUS
 10
7.135480
 20
1.644720
  0
VERTEX
  8
0
  6
CONTINUOUS
 10
7.135480
 20
2.092640
  0
VERTEX
  8
0
  6
CONTINUOUS
 10
7.138120
 20
1.355640
  0
VERTEX
  8
0
  6
CONTINUOUS
 10
7.138120
 20
0.907720
  0
SEQEND
  8
0
  0
SOLID
  8
0
 62
    15
 10
7.140320
 20
1.361800
 11
7.137680
 21
2.098800
 12
7.163640
 22
1.379840
 13
7.161440
 23
2.116840
  0
POLYLINE
  8
0
  6
CONTINUOUS
 66
     1
 40
0.000000
 41
0.000000
  0
VERTEX
  8
0
  6
CONTINUOUS
 10
7.140320
 20
1.361800
  0
VERTEX
  8
0
  6
CONTINUOUS
 10
7.137680
 20
2.098800
  0
VERTEX
  8
0
  6
CONTINUOUS
 10
7.161440
 20
2.116840
  0
VERTEX
  8
0
  6
CONTINUOUS
 10
7.163640
 20
1.379840
  0
VERTEX
  8
0
  6
CONTINUOUS
 10
7.140320
 20
1.361800
  0
SEQEND
  8
0
  0
SOLID
  8
0
 62
    15
 10
7.163640
 20
1.379840
 11
7.161440
 21
2.116840
 12
7.187840
 22
1.393920
 13
7.185640
 23
2.130480
  0
POLYLINE
  8
0
  6
CONTINUOUS
 66
     1
 40
0.000000
 41
0.000000
  0
VERTEX
  8
0
  6
CONTINUOUS
 10
7.163640
 20
1.379840
  0
VERTEX
  8
0
  6
CONTINUOUS
 10
7.161440
 20
2.116840
  0
VERTEX
  8
0
  6
CONTINUOUS
 10
7.185640
 20
2.130480
  0
VERTEX
  8
0
  6
CONTINUOUS
 10
7.187840
 20
1.393920
  0
VERTEX
  8
0
  6
CONTINUOUS
 10
7.163640
 20
1.379840
  0
SEQEND
  8
0
  0
SOLID
  8
0
 62
    15
 10
7.187840
 20
1.393920
 11
7.185640
 21
2.130480
 12
7.212480
 22
1.403600
 13
7.210280
 23
2.140160
  0
POLYLINE
  8
0
  6
CONTINUOUS
 66
     1
 40
0.000000
 41
0.000000
  0
VERTEX
  8
0
  6
CONTINUOUS
 10
7.187840
 20
1.393920
  0
VERTEX
  8
0
  6
CONTINUOUS
 10
7.185640
 20
2.130480
  0
VERTEX
  8
0
  6
CONTINUOUS
 10
7.210280
 20
2.140160
  0
VERTEX
  8
0
  6
CONTINUOUS
 10
7.212480
 20
1.403600
  0
VERTEX
  8
0
  6
CONTINUOUS
 10
7.187840
 20
1.393920
  0
SEQEND
  8
0
  0
SOLID
  8
0
 62
    15
 10
7.212480
 20
1.403600
 11
7.210280
 21
2.140160
 12
7.237560
 22
1.408880
 13
7.234920
 23
2.145440
  0
POLYLINE
  8
0
  6
CONTINUOUS
 66
     1
 40
0.000000
 41
0.000000
  0
VERTEX
  8
0
  6
CONTINUOUS
 10
7.212480
 20
1.403600
  0
VERTEX
  8
0
  6
CONTINUOUS
 10
7.210280
 20
2.140160
  0
VERTEX
  8
0
  6
CONTINUOUS
 10
7.234920
 20
2.145440
  0
VERTEX
  8
0
  6
CONTINUOUS
 10
7.237560
 20
1.408880
  0
VERTEX
  8
0
  6
CONTINUOUS
 10
7.212480
 20
1.403600
  0
SEQEND
  8
0
  0
SOLID
  8
0
 62
    15
 10
7.237560
 20
1.408880
 11
7.234920
 21
2.145440
 12
7.262200
 22
1.409320
 13
7.260000
 23
2.145880
  0
POLYLINE
  8
0
  6
CONTINUOUS
 66
     1
 40
0.000000
 41
0.000000
  0
VERTEX
  8
0
  6
CONTINUOUS
 10
7.237560
 20
1.408880
  0
VERTEX
  8
0
  6
CONTINUOUS
 10
7.234920
 20
2.145440
  0
VERTEX
  8
0
  6
CONTINUOUS
 10
7.260000
 20
2.145880
  0
VERTEX
  8
0
  6
CONTINUOUS
 10
7.262200
 20
1.409320
  0
VERTEX
  8
0
  6
CONTINUOUS
 10
7.237560
 20
1.408880
  0
SEQEND
  8
0
  0
SOLID
  8
0
 62
    15
 10
7.262200
 20
1.409320
 11
7.260000
 21
2.145880
 12
7.287280
 22
1.404920
 13
7.284640
 23
2.141480
  0
POLYLINE
  8
0
  6
CONTINUOUS
 66
     1
 40
0.000000
 41
0.000000
  0
VERTEX
  8
0
  6
CONTINUOUS
 10
7.262200
 20
1.409320
  0
VERTEX
  8
0
  6
CONTINUOUS
 10
7.260000
 20
2.145880
  0
VERTEX
  8
0
  6
CONTINUOUS
 10
7.284640
 20
2.141480
  0
VERTEX
  8
0
  6
CONTINUOUS
 10
7.287280
 20
1.404920
  0
VERTEX
  8
0
  6
CONTINUOUS
 10
7.262200
 20
1.409320
  0
SEQEND
  8
0
  0
SOLID
  8
0
 62
    15
 10
7.287280
 20
1.404920
 11
7.284640
 21
2.141480
 12
7.311920
 22
1.395240
 13
7.309720
 23
2.132240
  0
POLYLINE
  8
0
  6
CONTINUOUS
 66
     1
 40
0.000000
 41
0.000000
  0
VERTEX
  8
0
  6
CONTINUOUS
 10
7.287280
 20
1.404920
  0
VERTEX
  8
0
  6
CONTINUOUS
 10
7.284640
 20
2.141480
  0
VERTEX
  8
0
  6
CONTINUOUS
 10
7.309720
 20
2.132240
  0
VERTEX
  8
0
  6
CONTINUOUS
 10
7.311920
 20
1.395240
  0
VERTEX
  8
0
  6
CONTINUOUS
 10
7.287280
 20
1.404920
  0
SEQEND
  8
0
  0
SOLID
  8
0
 62
    15
 10
7.311920
 20
1.395240
 11
7.309720
 21
2.132240
 12
7.336560
 22
1.380720
 13
7.333920
 23
2.117720
  0
POLYLINE
  8
0
  6
CONTINUOUS
 66
     1
 40
0.000000
 41
0.000000
  0
VERTEX
  8
0
  6
CONTINUOUS
 10
7.311920
 20
1.395240
  0
VERTEX
  8
0
  6
CONTINUOUS
 10
7.309720
 20
2.132240
  0
VERTEX
  8
0
  6
CONTINUOUS
 10
7.333920
 20
2.117720
  0
VERTEX
  8
0
  6
CONTINUOUS
 10
7.336560
 20
1.380720
  0
VERTEX
  8
0
  6
CONTINUOUS
 10
7.311920
 20
1.395240
  0
SEQEND
  8
0
  0
SOLID
  8
0
 62
    15
 10
7.336560
 20
1.380720
 11
7.333920
 21
2.117720
 12
7.360760
 22
1.360480
 13
7.358560
 23
2.097480
  0
POLYLINE
  8
0
  6
CONTINUOUS
 66
     1
 40
0.000000
 41
0.000000
  0
VERTEX
  8
0
  6
CONTINUOUS
 10
7.336560
 20
1.380720
  0
VERTEX
  8
0
  6
CONTINUOUS
 10
7.333920
 20
2.117720
  0
VERTEX
  8
0
  6
CONTINUOUS
 10
7.358560
 20
2.097480
  0
VERTEX
  8
0
  6
CONTINUOUS
 10
7.360760
 20
1.360480
  0
VERTEX
  8
0
  6
CONTINUOUS
 10
7.336560
 20
1.380720
  0
SEQEND
  8
0
  0
SOLID
  8
0
 62
    15
 10
7.360760
 20
1.360480
 11
7.358560
 21
2.097480
 12
7.384520
 22
1.334960
 13
7.381880
 23
2.071520
  0
POLYLINE
  8
0
  6
CONTINUOUS
 66
     1
 40
0.000000
 41
0.000000
  0
VERTEX
  8
0
  6
CONTINUOUS
 10
7.360760
 20
1.360480
  0
VERTEX
  8
0
  6
CONTINUOUS
 10
7.358560
 20
2.097480
  0
VERTEX
  8
0
  6
CONTINUOUS
 10
7.381880
 20
2.071520
  0
VERTEX
  8
0
  6
CONTINUOUS
 10
7.384520
 20
1.334960
  0
VERTEX
  8
0
  6
CONTINUOUS
 10
7.360760
 20
1.360480
  0
SEQEND
  8
0
  0
SOLID
  8
0
 62
    15
 10
7.384520
 20
1.334960
 11
7.381880
 21
2.071520
 12
7.407840
 22
1.303280
 13
7.405200
 23
2.039840
  0
POLYLINE
  8
0
  6
CONTINUOUS
 66
     1
 40
0.000000
 41
0.000000
  0
VERTEX
  8
0
  6
CONTINUOUS
 10
7.384520
 20
1.334960
  0
VERTEX
  8
0
  6
CONTINUOUS
 10
7.381880
 20
2.071520
  0
VERTEX
  8
0
  6
CONTINUOUS
 10
7.405200
 20
2.039840
  0
VERTEX
  8
0
  6
CONTINUOUS
 10
7.407840
 20
1.303280
  0
VERTEX
  8
0
  6
CONTINUOUS
 10
7.384520
 20
1.334960
  0
SEQEND
  8
0
  0
SOLID
  8
0
 62
    15
 10
7.407840
 20
1.303280
 11
7.405200
 21
2.039840
 12
7.430280
 22
1.265440
 13
7.427640
 23
2.002000
  0
POLYLINE
  8
0
  6
CONTINUOUS
 66
     1
 40
0.000000
 41
0.000000
  0
VERTEX
  8
0
  6
CONTINUOUS
 10
7.407840
 20
1.303280
  0
VERTEX
  8
0
  6
CONTINUOUS
 10
7.405200
 20
2.039840
  0
VERTEX
  8
0
  6
CONTINUOUS
 10
7.427640
 20
2.002000
  0
VERTEX
  8
0
  6
CONTINUOUS
 10
7.430280
 20
1.265440
  0
VERTEX
  8
0
  6
CONTINUOUS
 10
7.407840
 20
1.303280
  0
SEQEND
  8
0
  0
SOLID
  8
0
 62
    15
 10
7.430280
 20
1.265440
 11
7.427640
 21
2.002000
 12
7.451840
 22
1.221440
 13
7.449640
 23
1.958000
  0
POLYLINE
  8
0
  6
CONTINUOUS
 66
     1
 40
0.000000
 41
0.000000
  0
VERTEX
  8
0
  6
CONTINUOUS
 10
7.430280
 20
1.265440
  0
VERTEX
  8
0
  6
CONTINUOUS
 10
7.427640
 20
2.002000
  0
VERTEX
  8
0
  6
CONTINUOUS
 10
7.449640
 20
1.958000
  0
VERTEX
  8
0
  6
CONTINUOUS
 10
7.451840
 20
1.221440
  0
VERTEX
  8
0
  6
CONTINUOUS
 10
7.430280
 20
1.265440
  0
SEQEND
  8
0
  0
SOLID
  8
0
 62
    15
 10
7.451840
 20
1.221440
 11
7.449640
 21
1.958000
 12
7.472520
 22
1.170840
 13
7.470320
 23
1.907840
  0
POLYLINE
  8
0
  6
CONTINUOUS
 66
     1
 40
0.000000
 41
0.000000
  0
VERTEX
  8
0
  6
CONTINUOUS
 10
7.451840
 20
1.221440
  0
VERTEX
  8
0
  6
CONTINUOUS
 10
7.449640
 20
1.958000
  0
VERTEX
  8
0
  6
CONTINUOUS
 10
7.470320
 20
1.907840
  0
VERTEX
  8
0
  6
CONTINUOUS
 10
7.472520
 20
1.170840
  0
VERTEX
  8
0
  6
CONTINUOUS
 10
7.451840
 20
1.221440
  0
SEQEND
  8
0
  0
SOLID
  8
0
 62
    15
 10
7.472520
 20
1.170840
 11
7.470320
 21
1.907840
 12
7.492320
 22
1.113640
 13
7.490120
 23
1.850200
  0
POLYLINE
  8
0
  6
CONTINUOUS
 66
     1
 40
0.000000
 41
0.000000
  0
VERTEX
  8
0
  6
CONTINUOUS
 10
7.472520
 20
1.170840
  0
VERTEX
  8
0
  6
CONTINUOUS
 10
7.470320
 20
1.907840
  0
VERTEX
  8
0
  6
CONTINUOUS
 10
7.490120
 20
1.850200
  0
VERTEX
  8
0
  6
CONTINUOUS
 10
7.492320
 20
1.113640
  0
VERTEX
  8
0
  6
CONTINUOUS
 10
7.472520
 20
1.170840
  0
SEQEND
  8
0
  0
SOLID
  8
0
 62
    15
 10
7.492320
 20
1.113640
 11
7.490120
 21
1.850200
 12
7.510800
 22
1.049400
 13
7.508600
 23
1.786400
  0
POLYLINE
  8
0
  6
CONTINUOUS
 66
     1
 40
0.000000
 41
0.000000
  0
VERTEX
  8
0
  6
CONTINUOUS
 10
7.492320
 20
1.113640
  0
VERTEX
  8
0
  6
CONTINUOUS
 10
7.490120
 20
1.850200
  0
VERTEX
  8
0
  6
CONTINUOUS
 10
7.508600
 20
1.786400
  0
VERTEX
  8
0
  6
CONTINUOUS
 10
7.510800
 20
1.049400
  0
VERTEX
  8
0
  6
CONTINUOUS
 10
7.492320
 20
1.113640
  0
SEQEND
  8
0
  0
SOLID
  8
0
 62
    15
 10
7.510800
 20
1.049400
 11
7.508600
 21
1.786400
 12
7.513000
 22
1.045440
 13
7.510800
 23
1.782000
  0
POLYLINE
  8
0
  6
CONTINUOUS
 66
     1
 40
0.000000
 41
0.000000
  0
VERTEX
  8
0
  6
CONTINUOUS
 10
7.510800
 20
1.049400
  0
VERTEX
  8
0
  6
CONTINUOUS
 10
7.508600
 20
1.786400
  0
VERTEX
  8
0
  6
CONTINUOUS
 10
7.510800
 20
1.782000
  0
VERTEX
  8
0
  6
CONTINUOUS
 10
7.513000
 20
1.045440
  0
VERTEX
  8
0
  6
CONTINUOUS
 10
7.510800
 20
1.049400
  0
SEQEND
  8
0
  0
SOLID
  8
0
 62
    15
 10
7.513000
 20
1.045440
 11
7.510800
 21
1.782000
 12
7.516520
 22
1.039720
 13
7.513880
 23
1.776720
  0
POLYLINE
  8
0
  6
CONTINUOUS
 66
     1
 40
0.000000
 41
0.000000
  0
VERTEX
  8
0
  6
CONTINUOUS
 10
7.513000
 20
1.045440
  0
VERTEX
  8
0
  6
CONTINUOUS
 10
7.510800
 20
1.782000
  0
VERTEX
  8
0
  6
CONTINUOUS
 10
7.513880
 20
1.776720
  0
VERTEX
  8
0
  6
CONTINUOUS
 10
7.516520
 20
1.039720
  0
VERTEX
  8
0
  6
CONTINUOUS
 10
7.513000
 20
1.045440
  0
SEQEND
  8
0
  0
SOLID
  8
0
 62
    15
 10
7.138120
 20
1.355640
 11
7.135480
 21
2.092640
 12
7.140320
 22
1.361800
 13
7.137680
 23
2.098800
  0
POLYLINE
  8
0
  6
CONTINUOUS
 66
     1
 40
0.000000
 41
0.000000
  0
VERTEX
  8
0
  6
CONTINUOUS
 10
7.138120
 20
1.355640
  0
VERTEX
  8
0
  6
CONTINUOUS
 10
7.135480
 20
2.092640
  0
VERTEX
  8
0
  6
CONTINUOUS
 10
7.137680
 20
2.098800
  0
VERTEX
  8
0
  6
CONTINUOUS
 10
7.140320
 20
1.361800
  0
VERTEX
  8
0
  6
CONTINUOUS
 10
7.138120
 20
1.355640
  0
SEQEND
  8
0
  0
SOLID
  8
0
 62
     7
 10
7.521800
 20
1.037960
 11
7.519160
 21
1.774960
 12
7.528400
 22
1.039720
 13
7.525760
 23
1.776720
  0
POLYLINE
  8
0
  6
CONTINUOUS
 66
     1
 40
0.000000
 41
0.000000
  0
VERTEX
  8
0
  6
CONTINUOUS
 10
7.521800
 20
1.037960
  0
VERTEX
  8
0
  6
CONTINUOUS
 10
7.519160
 20
1.774960
  0
VERTEX
  8
0
  6
CONTINUOUS
 10
7.525760
 20
1.776720
  0
VERTEX
  8
0
  6
CONTINUOUS
 10
7.528400
 20
1.039720
  0
VERTEX
  8
0
  6
CONTINUOUS
 10
7.521800
 20
1.037960
  0
SEQEND
  8
0
  0
SOLID
  8
0
 62
     7
 10
7.528400
 20
1.039720
 11
7.525760
 21
1.776720
 12
7.535880
 22
1.043680
 13
7.533240
 23
1.780680
  0
POLYLINE
  8
0
  6
CONTINUOUS
 66
     1
 40
0.000000
 41
0.000000
  0
VERTEX
  8
0
  6
CONTINUOUS
 10
7.528400
 20
1.039720
  0
VERTEX
  8
0
  6
CONTINUOUS
 10
7.525760
 20
1.776720
  0
VERTEX
  8
0
  6
CONTINUOUS
 10
7.533240
 20
1.780680
  0
VERTEX
  8
0
  6
CONTINUOUS
 10
7.535880
 20
1.043680
  0
VERTEX
  8
0
  6
CONTINUOUS
 10
7.528400
 20
1.039720
  0
SEQEND
  8
0
  0
SOLID
  8
0
 62
     7
 10
7.535880
 20
1.043680
 11
7.533240
 21
1.780680
 12
7.550840
 22
1.056440
 13
7.548640
 23
1.793440
  0
POLYLINE
  8
0
  6
CONTINUOUS
 66
     1
 40
0.000000
 41
0.000000
  0
VERTEX
  8
0
  6
CONTINUOUS
 10
7.535880
 20
1.043680
  0
VERTEX
  8
0
  6
CONTINUOUS
 10
7.533240
 20
1.780680
  0
VERTEX
  8
0
  6
CONTINUOUS
 10
7.548640
 20
1.793440
  0
VERTEX
  8
0
  6
CONTINUOUS
 10
7.550840
 20
1.056440
  0
VERTEX
  8
0
  6
CONTINUOUS
 10
7.535880
 20
1.043680
  0
SEQEND
  8
0
  0
SOLID
  8
0
 62
     7
 10
7.550840
 20
1.056440
 11
7.548640
 21
1.793440
 12
7.563160
 22
1.070520
 13
7.560520
 23
1.807080
  0
POLYLINE
  8
0
  6
CONTINUOUS
 66
     1
 40
0.000000
 41
0.000000
  0
VERTEX
  8
0
  6
CONTINUOUS
 10
7.550840
 20
1.056440
  0
VERTEX
  8
0
  6
CONTINUOUS
 10
7.548640
 20
1.793440
  0
VERTEX
  8
0
  6
CONTINUOUS
 10
7.560520
 20
1.807080
  0
VERTEX
  8
0
  6
CONTINUOUS
 10
7.563160
 20
1.070520
  0
VERTEX
  8
0
  6
CONTINUOUS
 10
7.550840
 20
1.056440
  0
SEQEND
  8
0
  0
SOLID
  8
0
 62
    15
 10
7.563160
 20
1.070520
 11
7.560520
 21
1.807080
 12
7.570200
 22
1.081080
 13
7.568000
 23
1.818080
  0
POLYLINE
  8
0
  6
CONTINUOUS
 66
     1
 40
0.000000
 41
0.000000
  0
VERTEX
  8
0
  6
CONTINUOUS
 10
7.563160
 20
1.070520
  0
VERTEX
  8
0
  6
CONTINUOUS
 10
7.560520
 20
1.807080
  0
VERTEX
  8
0
  6
CONTINUOUS
 10
7.568000
 20
1.818080
  0
VERTEX
  8
0
  6
CONTINUOUS
 10
7.570200
 20
1.081080
  0
VERTEX
  8
0
  6
CONTINUOUS
 10
7.563160
 20
1.070520
  0
SEQEND
  8
0
  0
SOLID
  8
0
 62
    15
 10
7.570200
 20
1.081080
 11
7.568000
 21
1.818080
 12
7.575040
 22
1.089000
 13
7.572400
 23
1.826000
  0
POLYLINE
  8
0
  6
CONTINUOUS
 66
     1
 40
0.000000
 41
0.000000
  0
VERTEX
  8
0
  6
CONTINUOUS
 10
7.570200
 20
1.081080
  0
VERTEX
  8
0
  6
CONTINUOUS
 10
7.568000
 20
1.818080
  0
VERTEX
  8
0
  6
CONTINUOUS
 10
7.572400
 20
1.826000
  0
VERTEX
  8
0
  6
CONTINUOUS
 10
7.575040
 20
1.089000
  0
VERTEX
  8
0
  6
CONTINUOUS
 10
7.570200
 20
1.081080
  0
SEQEND
  8
0
  0
SOLID
  8
0
 62
    15
 10
7.575040
 20
1.089000
 11
7.572400
 21
1.826000
 12
7.580760
 22
1.097800
 13
7.578120
 23
1.834360
  0
POLYLINE
  8
0
  6
CONTINUOUS
 66
     1
 40
0.000000
 41
0.000000
  0
VERTEX
  8
0
  6
CONTINUOUS
 10
7.575040
 20
1.089000
  0
VERTEX
  8
0
  6
CONTINUOUS
 10
7.572400
 20
1.826000
  0
VERTEX
  8
0
  6
CONTINUOUS
 10
7.578120
 20
1.834360
  0
VERTEX
  8
0
  6
CONTINUOUS
 10
7.580760
 20
1.097800
  0
VERTEX
  8
0
  6
CONTINUOUS
 10
7.575040
 20
1.089000
  0
SEQEND
  8
0
  0
SOLID
  8
0
 62
     7
 10
7.580760
 20
1.097800
 11
7.578120
 21
1.834360
 12
7.594400
 22
1.114960
 13
7.592200
 23
1.851960
  0
POLYLINE
  8
0
  6
CONTINUOUS
 66
     1
 40
0.000000
 41
0.000000
  0
VERTEX
  8
0
  6
CONTINUOUS
 10
7.580760
 20
1.097800
  0
VERTEX
  8
0
  6
CONTINUOUS
 10
7.578120
 20
1.834360
  0
VERTEX
  8
0
  6
CONTINUOUS
 10
7.592200
 20
1.851960
  0
VERTEX
  8
0
  6
CONTINUOUS
 10
7.594400
 20
1.114960
  0
VERTEX
  8
0
  6
CONTINUOUS
 10
7.580760
 20
1.097800
  0
SEQEND
  8
0
  0
SOLID
  8
0
 62
     7
 10
7.594400
 20
1.114960
 11
7.592200
 21
1.851960
 12
7.611560
 22
1.128160
 13
7.608920
 23
1.865160
  0
POLYLINE
  8
0
  6
CONTINUOUS
 66
     1
 40
0.000000
 41
0.000000
  0
VERTEX
  8
0
  6
CONTINUOUS
 10
7.594400
 20
1.114960
  0
VERTEX
  8
0
  6
CONTINUOUS
 10
7.592200
 20
1.851960
  0
VERTEX
  8
0
  6
CONTINUOUS
 10
7.608920
 20
1.865160
  0
VERTEX
  8
0
  6
CONTINUOUS
 10
7.611560
 20
1.128160
  0
VERTEX
  8
0
  6
CONTINUOUS
 10
7.594400
 20
1.114960
  0
SEQEND
  8
0
  0
SOLID
  8
0
 62
     7
 10
7.611560
 20
1.128160
 11
7.608920
 21
1.865160
 12
7.621240
 22
1.131680
 13
7.619040
 23
1.868240
  0
POLYLINE
  8
0
  6
CONTINUOUS
 66
     1
 40
0.000000
 41
0.000000
  0
VERTEX
  8
0
  6
CONTINUOUS
 10
7.611560
 20
1.128160
  0
VERTEX
  8
0
  6
CONTINUOUS
 10
7.608920
 20
1.865160
  0
VERTEX
  8
0
  6
CONTINUOUS
 10
7.619040
 20
1.868240
  0
VERTEX
  8
0
  6
CONTINUOUS
 10
7.621240
 20
1.131680
  0
VERTEX
  8
0
  6
CONTINUOUS
 10
7.611560
 20
1.128160
  0
SEQEND
  8
0
  0
SOLID
  8
0
 62
    15
 10
7.621240
 20
1.131680
 11
7.619040
 21
1.868240
 12
7.631800
 22
1.132120
 13
7.629600
 23
1.869120
  0
POLYLINE
  8
0
  6
CONTINUOUS
 66
     1
 40
0.000000
 41
0.000000
  0
VERTEX
  8
0
  6
CONTINUOUS
 10
7.621240
 20
1.131680
  0
VERTEX
  8
0
  6
CONTINUOUS
 10
7.619040
 20
1.868240
  0
VERTEX
  8
0
  6
CONTINUOUS
 10
7.629600
 20
1.869120
  0
VERTEX
  8
0
  6
CONTINUOUS
 10
7.631800
 20
1.132120
  0
VERTEX
  8
0
  6
CONTINUOUS
 10
7.621240
 20
1.131680
  0
SEQEND
  8
0
  0
SOLID
  8
0
 62
    15
 10
7.631800
 20
1.132120
 11
7.629600
 21
1.869120
 12
7.643240
 22
1.129040
 13
7.641040
 23
1.866040
  0
POLYLINE
  8
0
  6
CONTINUOUS
 66
     1
 40
0.000000
 41
0.000000
  0
VERTEX
  8
0
  6
CONTINUOUS
 10
7.631800
 20
1.132120
  0
VERTEX
  8
0
  6
CONTINUOUS
 10
7.629600
 20
1.869120
  0
VERTEX
  8
0
  6
CONTINUOUS
 10
7.641040
 20
1.866040
  0
VERTEX
  8
0
  6
CONTINUOUS
 10
7.643240
 20
1.129040
  0
VERTEX
  8
0
  6
CONTINUOUS
 10
7.631800
 20
1.132120
  0
SEQEND
  8
0
  0
SOLID
  8
0
 62
    15
 10
7.643240
 20
1.129040
 11
7.641040
 21
1.866040
 12
7.655560
 22
1.122000
 13
7.653360
 23
1.858560
  0
POLYLINE
  8
0
  6
CONTINUOUS
 66
     1
 40
0.000000
 41
0.000000
  0
VERTEX
  8
0
  6
CONTINUOUS
 10
7.643240
 20
1.129040
  0
VERTEX
  8
0
  6
CONTINUOUS
 10
7.641040
 20
1.866040
  0
VERTEX
  8
0
  6
CONTINUOUS
 10
7.653360
 20
1.858560
  0
VERTEX
  8
0
  6
CONTINUOUS
 10
7.655560
 20
1.122000
  0
VERTEX
  8
0
  6
CONTINUOUS
 10
7.643240
 20
1.129040
  0
SEQEND
  8
0
  0
SOLID
  8
0
 62
    15
 10
7.655560
 20
1.122000
 11
7.653360
 21
1.858560
 12
7.668760
 22
1.110120
 13
7.666120
 23
1.846680
  0
POLYLINE
  8
0
  6
CONTINUOUS
 66
     1
 40
0.000000
 41
0.000000
  0
VERTEX
  8
0
  6
CONTINUOUS
 10
7.655560
 20
1.122000
  0
VERTEX
  8
0
  6
CONTINUOUS
 10
7.653360
 20
1.858560
  0
VERTEX
  8
0
  6
CONTINUOUS
 10
7.666120
 20
1.846680
  0
VERTEX
  8
0
  6
CONTINUOUS
 10
7.668760
 20
1.110120
  0
VERTEX
  8
0
  6
CONTINUOUS
 10
7.655560
 20
1.122000
  0
SEQEND
  8
0
  0
SOLID
  8
0
 62
    15
 10
7.668760
 20
1.110120
 11
7.666120
 21
1.846680
 12
7.682840
 22
1.092520
 13
7.680200
 23
1.829520
  0
POLYLINE
  8
0
  6
CONTINUOUS
 66
     1
 40
0.000000
 41
0.000000
  0
VERTEX
  8
0
  6
CONTINUOUS
 10
7.668760
 20
1.110120
  0
VERTEX
  8
0
  6
CONTINUOUS
 10
7.666120
 20
1.846680
  0
VERTEX
  8
0
  6
CONTINUOUS
 10
7.680200
 20
1.829520
  0
VERTEX
  8
0
  6
CONTINUOUS
 10
7.682840
 20
1.092520
  0
VERTEX
  8
0
  6
CONTINUOUS
 10
7.668760
 20
1.110120
  0
SEQEND
  8
0
  0
SOLID
  8
0
 62
    15
 10
7.682840
 20
1.092520
 11
7.680200
 21
1.829520
 12
7.697360
 22
1.069200
 13
7.695160
 23
1.806200
  0
POLYLINE
  8
0
  6
CONTINUOUS
 66
     1
 40
0.000000
 41
0.000000
  0
VERTEX
  8
0
  6
CONTINUOUS
 10
7.682840
 20
1.092520
  0
VERTEX
  8
0
  6
CONTINUOUS
 10
7.680200
 20
1.829520
  0
VERTEX
  8
0
  6
CONTINUOUS
 10
7.695160
 20
1.806200
  0
VERTEX
  8
0
  6
CONTINUOUS
 10
7.697360
 20
1.069200
  0
VERTEX
  8
0
  6
CONTINUOUS
 10
7.682840
 20
1.092520
  0
SEQEND
  8
0
  0
SOLID
  8
0
 62
    15
 10
7.697360
 20
1.069200
 11
7.695160
 21
1.806200
 12
7.713200
 22
1.039280
 13
7.710560
 23
1.775840
  0
POLYLINE
  8
0
  6
CONTINUOUS
 66
     1
 40
0.000000
 41
0.000000
  0
VERTEX
  8
0
  6
CONTINUOUS
 10
7.697360
 20
1.069200
  0
VERTEX
  8
0
  6
CONTINUOUS
 10
7.695160
 20
1.806200
  0
VERTEX
  8
0
  6
CONTINUOUS
 10
7.710560
 20
1.775840
  0
VERTEX
  8
0
  6
CONTINUOUS
 10
7.713200
 20
1.039280
  0
VERTEX
  8
0
  6
CONTINUOUS
 10
7.697360
 20
1.069200
  0
SEQEND
  8
0
  0
SOLID
  8
0
 62
    15
 10
7.825400
 20
0.907720
 11
7.823200
 21
1.644720
 12
7.825840
 22
0.907720
 13
7.823640
 23
1.644720
  0
POLYLINE
  8
0
  6
CONTINUOUS
 66
     1
 40
0.000000
 41
0.000000
  0
VERTEX
  8
0
  6
CONTINUOUS
 10
7.825400
 20
0.907720
  0
VERTEX
  8
0
  6
CONTINUOUS
 10
7.823200
 20
1.644720
  0
VERTEX
  8
0
  6
CONTINUOUS
 10
7.823640
 20
1.644720
  0
VERTEX
  8
0
  6
CONTINUOUS
 10
7.825840
 20
0.907720
  0
VERTEX
  8
0
  6
CONTINUOUS
 10
7.825400
 20
0.907720
  0
SEQEND
  8
0
  0
SOLID
  8
0
 62
    15
 10
7.713200
 20
1.039280
 11
7.710560
 21
1.775840
 12
7.825400
 22
1.039280
 13
7.823200
 23
1.775840
  0
POLYLINE
  8
0
  6
CONTINUOUS
 66
     1
 40
0.000000
 41
0.000000
  0
VERTEX
  8
0
  6
CONTINUOUS
 10
7.713200
 20
1.039280
  0
VERTEX
  8
0
  6
CONTINUOUS
 10
7.710560
 20
1.775840
  0
VERTEX
  8
0
  6
CONTINUOUS
 10
7.823200
 20
1.775840
  0
VERTEX
  8
0
  6
CONTINUOUS
 10
7.825400
 20
1.039280
  0
VERTEX
  8
0
  6
CONTINUOUS
 10
7.713200
 20
1.039280
  0
SEQEND
  8
0
  0
POLYLINE
  8
0
  6
CONTINUOUS
 66
     1
 40
0.000000
 41
0.000000
  0
VERTEX
  8
0
  6
CONTINUOUS
 10
7.825840
 20
0.907720
  0
VERTEX
  8
0
  6
CONTINUOUS
 10
7.138120
 20
0.907720
  0
VERTEX
  8
0
  6
CONTINUOUS
 10
7.138120
 20
1.355640
  0
VERTEX
  8
0
  6
CONTINUOUS
 10
7.140320
 20
1.361800
  0
VERTEX
  8
0
  6
CONTINUOUS
 10
7.163640
 20
1.379840
  0
VERTEX
  8
0
  6
CONTINUOUS
 10
7.187840
 20
1.393920
  0
VERTEX
  8
0
  6
CONTINUOUS
 10
7.212480
 20
1.403600
  0
VERTEX
  8
0
  6
CONTINUOUS
 10
7.237560
 20
1.408880
  0
VERTEX
  8
0
  6
CONTINUOUS
 10
7.262200
 20
1.409320
  0
VERTEX
  8
0
  6
CONTINUOUS
 10
7.287280
 20
1.404920
  0
VERTEX
  8
0
  6
CONTINUOUS
 10
7.311920
 20
1.395240
  0
VERTEX
  8
0
  6
CONTINUOUS
 10
7.336560
 20
1.380720
  0
VERTEX
  8
0
  6
CONTINUOUS
 10
7.360760
 20
1.360480
  0
VERTEX
  8
0
  6
CONTINUOUS
 10
7.384520
 20
1.334960
  0
VERTEX
  8
0
  6
CONTINUOUS
 10
7.407840
 20
1.303280
  0
VERTEX
  8
0
  6
CONTINUOUS
 10
7.430280
 20
1.265440
  0
VERTEX
  8
0
  6
CONTINUOUS
 10
7.451840
 20
1.221440
  0
VERTEX
  8
0
  6
CONTINUOUS
 10
7.472520
 20
1.170840
  0
VERTEX
  8
0
  6
CONTINUOUS
 10
7.492320
 20
1.113640
  0
VERTEX
  8
0
  6
CONTINUOUS
 10
7.510800
 20
1.049400
  0
VERTEX
  8
0
  6
CONTINUOUS
 10
7.513000
 20
1.045440
  0
VERTEX
  8
0
  6
CONTINUOUS
 10
7.516520
 20
1.039720
  0
VERTEX
  8
0
  6
CONTINUOUS
 10
7.521800
 20
1.037960
  0
VERTEX
  8
0
  6
CONTINUOUS
 10
7.528400
 20
1.039720
  0
VERTEX
  8
0
  6
CONTINUOUS
 10
7.535880
 20
1.043680
  0
VERTEX
  8
0
  6
CONTINUOUS
 10
7.550840
 20
1.056440
  0
VERTEX
  8
0
  6
CONTINUOUS
 10
7.563160
 20
1.070520
  0
VERTEX
  8
0
  6
CONTINUOUS
 10
7.570200
 20
1.081080
  0
VERTEX
  8
0
  6
CONTINUOUS
 10
7.575040
 20
1.089000
  0
VERTEX
  8
0
  6
CONTINUOUS
 10
7.580760
 20
1.097800
  0
VERTEX
  8
0
  6
CONTINUOUS
 10
7.594400
 20
1.114960
  0
VERTEX
  8
0
  6
CONTINUOUS
 10
7.611560
 20
1.128160
  0
VERTEX
  8
0
  6
CONTINUOUS
 10
7.621240
 20
1.131680
  0
VERTEX
  8
0
  6
CONTINUOUS
 10
7.631800
 20
1.132120
  0
VERTEX
  8
0
  6
CONTINUOUS
 10
7.643240
 20
1.129040
  0
VERTEX
  8
0
  6
CONTINUOUS
 10
7.655560
 20
1.122000
  0
VERTEX
  8
0
  6
CONTINUOUS
 10
7.668760
 20
1.110120
  0
VERTEX
  8
0
  6
CONTINUOUS
 10
7.682840
 20
1.092520
  0
VERTEX
  8
0
  6
CONTINUOUS
 10
7.697360
 20
1.069200
  0
VERTEX
  8
0
  6
CONTINUOUS
 10
7.713200
 20
1.039280
  0
VERTEX
  8
0
  6
CONTINUOUS
 10
7.825400
 20
1.039280
  0
VERTEX
  8
0
  6
CONTINUOUS
 10
7.825400
 20
0.907720
  0
VERTEX
  8
0
  6
CONTINUOUS
 10
7.825840
 20
0.907720
  0
SEQEND
  8
0
  0
TEXT
  8
0
 10
7.185640
 20
0.716320
 40
0.138087
  1
BA  322
 41
1.000000
  7
SN0
 71
     0
 72
     5
 11
7.775628
 21
0.716320
  0
TEXT
  8
0
 10
7.010960
 20
0.524480
 40
0.138087
  1
1/2" x 11/16"
 41
1.000000
  7
SN0
 71
     0
 72
     5
 11
7.948246
 21
0.524480
  0
ENDSEC
  0
EOF
