  0
SECTION
  2
HEADER
  9
$ACADVER
  1
AC1006
  9
$EXTMIN
 10
3.486120
 20
0.516560
  9
$EXTMAX
 10
7.779200
 20
4.286480
  9
$LTSCALE
 40
0.044000
  9
$PDMODE
 70
    35
  9
$PDSIZE
 40
0.035200
  0
ENDSEC
  0
SECTION
  2
TABLES
  0
TABLE
  2
LTYPE
 70
     9
  0
LTYPE
  2
CONTINUOUS
 70
    64
  3
Solid line
 72
    65
 73
     0
 40
0.000000
  0
LTYPE
  2
DASHED
 70
    64
  3
__ __ __ __ __ __ __ __ __ __ __ __ __ __ __
 72
    65
 73
     2
 40
0.000330
 49
0.000220
 49
-0.000110
  0
LTYPE
  2
HIDDEN
 70
    64
  3
 _ _ _ _ _ _ _ _ _ _ _ _ _ _ _ _ _ _ _ _ _ _
 72
    65
 73
     2
 40
0.000165
 49
0.000110
 49
-0.000055
  0
LTYPE
  2
CENTER
 70
    64
  3
____ _ ____ _ ____ _ ____ _ ____ _ ____ _ ____
 72
    65
 73
     4
 40
0.000880
 49
0.000550
 49
-0.000110
 49
0.000110
 49
-0.000110
  0
LTYPE
  2
PHANTOM
 70
    64
  3
_____ _ _ _____ _ _ _____ _ _ _____ _ _ ____
 72
    65
 73
     6
 40
0.001100
 49
0.000550
 49
-0.000110
 49
0.000110
 49
-0.000110
 49
0.000110
 49
-0.000110
  0
LTYPE
  2
DOT
 70
    64
  3
...............................................
 72
    65
 73
     2
 40
0.000110
 49
0.000000
 49
-0.000110
  0
LTYPE
  2
DASHDOT
 70
    64
  3
__ . __ . __ . __ . __ . __ . __ . __ . __ . __
 72
    65
 73
     4
 40
0.000440
 49
0.000220
 49
-0.000110
 49
0.000000
 49
-0.000110
  0
LTYPE
  2
BORDER
 70
    64
  3
__ __ . __ __ . __ __ . __ __ . __ __ . __ __
 72
    65
 73
     6
 40
0.000770
 49
0.000220
 49
-0.000110
 49
0.000220
 49
-0.000110
 49
0.000000
 49
-0.000110
  0
LTYPE
  2
DIVIDE
 70
    64
  3
__ . . __ . . __ . . __ . . __ . . __ . . __
 72
    65
 73
     6
 40
0.000550
 49
0.000220
 49
-0.000110
 49
0.000000
 49
-0.000110
 49
0.000000
 49
-0.000110
  0
LTYPE
  2
DOTDOT
 70
    64
  3
 . .  . .  . .  . .  . .  . . 
 72
    65
 73
     5
 40
0.000242
 49
-0.000110
 49
0.000000
 49
-0.000110
 49
0.000000
 49
-0.000110
  0
ENDTAB
  0
TABLE
  2
STYLE
 70
     2
  0
STYLE
 70
     0
  2
SN0
 40
0.000000
 41
0.000440
 50
0.000000
 71
     0
 42
0.000000
  3
ROMAND
  0
STYLE
 70
    68
  2
SV0
 40
0.000000
 41
0.000440
 50
0.000000
 71
     0
 42
0.000000
  3
ROMAND
  0
ENDTAB
  0
TABLE
  2
LAYER
 70
     3
  0
LAYER
  2
FOREGROUND
 70
    64
 62
     7
  6
CONTINUOUS
  0
LAYER
  2
BACKGROUND
 70
    65
 62
    -7
  6
CONTINUOUS
  0
LAYER
  2
0
 70
    64
 62
     7
  6
CONTINUOUS
  0
ENDTAB
  0
ENDSEC
  0
SECTION
  2
ENTITIES
  0
POLYLINE
  8
FOREGROUND
  6
CONTINUOUS
 66
     1
 40
0.000000
 41
0.000000
  0
VERTEX
  8
FOREGROUND
  6
CONTINUOUS
 10
0.000000
 20
4.803040
  0
VERTEX
  8
FOREGROUND
  6
CONTINUOUS
 10
8.499920
 20
4.803040
  0
VERTEX
  8
FOREGROUND
  6
CONTINUOUS
 10
8.499920
 20
-6.196960
  0
VERTEX
  8
FOREGROUND
  6
CONTINUOUS
 10
0.000000
 20
-6.196960
  0
VERTEX
  8
FOREGROUND
  6
CONTINUOUS
 10
0.000000
 20
4.803040
  0
SEQEND
  8
0
  0
POLYLINE
  8
FOREGROUND
  6
CONTINUOUS
 66
     1
 40
0.000000
 41
0.000000
  0
VERTEX
  8
FOREGROUND
  6
CONTINUOUS
 10
0.000000
 20
4.803040
  0
VERTEX
  8
FOREGROUND
  6
CONTINUOUS
 10
8.499920
 20
4.803040
  0
VERTEX
  8
FOREGROUND
  6
CONTINUOUS
 10
8.499920
 20
-6.196960
  0
VERTEX
  8
FOREGROUND
  6
CONTINUOUS
 10
0.000000
 20
-6.196960
  0
VERTEX
  8
FOREGROUND
  6
CONTINUOUS
 10
0.000000
 20
4.803040
  0
SEQEND
  8
0
  0
POLYLINE
  8
0
  6
CONTINUOUS
 66
     1
 40
0.014080
 41
0.014080
  0
VERTEX
  8
0
  6
CONTINUOUS
 10
3.945920
 20
4.118400
  0
VERTEX
  8
0
  6
CONTINUOUS
 10
3.980240
 20
4.155800
  0
VERTEX
  8
0
  6
CONTINUOUS
 10
4.013240
 20
4.183960
  0
VERTEX
  8
0
  6
CONTINUOUS
 10
4.045800
 20
4.203320
  0
VERTEX
  8
0
  6
CONTINUOUS
 10
4.061200
 20
4.209920
  0
VERTEX
  8
0
  6
CONTINUOUS
 10
4.092000
 20
4.217400
  0
VERTEX
  8
0
  6
CONTINUOUS
 10
4.121040
 20
4.217840
  0
VERTEX
  8
0
  6
CONTINUOUS
 10
4.135560
 20
4.216080
  0
VERTEX
  8
0
  6
CONTINUOUS
 10
4.163280
 20
4.207720
  0
VERTEX
  8
0
  6
CONTINUOUS
 10
4.189680
 20
4.194520
  0
VERTEX
  8
0
  6
CONTINUOUS
 10
4.214760
 20
4.176920
  0
VERTEX
  8
0
  6
CONTINUOUS
 10
4.249960
 20
4.144360
  0
VERTEX
  8
0
  6
CONTINUOUS
 10
4.282080
 20
4.106520
  0
VERTEX
  8
0
  6
CONTINUOUS
 10
4.301880
 20
4.080120
  0
VERTEX
  8
0
  6
CONTINUOUS
 10
4.391640
 20
3.936240
  0
VERTEX
  8
0
  6
CONTINUOUS
 10
4.433880
 20
3.879920
  0
VERTEX
  8
0
  6
CONTINUOUS
 10
4.475240
 20
3.832840
  0
VERTEX
  8
0
  6
CONTINUOUS
 10
4.513520
 20
3.796760
  0
VERTEX
  8
0
  6
CONTINUOUS
 10
4.545640
 20
3.773440
  0
VERTEX
  8
0
  6
CONTINUOUS
 10
4.554440
 20
3.768600
  0
VERTEX
  8
0
  6
CONTINUOUS
 10
4.570720
 20
3.769480
  0
VERTEX
  8
0
  6
CONTINUOUS
 10
4.579080
 20
3.774320
  0
VERTEX
  8
0
  6
CONTINUOUS
 10
4.587440
 20
3.784440
  0
VERTEX
  8
0
  6
CONTINUOUS
 10
4.599320
 20
3.822280
  0
VERTEX
  8
0
  6
CONTINUOUS
 10
4.612080
 20
3.847360
  0
VERTEX
  8
0
  6
CONTINUOUS
 10
4.629240
 20
3.869360
  0
VERTEX
  8
0
  6
CONTINUOUS
 10
4.638920
 20
3.879920
  0
VERTEX
  8
0
  6
CONTINUOUS
 10
4.661360
 20
3.897520
  0
VERTEX
  8
0
  6
CONTINUOUS
 10
4.686880
 20
3.912040
  0
VERTEX
  8
0
  6
CONTINUOUS
 10
4.714160
 20
3.921720
  0
VERTEX
  8
0
  6
CONTINUOUS
 10
4.743200
 20
3.927440
  0
VERTEX
  8
0
  6
CONTINUOUS
 10
4.772680
 20
3.927440
  0
VERTEX
  8
0
  6
CONTINUOUS
 10
4.802160
 20
3.921720
  0
VERTEX
  8
0
  6
CONTINUOUS
 10
4.816680
 20
3.916880
  0
VERTEX
  8
0
  6
CONTINUOUS
 10
4.845280
 20
3.901480
  0
VERTEX
  8
0
  6
CONTINUOUS
 10
4.872120
 20
3.879480
  0
VERTEX
  8
0
  6
CONTINUOUS
 10
4.896760
 20
3.849560
  0
VERTEX
  8
0
  6
CONTINUOUS
 10
4.918320
 20
3.812160
  0
VERTEX
  8
0
  6
CONTINUOUS
 10
4.932400
 20
3.777840
  0
VERTEX
  8
0
  6
CONTINUOUS
 10
4.943840
 20
3.739120
  0
VERTEX
  8
0
  6
CONTINUOUS
 10
4.950000
 20
3.710080
  0
VERTEX
  8
0
  6
CONTINUOUS
 10
4.952200
 20
3.710080
  0
VERTEX
  8
0
  6
CONTINUOUS
 10
4.952200
 20
3.706120
  0
VERTEX
  8
0
  6
CONTINUOUS
 10
5.045920
 20
3.706120
  0
VERTEX
  8
0
  6
CONTINUOUS
 10
5.045920
 20
3.608000
  0
VERTEX
  8
0
  6
CONTINUOUS
 10
6.364600
 20
3.608440
  0
VERTEX
  8
0
  6
CONTINUOUS
 10
6.374280
 20
3.658600
  0
VERTEX
  8
0
  6
CONTINUOUS
 10
6.382640
 20
3.689400
  0
VERTEX
  8
0
  6
CONTINUOUS
 10
6.399800
 20
3.728560
  0
VERTEX
  8
0
  6
CONTINUOUS
 10
6.416520
 20
3.750560
  0
VERTEX
  8
0
  6
CONTINUOUS
 10
6.425760
 20
3.758920
  0
VERTEX
  8
0
  6
CONTINUOUS
 10
6.446440
 20
3.770800
  0
VERTEX
  8
0
  6
CONTINUOUS
 10
6.469760
 20
3.778280
  0
VERTEX
  8
0
  6
CONTINUOUS
 10
6.496160
 20
3.782240
  0
VERTEX
  8
0
  6
CONTINUOUS
 10
6.510680
 20
3.783120
  0
VERTEX
  8
0
  6
CONTINUOUS
 10
6.518600
 20
3.817440
  0
VERTEX
  8
0
  6
CONTINUOUS
 10
6.530920
 20
3.847800
  0
VERTEX
  8
0
  6
CONTINUOUS
 10
6.541040
 20
3.866280
  0
VERTEX
  8
0
  6
CONTINUOUS
 10
6.552920
 20
3.883000
  0
VERTEX
  8
0
  6
CONTINUOUS
 10
6.566120
 20
3.897960
  0
VERTEX
  8
0
  6
CONTINUOUS
 10
6.596480
 20
3.923480
  0
VERTEX
  8
0
  6
CONTINUOUS
 10
6.631240
 20
3.942840
  0
VERTEX
  8
0
  6
CONTINUOUS
 10
6.668200
 20
3.955600
  0
VERTEX
  8
0
  6
CONTINUOUS
 10
6.688000
 20
3.960000
  0
VERTEX
  8
0
  6
CONTINUOUS
 10
6.727600
 20
3.963960
  0
VERTEX
  8
0
  6
CONTINUOUS
 10
6.747400
 20
3.963960
  0
VERTEX
  8
0
  6
CONTINUOUS
 10
6.786560
 20
3.959560
  0
VERTEX
  8
0
  6
CONTINUOUS
 10
6.824400
 20
3.949000
  0
VERTEX
  8
0
  6
CONTINUOUS
 10
6.842000
 20
3.941960
  0
VERTEX
  8
0
  6
CONTINUOUS
 10
6.875440
 20
3.923040
  0
VERTEX
  8
0
  6
CONTINUOUS
 10
6.890400
 20
3.911600
  0
VERTEX
  8
0
  6
CONTINUOUS
 10
6.916800
 20
3.884760
  0
VERTEX
  8
0
  6
CONTINUOUS
 10
6.927360
 20
3.869360
  0
VERTEX
  8
0
  6
CONTINUOUS
 10
6.936600
 20
3.852640
  0
VERTEX
  8
0
  6
CONTINUOUS
 10
6.944080
 20
3.834600
  0
VERTEX
  8
0
  6
CONTINUOUS
 10
6.951560
 20
3.805120
  0
VERTEX
  8
0
  6
CONTINUOUS
 10
6.954200
 20
3.770800
  0
VERTEX
  8
0
  6
CONTINUOUS
 10
6.954200
 20
3.224760
  0
VERTEX
  8
0
  6
CONTINUOUS
 10
3.494040
 20
3.224760
  0
VERTEX
  8
0
  6
CONTINUOUS
 10
3.494040
 20
4.279000
  0
VERTEX
  8
0
  6
CONTINUOUS
 10
3.895760
 20
4.245560
  0
VERTEX
  8
0
  6
CONTINUOUS
 10
3.929200
 20
4.116640
  0
VERTEX
  8
0
  6
CONTINUOUS
 10
3.941960
 20
4.114440
  0
VERTEX
  8
0
  6
CONTINUOUS
 10
3.945920
 20
4.118400
  0
SEQEND
  8
0
  0
SOLID
  8
0
 62
    15
 10
5.742880
 20
1.572120
 11
5.743320
 21
2.319240
 12
5.760920
 22
1.525920
 13
5.761360
 23
2.273040
  0
POLYLINE
  8
0
  6
CONTINUOUS
 66
     1
 40
0.000000
 41
0.000000
  0
VERTEX
  8
0
  6
CONTINUOUS
 10
5.742880
 20
1.572120
  0
VERTEX
  8
0
  6
CONTINUOUS
 10
5.743320
 20
2.319240
  0
VERTEX
  8
0
  6
CONTINUOUS
 10
5.761360
 20
2.273040
  0
VERTEX
  8
0
  6
CONTINUOUS
 10
5.760920
 20
1.525920
  0
VERTEX
  8
0
  6
CONTINUOUS
 10
5.742880
 20
1.572120
  0
SEQEND
  8
0
  0
SOLID
  8
0
 62
    15
 10
4.804800
 20
1.916200
 11
4.805240
 21
2.663320
 12
4.838240
 22
1.944360
 13
4.838240
 23
2.691480
  0
POLYLINE
  8
0
  6
CONTINUOUS
 66
     1
 40
0.000000
 41
0.000000
  0
VERTEX
  8
0
  6
CONTINUOUS
 10
4.804800
 20
1.916200
  0
VERTEX
  8
0
  6
CONTINUOUS
 10
4.805240
 20
2.663320
  0
VERTEX
  8
0
  6
CONTINUOUS
 10
4.838240
 20
2.691480
  0
VERTEX
  8
0
  6
CONTINUOUS
 10
4.838240
 20
1.944360
  0
VERTEX
  8
0
  6
CONTINUOUS
 10
4.804800
 20
1.916200
  0
SEQEND
  8
0
  0
SOLID
  8
0
 62
    15
 10
4.838240
 20
1.944360
 11
4.838240
 21
2.691480
 12
4.870360
 22
1.963280
 13
4.870360
 23
2.710400
  0
POLYLINE
  8
0
  6
CONTINUOUS
 66
     1
 40
0.000000
 41
0.000000
  0
VERTEX
  8
0
  6
CONTINUOUS
 10
4.838240
 20
1.944360
  0
VERTEX
  8
0
  6
CONTINUOUS
 10
4.838240
 20
2.691480
  0
VERTEX
  8
0
  6
CONTINUOUS
 10
4.870360
 20
2.710400
  0
VERTEX
  8
0
  6
CONTINUOUS
 10
4.870360
 20
1.963280
  0
VERTEX
  8
0
  6
CONTINUOUS
 10
4.838240
 20
1.944360
  0
SEQEND
  8
0
  0
SOLID
  8
0
 62
    15
 10
4.870360
 20
1.963280
 11
4.870360
 21
2.710400
 12
4.901600
 22
1.974720
 13
4.901600
 23
2.721840
  0
POLYLINE
  8
0
  6
CONTINUOUS
 66
     1
 40
0.000000
 41
0.000000
  0
VERTEX
  8
0
  6
CONTINUOUS
 10
4.870360
 20
1.963280
  0
VERTEX
  8
0
  6
CONTINUOUS
 10
4.870360
 20
2.710400
  0
VERTEX
  8
0
  6
CONTINUOUS
 10
4.901600
 20
2.721840
  0
VERTEX
  8
0
  6
CONTINUOUS
 10
4.901600
 20
1.974720
  0
VERTEX
  8
0
  6
CONTINUOUS
 10
4.870360
 20
1.963280
  0
SEQEND
  8
0
  0
SOLID
  8
0
 62
    15
 10
4.901600
 20
1.974720
 11
4.901600
 21
2.721840
 12
4.931520
 22
1.978680
 13
4.931520
 23
2.725800
  0
POLYLINE
  8
0
  6
CONTINUOUS
 66
     1
 40
0.000000
 41
0.000000
  0
VERTEX
  8
0
  6
CONTINUOUS
 10
4.901600
 20
1.974720
  0
VERTEX
  8
0
  6
CONTINUOUS
 10
4.901600
 20
2.721840
  0
VERTEX
  8
0
  6
CONTINUOUS
 10
4.931520
 20
2.725800
  0
VERTEX
  8
0
  6
CONTINUOUS
 10
4.931520
 20
1.978680
  0
VERTEX
  8
0
  6
CONTINUOUS
 10
4.901600
 20
1.974720
  0
SEQEND
  8
0
  0
SOLID
  8
0
 62
    15
 10
4.931520
 20
1.978680
 11
4.931520
 21
2.725800
 12
4.960120
 22
1.976040
 13
4.960560
 23
2.723160
  0
POLYLINE
  8
0
  6
CONTINUOUS
 66
     1
 40
0.000000
 41
0.000000
  0
VERTEX
  8
0
  6
CONTINUOUS
 10
4.931520
 20
1.978680
  0
VERTEX
  8
0
  6
CONTINUOUS
 10
4.931520
 20
2.725800
  0
VERTEX
  8
0
  6
CONTINUOUS
 10
4.960560
 20
2.723160
  0
VERTEX
  8
0
  6
CONTINUOUS
 10
4.960120
 20
1.976040
  0
VERTEX
  8
0
  6
CONTINUOUS
 10
4.931520
 20
1.978680
  0
SEQEND
  8
0
  0
SOLID
  8
0
 62
    15
 10
4.960120
 20
1.976040
 11
4.960560
 21
2.723160
 12
4.987840
 22
1.967680
 13
4.988280
 23
2.714800
  0
POLYLINE
  8
0
  6
CONTINUOUS
 66
     1
 40
0.000000
 41
0.000000
  0
VERTEX
  8
0
  6
CONTINUOUS
 10
4.960120
 20
1.976040
  0
VERTEX
  8
0
  6
CONTINUOUS
 10
4.960560
 20
2.723160
  0
VERTEX
  8
0
  6
CONTINUOUS
 10
4.988280
 20
2.714800
  0
VERTEX
  8
0
  6
CONTINUOUS
 10
4.987840
 20
1.967680
  0
VERTEX
  8
0
  6
CONTINUOUS
 10
4.960120
 20
1.976040
  0
SEQEND
  8
0
  0
SOLID
  8
0
 62
    15
 10
4.987840
 20
1.967680
 11
4.988280
 21
2.714800
 12
5.014240
 22
1.954480
 13
5.014680
 23
2.701600
  0
POLYLINE
  8
0
  6
CONTINUOUS
 66
     1
 40
0.000000
 41
0.000000
  0
VERTEX
  8
0
  6
CONTINUOUS
 10
4.987840
 20
1.967680
  0
VERTEX
  8
0
  6
CONTINUOUS
 10
4.988280
 20
2.714800
  0
VERTEX
  8
0
  6
CONTINUOUS
 10
5.014680
 20
2.701600
  0
VERTEX
  8
0
  6
CONTINUOUS
 10
5.014240
 20
1.954480
  0
VERTEX
  8
0
  6
CONTINUOUS
 10
4.987840
 20
1.967680
  0
SEQEND
  8
0
  0
SOLID
  8
0
 62
    15
 10
5.014240
 20
1.954480
 11
5.014680
 21
2.701600
 12
5.063520
 22
1.916200
 13
5.063520
 23
2.663320
  0
POLYLINE
  8
0
  6
CONTINUOUS
 66
     1
 40
0.000000
 41
0.000000
  0
VERTEX
  8
0
  6
CONTINUOUS
 10
5.014240
 20
1.954480
  0
VERTEX
  8
0
  6
CONTINUOUS
 10
5.014680
 20
2.701600
  0
VERTEX
  8
0
  6
CONTINUOUS
 10
5.063520
 20
2.663320
  0
VERTEX
  8
0
  6
CONTINUOUS
 10
5.063520
 20
1.916200
  0
VERTEX
  8
0
  6
CONTINUOUS
 10
5.014240
 20
1.954480
  0
SEQEND
  8
0
  0
SOLID
  8
0
 62
    15
 10
5.063520
 20
1.916200
 11
5.063520
 21
2.663320
 12
5.107080
 22
1.866920
 13
5.107080
 23
2.614040
  0
POLYLINE
  8
0
  6
CONTINUOUS
 66
     1
 40
0.000000
 41
0.000000
  0
VERTEX
  8
0
  6
CONTINUOUS
 10
5.063520
 20
1.916200
  0
VERTEX
  8
0
  6
CONTINUOUS
 10
5.063520
 20
2.663320
  0
VERTEX
  8
0
  6
CONTINUOUS
 10
5.107080
 20
2.614040
  0
VERTEX
  8
0
  6
CONTINUOUS
 10
5.107080
 20
1.866920
  0
VERTEX
  8
0
  6
CONTINUOUS
 10
5.063520
 20
1.916200
  0
SEQEND
  8
0
  0
SOLID
  8
0
 62
    15
 10
5.107080
 20
1.866920
 11
5.107080
 21
2.614040
 12
5.144920
 22
1.812800
 13
5.144920
 23
2.559920
  0
POLYLINE
  8
0
  6
CONTINUOUS
 66
     1
 40
0.000000
 41
0.000000
  0
VERTEX
  8
0
  6
CONTINUOUS
 10
5.107080
 20
1.866920
  0
VERTEX
  8
0
  6
CONTINUOUS
 10
5.107080
 20
2.614040
  0
VERTEX
  8
0
  6
CONTINUOUS
 10
5.144920
 20
2.559920
  0
VERTEX
  8
0
  6
CONTINUOUS
 10
5.144920
 20
1.812800
  0
VERTEX
  8
0
  6
CONTINUOUS
 10
5.107080
 20
1.866920
  0
SEQEND
  8
0
  0
SOLID
  8
0
 62
    15
 10
5.144920
 20
1.812800
 11
5.144920
 21
2.559920
 12
5.176600
 22
1.760000
 13
5.177040
 23
2.507120
  0
POLYLINE
  8
0
  6
CONTINUOUS
 66
     1
 40
0.000000
 41
0.000000
  0
VERTEX
  8
0
  6
CONTINUOUS
 10
5.144920
 20
1.812800
  0
VERTEX
  8
0
  6
CONTINUOUS
 10
5.144920
 20
2.559920
  0
VERTEX
  8
0
  6
CONTINUOUS
 10
5.177040
 20
2.507120
  0
VERTEX
  8
0
  6
CONTINUOUS
 10
5.176600
 20
1.760000
  0
VERTEX
  8
0
  6
CONTINUOUS
 10
5.144920
 20
1.812800
  0
SEQEND
  8
0
  0
SOLID
  8
0
 62
    15
 10
5.176600
 20
1.760000
 11
5.177040
 21
2.507120
 12
5.230280
 22
1.676840
 13
5.230720
 23
2.423960
  0
POLYLINE
  8
0
  6
CONTINUOUS
 66
     1
 40
0.000000
 41
0.000000
  0
VERTEX
  8
0
  6
CONTINUOUS
 10
5.176600
 20
1.760000
  0
VERTEX
  8
0
  6
CONTINUOUS
 10
5.177040
 20
2.507120
  0
VERTEX
  8
0
  6
CONTINUOUS
 10
5.230720
 20
2.423960
  0
VERTEX
  8
0
  6
CONTINUOUS
 10
5.230280
 20
1.676840
  0
VERTEX
  8
0
  6
CONTINUOUS
 10
5.176600
 20
1.760000
  0
SEQEND
  8
0
  0
SOLID
  8
0
 62
    15
 10
5.230280
 20
1.676840
 11
5.230720
 21
2.423960
 12
5.286600
 22
1.607760
 13
5.286600
 23
2.354880
  0
POLYLINE
  8
0
  6
CONTINUOUS
 66
     1
 40
0.000000
 41
0.000000
  0
VERTEX
  8
0
  6
CONTINUOUS
 10
5.230280
 20
1.676840
  0
VERTEX
  8
0
  6
CONTINUOUS
 10
5.230720
 20
2.423960
  0
VERTEX
  8
0
  6
CONTINUOUS
 10
5.286600
 20
2.354880
  0
VERTEX
  8
0
  6
CONTINUOUS
 10
5.286600
 20
1.607760
  0
VERTEX
  8
0
  6
CONTINUOUS
 10
5.230280
 20
1.676840
  0
SEQEND
  8
0
  0
SOLID
  8
0
 62
    15
 10
5.286600
 20
1.607760
 11
5.286600
 21
2.354880
 12
5.313440
 22
1.579600
 13
5.313440
 23
2.326720
  0
POLYLINE
  8
0
  6
CONTINUOUS
 66
     1
 40
0.000000
 41
0.000000
  0
VERTEX
  8
0
  6
CONTINUOUS
 10
5.286600
 20
1.607760
  0
VERTEX
  8
0
  6
CONTINUOUS
 10
5.286600
 20
2.354880
  0
VERTEX
  8
0
  6
CONTINUOUS
 10
5.313440
 20
2.326720
  0
VERTEX
  8
0
  6
CONTINUOUS
 10
5.313440
 20
1.579600
  0
VERTEX
  8
0
  6
CONTINUOUS
 10
5.286600
 20
1.607760
  0
SEQEND
  8
0
  0
SOLID
  8
0
 62
    15
 10
5.313440
 20
1.579600
 11
5.313440
 21
2.326720
 12
5.338080
 22
1.556720
 13
5.338520
 23
2.304280
  0
POLYLINE
  8
0
  6
CONTINUOUS
 66
     1
 40
0.000000
 41
0.000000
  0
VERTEX
  8
0
  6
CONTINUOUS
 10
5.313440
 20
1.579600
  0
VERTEX
  8
0
  6
CONTINUOUS
 10
5.313440
 20
2.326720
  0
VERTEX
  8
0
  6
CONTINUOUS
 10
5.338520
 20
2.304280
  0
VERTEX
  8
0
  6
CONTINUOUS
 10
5.338080
 20
1.556720
  0
VERTEX
  8
0
  6
CONTINUOUS
 10
5.313440
 20
1.579600
  0
SEQEND
  8
0
  0
SOLID
  8
0
 62
    15
 10
5.338080
 20
1.556720
 11
5.338520
 21
2.304280
 12
5.360520
 22
1.539560
 13
5.360520
 23
2.286680
  0
POLYLINE
  8
0
  6
CONTINUOUS
 66
     1
 40
0.000000
 41
0.000000
  0
VERTEX
  8
0
  6
CONTINUOUS
 10
5.338080
 20
1.556720
  0
VERTEX
  8
0
  6
CONTINUOUS
 10
5.338520
 20
2.304280
  0
VERTEX
  8
0
  6
CONTINUOUS
 10
5.360520
 20
2.286680
  0
VERTEX
  8
0
  6
CONTINUOUS
 10
5.360520
 20
1.539560
  0
VERTEX
  8
0
  6
CONTINUOUS
 10
5.338080
 20
1.556720
  0
SEQEND
  8
0
  0
SOLID
  8
0
 62
    15
 10
5.360520
 20
1.539560
 11
5.360520
 21
2.286680
 12
5.379000
 22
1.528560
 13
5.379000
 23
2.275680
  0
POLYLINE
  8
0
  6
CONTINUOUS
 66
     1
 40
0.000000
 41
0.000000
  0
VERTEX
  8
0
  6
CONTINUOUS
 10
5.360520
 20
1.539560
  0
VERTEX
  8
0
  6
CONTINUOUS
 10
5.360520
 20
2.286680
  0
VERTEX
  8
0
  6
CONTINUOUS
 10
5.379000
 20
2.275680
  0
VERTEX
  8
0
  6
CONTINUOUS
 10
5.379000
 20
1.528560
  0
VERTEX
  8
0
  6
CONTINUOUS
 10
5.360520
 20
1.539560
  0
SEQEND
  8
0
  0
SOLID
  8
0
 62
    15
 10
5.379000
 20
1.528560
 11
5.379000
 21
2.275680
 12
5.385160
 22
1.529000
 13
5.385160
 23
2.276120
  0
POLYLINE
  8
0
  6
CONTINUOUS
 66
     1
 40
0.000000
 41
0.000000
  0
VERTEX
  8
0
  6
CONTINUOUS
 10
5.379000
 20
1.528560
  0
VERTEX
  8
0
  6
CONTINUOUS
 10
5.379000
 20
2.275680
  0
VERTEX
  8
0
  6
CONTINUOUS
 10
5.385160
 20
2.276120
  0
VERTEX
  8
0
  6
CONTINUOUS
 10
5.385160
 20
1.529000
  0
VERTEX
  8
0
  6
CONTINUOUS
 10
5.379000
 20
1.528560
  0
SEQEND
  8
0
  0
SOLID
  8
0
 62
    15
 10
5.385160
 20
1.529000
 11
5.385160
 21
2.276120
 12
5.395280
 22
1.529880
 13
5.395720
 23
2.277000
  0
POLYLINE
  8
0
  6
CONTINUOUS
 66
     1
 40
0.000000
 41
0.000000
  0
VERTEX
  8
0
  6
CONTINUOUS
 10
5.385160
 20
1.529000
  0
VERTEX
  8
0
  6
CONTINUOUS
 10
5.385160
 20
2.276120
  0
VERTEX
  8
0
  6
CONTINUOUS
 10
5.395720
 20
2.277000
  0
VERTEX
  8
0
  6
CONTINUOUS
 10
5.395280
 20
1.529880
  0
VERTEX
  8
0
  6
CONTINUOUS
 10
5.385160
 20
1.529000
  0
SEQEND
  8
0
  0
SOLID
  8
0
 62
    15
 10
5.395280
 20
1.529880
 11
5.395720
 21
2.277000
 12
5.406720
 22
1.536920
 13
5.407160
 23
2.284040
  0
POLYLINE
  8
0
  6
CONTINUOUS
 66
     1
 40
0.000000
 41
0.000000
  0
VERTEX
  8
0
  6
CONTINUOUS
 10
5.395280
 20
1.529880
  0
VERTEX
  8
0
  6
CONTINUOUS
 10
5.395720
 20
2.277000
  0
VERTEX
  8
0
  6
CONTINUOUS
 10
5.407160
 20
2.284040
  0
VERTEX
  8
0
  6
CONTINUOUS
 10
5.406720
 20
1.536920
  0
VERTEX
  8
0
  6
CONTINUOUS
 10
5.395280
 20
1.529880
  0
SEQEND
  8
0
  0
SOLID
  8
0
 62
    15
 10
5.406720
 20
1.536920
 11
5.407160
 21
2.284040
 12
5.416400
 22
1.555840
 13
5.416840
 23
2.302960
  0
POLYLINE
  8
0
  6
CONTINUOUS
 66
     1
 40
0.000000
 41
0.000000
  0
VERTEX
  8
0
  6
CONTINUOUS
 10
5.406720
 20
1.536920
  0
VERTEX
  8
0
  6
CONTINUOUS
 10
5.407160
 20
2.284040
  0
VERTEX
  8
0
  6
CONTINUOUS
 10
5.416840
 20
2.302960
  0
VERTEX
  8
0
  6
CONTINUOUS
 10
5.416400
 20
1.555840
  0
VERTEX
  8
0
  6
CONTINUOUS
 10
5.406720
 20
1.536920
  0
SEQEND
  8
0
  0
SOLID
  8
0
 62
    15
 10
5.416400
 20
1.555840
 11
5.416840
 21
2.302960
 12
5.423880
 22
1.582240
 13
5.424320
 23
2.329360
  0
POLYLINE
  8
0
  6
CONTINUOUS
 66
     1
 40
0.000000
 41
0.000000
  0
VERTEX
  8
0
  6
CONTINUOUS
 10
5.416400
 20
1.555840
  0
VERTEX
  8
0
  6
CONTINUOUS
 10
5.416840
 20
2.302960
  0
VERTEX
  8
0
  6
CONTINUOUS
 10
5.424320
 20
2.329360
  0
VERTEX
  8
0
  6
CONTINUOUS
 10
5.423880
 20
1.582240
  0
VERTEX
  8
0
  6
CONTINUOUS
 10
5.416400
 20
1.555840
  0
SEQEND
  8
0
  0
SOLID
  8
0
 62
    15
 10
5.423880
 20
1.582240
 11
5.424320
 21
2.329360
 12
5.436640
 22
1.607320
 13
5.436640
 23
2.354440
  0
POLYLINE
  8
0
  6
CONTINUOUS
 66
     1
 40
0.000000
 41
0.000000
  0
VERTEX
  8
0
  6
CONTINUOUS
 10
5.423880
 20
1.582240
  0
VERTEX
  8
0
  6
CONTINUOUS
 10
5.424320
 20
2.329360
  0
VERTEX
  8
0
  6
CONTINUOUS
 10
5.436640
 20
2.354440
  0
VERTEX
  8
0
  6
CONTINUOUS
 10
5.436640
 20
1.607320
  0
VERTEX
  8
0
  6
CONTINUOUS
 10
5.423880
 20
1.582240
  0
SEQEND
  8
0
  0
SOLID
  8
0
 62
    15
 10
5.436640
 20
1.607320
 11
5.436640
 21
2.354440
 12
5.474480
 22
1.649120
 13
5.474480
 23
2.396240
  0
POLYLINE
  8
0
  6
CONTINUOUS
 66
     1
 40
0.000000
 41
0.000000
  0
VERTEX
  8
0
  6
CONTINUOUS
 10
5.436640
 20
1.607320
  0
VERTEX
  8
0
  6
CONTINUOUS
 10
5.436640
 20
2.354440
  0
VERTEX
  8
0
  6
CONTINUOUS
 10
5.474480
 20
2.396240
  0
VERTEX
  8
0
  6
CONTINUOUS
 10
5.474480
 20
1.649120
  0
VERTEX
  8
0
  6
CONTINUOUS
 10
5.436640
 20
1.607320
  0
SEQEND
  8
0
  0
SOLID
  8
0
 62
    15
 10
5.474480
 20
1.649120
 11
5.474480
 21
2.396240
 12
5.524640
 22
1.677280
 13
5.525080
 23
2.424400
  0
POLYLINE
  8
0
  6
CONTINUOUS
 66
     1
 40
0.000000
 41
0.000000
  0
VERTEX
  8
0
  6
CONTINUOUS
 10
5.474480
 20
1.649120
  0
VERTEX
  8
0
  6
CONTINUOUS
 10
5.474480
 20
2.396240
  0
VERTEX
  8
0
  6
CONTINUOUS
 10
5.525080
 20
2.424400
  0
VERTEX
  8
0
  6
CONTINUOUS
 10
5.524640
 20
1.677280
  0
VERTEX
  8
0
  6
CONTINUOUS
 10
5.474480
 20
1.649120
  0
SEQEND
  8
0
  0
SOLID
  8
0
 62
    15
 10
5.524640
 20
1.677280
 11
5.525080
 21
2.424400
 12
5.553240
 22
1.685200
 13
5.553240
 23
2.432320
  0
POLYLINE
  8
0
  6
CONTINUOUS
 66
     1
 40
0.000000
 41
0.000000
  0
VERTEX
  8
0
  6
CONTINUOUS
 10
5.524640
 20
1.677280
  0
VERTEX
  8
0
  6
CONTINUOUS
 10
5.525080
 20
2.424400
  0
VERTEX
  8
0
  6
CONTINUOUS
 10
5.553240
 20
2.432320
  0
VERTEX
  8
0
  6
CONTINUOUS
 10
5.553240
 20
1.685200
  0
VERTEX
  8
0
  6
CONTINUOUS
 10
5.524640
 20
1.677280
  0
SEQEND
  8
0
  0
SOLID
  8
0
 62
    15
 10
5.553240
 20
1.685200
 11
5.553240
 21
2.432320
 12
5.582280
 22
1.688280
 13
5.582720
 23
2.435400
  0
POLYLINE
  8
0
  6
CONTINUOUS
 66
     1
 40
0.000000
 41
0.000000
  0
VERTEX
  8
0
  6
CONTINUOUS
 10
5.553240
 20
1.685200
  0
VERTEX
  8
0
  6
CONTINUOUS
 10
5.553240
 20
2.432320
  0
VERTEX
  8
0
  6
CONTINUOUS
 10
5.582720
 20
2.435400
  0
VERTEX
  8
0
  6
CONTINUOUS
 10
5.582280
 20
1.688280
  0
VERTEX
  8
0
  6
CONTINUOUS
 10
5.553240
 20
1.685200
  0
SEQEND
  8
0
  0
SOLID
  8
0
 62
    15
 10
5.582280
 20
1.688280
 11
5.582720
 21
2.435400
 12
5.611760
 22
1.685640
 13
5.612200
 23
2.432760
  0
POLYLINE
  8
0
  6
CONTINUOUS
 66
     1
 40
0.000000
 41
0.000000
  0
VERTEX
  8
0
  6
CONTINUOUS
 10
5.582280
 20
1.688280
  0
VERTEX
  8
0
  6
CONTINUOUS
 10
5.582720
 20
2.435400
  0
VERTEX
  8
0
  6
CONTINUOUS
 10
5.612200
 20
2.432760
  0
VERTEX
  8
0
  6
CONTINUOUS
 10
5.611760
 20
1.685640
  0
VERTEX
  8
0
  6
CONTINUOUS
 10
5.582280
 20
1.688280
  0
SEQEND
  8
0
  0
SOLID
  8
0
 62
    15
 10
5.611760
 20
1.685640
 11
5.612200
 21
2.432760
 12
5.641240
 22
1.676840
 13
5.641680
 23
2.423960
  0
POLYLINE
  8
0
  6
CONTINUOUS
 66
     1
 40
0.000000
 41
0.000000
  0
VERTEX
  8
0
  6
CONTINUOUS
 10
5.611760
 20
1.685640
  0
VERTEX
  8
0
  6
CONTINUOUS
 10
5.612200
 20
2.432760
  0
VERTEX
  8
0
  6
CONTINUOUS
 10
5.641680
 20
2.423960
  0
VERTEX
  8
0
  6
CONTINUOUS
 10
5.641240
 20
1.676840
  0
VERTEX
  8
0
  6
CONTINUOUS
 10
5.611760
 20
1.685640
  0
SEQEND
  8
0
  0
SOLID
  8
0
 62
    15
 10
5.641240
 20
1.676840
 11
5.641680
 21
2.423960
 12
5.669840
 22
1.661880
 13
5.670280
 23
2.409000
  0
POLYLINE
  8
0
  6
CONTINUOUS
 66
     1
 40
0.000000
 41
0.000000
  0
VERTEX
  8
0
  6
CONTINUOUS
 10
5.641240
 20
1.676840
  0
VERTEX
  8
0
  6
CONTINUOUS
 10
5.641680
 20
2.423960
  0
VERTEX
  8
0
  6
CONTINUOUS
 10
5.670280
 20
2.409000
  0
VERTEX
  8
0
  6
CONTINUOUS
 10
5.669840
 20
1.661880
  0
VERTEX
  8
0
  6
CONTINUOUS
 10
5.641240
 20
1.676840
  0
SEQEND
  8
0
  0
SOLID
  8
0
 62
    15
 10
5.669840
 20
1.661880
 11
5.670280
 21
2.409000
 12
5.696680
 22
1.639440
 13
5.697120
 23
2.386560
  0
POLYLINE
  8
0
  6
CONTINUOUS
 66
     1
 40
0.000000
 41
0.000000
  0
VERTEX
  8
0
  6
CONTINUOUS
 10
5.669840
 20
1.661880
  0
VERTEX
  8
0
  6
CONTINUOUS
 10
5.670280
 20
2.409000
  0
VERTEX
  8
0
  6
CONTINUOUS
 10
5.697120
 20
2.386560
  0
VERTEX
  8
0
  6
CONTINUOUS
 10
5.696680
 20
1.639440
  0
VERTEX
  8
0
  6
CONTINUOUS
 10
5.669840
 20
1.661880
  0
SEQEND
  8
0
  0
SOLID
  8
0
 62
    15
 10
5.696680
 20
1.639440
 11
5.697120
 21
2.386560
 12
5.721320
 22
1.609960
 13
5.721760
 23
2.357080
  0
POLYLINE
  8
0
  6
CONTINUOUS
 66
     1
 40
0.000000
 41
0.000000
  0
VERTEX
  8
0
  6
CONTINUOUS
 10
5.696680
 20
1.639440
  0
VERTEX
  8
0
  6
CONTINUOUS
 10
5.697120
 20
2.386560
  0
VERTEX
  8
0
  6
CONTINUOUS
 10
5.721760
 20
2.357080
  0
VERTEX
  8
0
  6
CONTINUOUS
 10
5.721320
 20
1.609960
  0
VERTEX
  8
0
  6
CONTINUOUS
 10
5.696680
 20
1.639440
  0
SEQEND
  8
0
  0
SOLID
  8
0
 62
    15
 10
5.721320
 20
1.609960
 11
5.721760
 21
2.357080
 12
5.742880
 22
1.572120
 13
5.743320
 23
2.319240
  0
POLYLINE
  8
0
  6
CONTINUOUS
 66
     1
 40
0.000000
 41
0.000000
  0
VERTEX
  8
0
  6
CONTINUOUS
 10
5.721320
 20
1.609960
  0
VERTEX
  8
0
  6
CONTINUOUS
 10
5.721760
 20
2.357080
  0
VERTEX
  8
0
  6
CONTINUOUS
 10
5.743320
 20
2.319240
  0
VERTEX
  8
0
  6
CONTINUOUS
 10
5.742880
 20
1.572120
  0
VERTEX
  8
0
  6
CONTINUOUS
 10
5.721320
 20
1.609960
  0
SEQEND
  8
0
  0
SOLID
  8
0
 62
    15
 10
4.770480
 20
1.878800
 11
4.770920
 21
2.625920
 12
4.804800
 22
1.916200
 13
4.805240
 23
2.663320
  0
POLYLINE
  8
0
  6
CONTINUOUS
 66
     1
 40
0.000000
 41
0.000000
  0
VERTEX
  8
0
  6
CONTINUOUS
 10
4.770480
 20
1.878800
  0
VERTEX
  8
0
  6
CONTINUOUS
 10
4.770920
 20
2.625920
  0
VERTEX
  8
0
  6
CONTINUOUS
 10
4.805240
 20
2.663320
  0
VERTEX
  8
0
  6
CONTINUOUS
 10
4.804800
 20
1.916200
  0
VERTEX
  8
0
  6
CONTINUOUS
 10
4.770480
 20
1.878800
  0
SEQEND
  8
0
  0
SOLID
  8
0
 62
    15
 10
5.760920
 20
1.525920
 11
5.761360
 21
2.273040
 12
5.774560
 22
1.470480
 13
5.775000
 23
2.217600
  0
POLYLINE
  8
0
  6
CONTINUOUS
 66
     1
 40
0.000000
 41
0.000000
  0
VERTEX
  8
0
  6
CONTINUOUS
 10
5.760920
 20
1.525920
  0
VERTEX
  8
0
  6
CONTINUOUS
 10
5.761360
 20
2.273040
  0
VERTEX
  8
0
  6
CONTINUOUS
 10
5.775000
 20
2.217600
  0
VERTEX
  8
0
  6
CONTINUOUS
 10
5.774560
 20
1.470480
  0
VERTEX
  8
0
  6
CONTINUOUS
 10
5.760920
 20
1.525920
  0
SEQEND
  8
0
  0
SOLID
  8
0
 62
    15
 10
5.774560
 20
1.470480
 11
5.775000
 21
2.217600
 12
5.776760
 22
1.470480
 13
5.777200
 23
2.217600
  0
POLYLINE
  8
0
  6
CONTINUOUS
 66
     1
 40
0.000000
 41
0.000000
  0
VERTEX
  8
0
  6
CONTINUOUS
 10
5.774560
 20
1.470480
  0
VERTEX
  8
0
  6
CONTINUOUS
 10
5.775000
 20
2.217600
  0
VERTEX
  8
0
  6
CONTINUOUS
 10
5.777200
 20
2.217600
  0
VERTEX
  8
0
  6
CONTINUOUS
 10
5.776760
 20
1.470480
  0
VERTEX
  8
0
  6
CONTINUOUS
 10
5.774560
 20
1.470480
  0
SEQEND
  8
0
  0
SOLID
  8
0
 62
    15
 10
5.776760
 20
1.470480
 11
5.777200
 21
2.217600
 12
5.776760
 22
1.466080
 13
5.777200
 23
2.213200
  0
POLYLINE
  8
0
  6
CONTINUOUS
 66
     1
 40
0.000000
 41
0.000000
  0
VERTEX
  8
0
  6
CONTINUOUS
 10
5.776760
 20
1.470480
  0
VERTEX
  8
0
  6
CONTINUOUS
 10
5.777200
 20
2.217600
  0
VERTEX
  8
0
  6
CONTINUOUS
 10
5.777200
 20
2.213200
  0
VERTEX
  8
0
  6
CONTINUOUS
 10
5.776760
 20
1.466080
  0
VERTEX
  8
0
  6
CONTINUOUS
 10
5.776760
 20
1.470480
  0
SEQEND
  8
0
  0
SOLID
  8
0
 62
    15
 10
5.776760
 20
1.466080
 11
5.777200
 21
2.213200
 12
5.870480
 22
1.466080
 13
5.870920
 23
2.213200
  0
POLYLINE
  8
0
  6
CONTINUOUS
 66
     1
 40
0.000000
 41
0.000000
  0
VERTEX
  8
0
  6
CONTINUOUS
 10
5.776760
 20
1.466080
  0
VERTEX
  8
0
  6
CONTINUOUS
 10
5.777200
 20
2.213200
  0
VERTEX
  8
0
  6
CONTINUOUS
 10
5.870920
 20
2.213200
  0
VERTEX
  8
0
  6
CONTINUOUS
 10
5.870480
 20
1.466080
  0
VERTEX
  8
0
  6
CONTINUOUS
 10
5.776760
 20
1.466080
  0
SEQEND
  8
0
  0
SOLID
  8
0
 62
    15
 10
5.870480
 20
1.466080
 11
5.870920
 21
2.213200
 12
5.870480
 22
1.368400
 13
5.870920
 23
2.115520
  0
POLYLINE
  8
0
  6
CONTINUOUS
 66
     1
 40
0.000000
 41
0.000000
  0
VERTEX
  8
0
  6
CONTINUOUS
 10
5.870480
 20
1.466080
  0
VERTEX
  8
0
  6
CONTINUOUS
 10
5.870920
 20
2.213200
  0
VERTEX
  8
0
  6
CONTINUOUS
 10
5.870920
 20
2.115520
  0
VERTEX
  8
0
  6
CONTINUOUS
 10
5.870480
 20
1.368400
  0
VERTEX
  8
0
  6
CONTINUOUS
 10
5.870480
 20
1.466080
  0
SEQEND
  8
0
  0
SOLID
  8
0
 62
    15
 10
5.870480
 20
1.368400
 11
5.870920
 21
2.115520
 12
7.189160
 22
1.368400
 13
7.189600
 23
2.115520
  0
POLYLINE
  8
0
  6
CONTINUOUS
 66
     1
 40
0.000000
 41
0.000000
  0
VERTEX
  8
0
  6
CONTINUOUS
 10
5.870480
 20
1.368400
  0
VERTEX
  8
0
  6
CONTINUOUS
 10
5.870920
 20
2.115520
  0
VERTEX
  8
0
  6
CONTINUOUS
 10
7.189600
 20
2.115520
  0
VERTEX
  8
0
  6
CONTINUOUS
 10
7.189160
 20
1.368400
  0
VERTEX
  8
0
  6
CONTINUOUS
 10
5.870480
 20
1.368400
  0
SEQEND
  8
0
  0
SOLID
  8
0
 62
    15
 10
7.189160
 20
1.368400
 11
7.189600
 21
2.115520
 12
7.198840
 22
1.419000
 13
7.199280
 23
2.166120
  0
POLYLINE
  8
0
  6
CONTINUOUS
 66
     1
 40
0.000000
 41
0.000000
  0
VERTEX
  8
0
  6
CONTINUOUS
 10
7.189160
 20
1.368400
  0
VERTEX
  8
0
  6
CONTINUOUS
 10
7.189600
 20
2.115520
  0
VERTEX
  8
0
  6
CONTINUOUS
 10
7.199280
 20
2.166120
  0
VERTEX
  8
0
  6
CONTINUOUS
 10
7.198840
 20
1.419000
  0
VERTEX
  8
0
  6
CONTINUOUS
 10
7.189160
 20
1.368400
  0
SEQEND
  8
0
  0
SOLID
  8
0
 62
    15
 10
7.198840
 20
1.419000
 11
7.199280
 21
2.166120
 12
7.210720
 22
1.458600
 13
7.210720
 23
2.205720
  0
POLYLINE
  8
0
  6
CONTINUOUS
 66
     1
 40
0.000000
 41
0.000000
  0
VERTEX
  8
0
  6
CONTINUOUS
 10
7.198840
 20
1.419000
  0
VERTEX
  8
0
  6
CONTINUOUS
 10
7.199280
 20
2.166120
  0
VERTEX
  8
0
  6
CONTINUOUS
 10
7.210720
 20
2.205720
  0
VERTEX
  8
0
  6
CONTINUOUS
 10
7.210720
 20
1.458600
  0
VERTEX
  8
0
  6
CONTINUOUS
 10
7.198840
 20
1.419000
  0
SEQEND
  8
0
  0
SOLID
  8
0
 62
    15
 10
7.210720
 20
1.458600
 11
7.210720
 21
2.205720
 12
7.224800
 22
1.488520
 13
7.224800
 23
2.235640
  0
POLYLINE
  8
0
  6
CONTINUOUS
 66
     1
 40
0.000000
 41
0.000000
  0
VERTEX
  8
0
  6
CONTINUOUS
 10
7.210720
 20
1.458600
  0
VERTEX
  8
0
  6
CONTINUOUS
 10
7.210720
 20
2.205720
  0
VERTEX
  8
0
  6
CONTINUOUS
 10
7.224800
 20
2.235640
  0
VERTEX
  8
0
  6
CONTINUOUS
 10
7.224800
 20
1.488520
  0
VERTEX
  8
0
  6
CONTINUOUS
 10
7.210720
 20
1.458600
  0
SEQEND
  8
0
  0
SOLID
  8
0
 62
    15
 10
7.224800
 20
1.488520
 11
7.224800
 21
2.235640
 12
7.241080
 22
1.510520
 13
7.241520
 23
2.257640
  0
POLYLINE
  8
0
  6
CONTINUOUS
 66
     1
 40
0.000000
 41
0.000000
  0
VERTEX
  8
0
  6
CONTINUOUS
 10
7.224800
 20
1.488520
  0
VERTEX
  8
0
  6
CONTINUOUS
 10
7.224800
 20
2.235640
  0
VERTEX
  8
0
  6
CONTINUOUS
 10
7.241520
 20
2.257640
  0
VERTEX
  8
0
  6
CONTINUOUS
 10
7.241080
 20
1.510520
  0
VERTEX
  8
0
  6
CONTINUOUS
 10
7.224800
 20
1.488520
  0
SEQEND
  8
0
  0
SOLID
  8
0
 62
    15
 10
7.241080
 20
1.510520
 11
7.241520
 21
2.257640
 12
7.260440
 22
1.525920
 13
7.260440
 23
2.273040
  0
POLYLINE
  8
0
  6
CONTINUOUS
 66
     1
 40
0.000000
 41
0.000000
  0
VERTEX
  8
0
  6
CONTINUOUS
 10
7.241080
 20
1.510520
  0
VERTEX
  8
0
  6
CONTINUOUS
 10
7.241520
 20
2.257640
  0
VERTEX
  8
0
  6
CONTINUOUS
 10
7.260440
 20
2.273040
  0
VERTEX
  8
0
  6
CONTINUOUS
 10
7.260440
 20
1.525920
  0
VERTEX
  8
0
  6
CONTINUOUS
 10
7.241080
 20
1.510520
  0
SEQEND
  8
0
  0
SOLID
  8
0
 62
    15
 10
7.260440
 20
1.525920
 11
7.260440
 21
2.273040
 12
7.282000
 22
1.535160
 13
7.282440
 23
2.282280
  0
POLYLINE
  8
0
  6
CONTINUOUS
 66
     1
 40
0.000000
 41
0.000000
  0
VERTEX
  8
0
  6
CONTINUOUS
 10
7.260440
 20
1.525920
  0
VERTEX
  8
0
  6
CONTINUOUS
 10
7.260440
 20
2.273040
  0
VERTEX
  8
0
  6
CONTINUOUS
 10
7.282440
 20
2.282280
  0
VERTEX
  8
0
  6
CONTINUOUS
 10
7.282000
 20
1.535160
  0
VERTEX
  8
0
  6
CONTINUOUS
 10
7.260440
 20
1.525920
  0
SEQEND
  8
0
  0
SOLID
  8
0
 62
    15
 10
7.282000
 20
1.535160
 11
7.282440
 21
2.282280
 12
7.335240
 22
1.543520
 13
7.335240
 23
2.290640
  0
POLYLINE
  8
0
  6
CONTINUOUS
 66
     1
 40
0.000000
 41
0.000000
  0
VERTEX
  8
0
  6
CONTINUOUS
 10
7.282000
 20
1.535160
  0
VERTEX
  8
0
  6
CONTINUOUS
 10
7.282440
 20
2.282280
  0
VERTEX
  8
0
  6
CONTINUOUS
 10
7.335240
 20
2.290640
  0
VERTEX
  8
0
  6
CONTINUOUS
 10
7.335240
 20
1.543520
  0
VERTEX
  8
0
  6
CONTINUOUS
 10
7.282000
 20
1.535160
  0
SEQEND
  8
0
  0
SOLID
  8
0
 62
    15
 10
7.335240
 20
1.543520
 11
7.335240
 21
2.290640
 12
7.346680
 22
1.587960
 13
7.346680
 23
2.335080
  0
POLYLINE
  8
0
  6
CONTINUOUS
 66
     1
 40
0.000000
 41
0.000000
  0
VERTEX
  8
0
  6
CONTINUOUS
 10
7.335240
 20
1.543520
  0
VERTEX
  8
0
  6
CONTINUOUS
 10
7.335240
 20
2.290640
  0
VERTEX
  8
0
  6
CONTINUOUS
 10
7.346680
 20
2.335080
  0
VERTEX
  8
0
  6
CONTINUOUS
 10
7.346680
 20
1.587960
  0
VERTEX
  8
0
  6
CONTINUOUS
 10
7.335240
 20
1.543520
  0
SEQEND
  8
0
  0
SOLID
  8
0
 62
    15
 10
7.346680
 20
1.587960
 11
7.346680
 21
2.335080
 12
7.365600
 22
1.626240
 13
7.365600
 23
2.373360
  0
POLYLINE
  8
0
  6
CONTINUOUS
 66
     1
 40
0.000000
 41
0.000000
  0
VERTEX
  8
0
  6
CONTINUOUS
 10
7.346680
 20
1.587960
  0
VERTEX
  8
0
  6
CONTINUOUS
 10
7.346680
 20
2.335080
  0
VERTEX
  8
0
  6
CONTINUOUS
 10
7.365600
 20
2.373360
  0
VERTEX
  8
0
  6
CONTINUOUS
 10
7.365600
 20
1.626240
  0
VERTEX
  8
0
  6
CONTINUOUS
 10
7.346680
 20
1.587960
  0
SEQEND
  8
0
  0
SOLID
  8
0
 62
    15
 10
7.365600
 20
1.626240
 11
7.365600
 21
2.373360
 12
7.390680
 22
1.657920
 13
7.391120
 23
2.405040
  0
POLYLINE
  8
0
  6
CONTINUOUS
 66
     1
 40
0.000000
 41
0.000000
  0
VERTEX
  8
0
  6
CONTINUOUS
 10
7.365600
 20
1.626240
  0
VERTEX
  8
0
  6
CONTINUOUS
 10
7.365600
 20
2.373360
  0
VERTEX
  8
0
  6
CONTINUOUS
 10
7.391120
 20
2.405040
  0
VERTEX
  8
0
  6
CONTINUOUS
 10
7.390680
 20
1.657920
  0
VERTEX
  8
0
  6
CONTINUOUS
 10
7.365600
 20
1.626240
  0
SEQEND
  8
0
  0
SOLID
  8
0
 62
    15
 10
7.390680
 20
1.657920
 11
7.391120
 21
2.405040
 12
7.421040
 22
1.683440
 13
7.421480
 23
2.430560
  0
POLYLINE
  8
0
  6
CONTINUOUS
 66
     1
 40
0.000000
 41
0.000000
  0
VERTEX
  8
0
  6
CONTINUOUS
 10
7.390680
 20
1.657920
  0
VERTEX
  8
0
  6
CONTINUOUS
 10
7.391120
 20
2.405040
  0
VERTEX
  8
0
  6
CONTINUOUS
 10
7.421480
 20
2.430560
  0
VERTEX
  8
0
  6
CONTINUOUS
 10
7.421040
 20
1.683440
  0
VERTEX
  8
0
  6
CONTINUOUS
 10
7.390680
 20
1.657920
  0
SEQEND
  8
0
  0
SOLID
  8
0
 62
    15
 10
7.421040
 20
1.683440
 11
7.421480
 21
2.430560
 12
7.455360
 22
1.702800
 13
7.455800
 23
2.449920
  0
POLYLINE
  8
0
  6
CONTINUOUS
 66
     1
 40
0.000000
 41
0.000000
  0
VERTEX
  8
0
  6
CONTINUOUS
 10
7.421040
 20
1.683440
  0
VERTEX
  8
0
  6
CONTINUOUS
 10
7.421480
 20
2.430560
  0
VERTEX
  8
0
  6
CONTINUOUS
 10
7.455800
 20
2.449920
  0
VERTEX
  8
0
  6
CONTINUOUS
 10
7.455360
 20
1.702800
  0
VERTEX
  8
0
  6
CONTINUOUS
 10
7.421040
 20
1.683440
  0
SEQEND
  8
0
  0
SOLID
  8
0
 62
    15
 10
7.455360
 20
1.702800
 11
7.455800
 21
2.449920
 12
7.492760
 22
1.716000
 13
7.493200
 23
2.463120
  0
POLYLINE
  8
0
  6
CONTINUOUS
 66
     1
 40
0.000000
 41
0.000000
  0
VERTEX
  8
0
  6
CONTINUOUS
 10
7.455360
 20
1.702800
  0
VERTEX
  8
0
  6
CONTINUOUS
 10
7.455800
 20
2.449920
  0
VERTEX
  8
0
  6
CONTINUOUS
 10
7.493200
 20
2.463120
  0
VERTEX
  8
0
  6
CONTINUOUS
 10
7.492760
 20
1.716000
  0
VERTEX
  8
0
  6
CONTINUOUS
 10
7.455360
 20
1.702800
  0
SEQEND
  8
0
  0
SOLID
  8
0
 62
    15
 10
7.492760
 20
1.716000
 11
7.493200
 21
2.463120
 12
7.531920
 22
1.723040
 13
7.532360
 23
2.470160
  0
POLYLINE
  8
0
  6
CONTINUOUS
 66
     1
 40
0.000000
 41
0.000000
  0
VERTEX
  8
0
  6
CONTINUOUS
 10
7.492760
 20
1.716000
  0
VERTEX
  8
0
  6
CONTINUOUS
 10
7.493200
 20
2.463120
  0
VERTEX
  8
0
  6
CONTINUOUS
 10
7.532360
 20
2.470160
  0
VERTEX
  8
0
  6
CONTINUOUS
 10
7.531920
 20
1.723040
  0
VERTEX
  8
0
  6
CONTINUOUS
 10
7.492760
 20
1.716000
  0
SEQEND
  8
0
  0
SOLID
  8
0
 62
    15
 10
7.531920
 20
1.723040
 11
7.532360
 21
2.470160
 12
7.571960
 22
1.723920
 13
7.571960
 23
2.471040
  0
POLYLINE
  8
0
  6
CONTINUOUS
 66
     1
 40
0.000000
 41
0.000000
  0
VERTEX
  8
0
  6
CONTINUOUS
 10
7.531920
 20
1.723040
  0
VERTEX
  8
0
  6
CONTINUOUS
 10
7.532360
 20
2.470160
  0
VERTEX
  8
0
  6
CONTINUOUS
 10
7.571960
 20
2.471040
  0
VERTEX
  8
0
  6
CONTINUOUS
 10
7.571960
 20
1.723920
  0
VERTEX
  8
0
  6
CONTINUOUS
 10
7.531920
 20
1.723040
  0
SEQEND
  8
0
  0
SOLID
  8
0
 62
    15
 10
7.571960
 20
1.723920
 11
7.571960
 21
2.471040
 12
7.611120
 22
1.719520
 13
7.611560
 23
2.466640
  0
POLYLINE
  8
0
  6
CONTINUOUS
 66
     1
 40
0.000000
 41
0.000000
  0
VERTEX
  8
0
  6
CONTINUOUS
 10
7.571960
 20
1.723920
  0
VERTEX
  8
0
  6
CONTINUOUS
 10
7.571960
 20
2.471040
  0
VERTEX
  8
0
  6
CONTINUOUS
 10
7.611560
 20
2.466640
  0
VERTEX
  8
0
  6
CONTINUOUS
 10
7.611120
 20
1.719520
  0
VERTEX
  8
0
  6
CONTINUOUS
 10
7.571960
 20
1.723920
  0
SEQEND
  8
0
  0
SOLID
  8
0
 62
    15
 10
7.611120
 20
1.719520
 11
7.611560
 21
2.466640
 12
7.648960
 22
1.708960
 13
7.648960
 23
2.456080
  0
POLYLINE
  8
0
  6
CONTINUOUS
 66
     1
 40
0.000000
 41
0.000000
  0
VERTEX
  8
0
  6
CONTINUOUS
 10
7.611120
 20
1.719520
  0
VERTEX
  8
0
  6
CONTINUOUS
 10
7.611560
 20
2.466640
  0
VERTEX
  8
0
  6
CONTINUOUS
 10
7.648960
 20
2.456080
  0
VERTEX
  8
0
  6
CONTINUOUS
 10
7.648960
 20
1.708960
  0
VERTEX
  8
0
  6
CONTINUOUS
 10
7.611120
 20
1.719520
  0
SEQEND
  8
0
  0
SOLID
  8
0
 62
    15
 10
7.648960
 20
1.708960
 11
7.648960
 21
2.456080
 12
7.683720
 22
1.693120
 13
7.684160
 23
2.440240
  0
POLYLINE
  8
0
  6
CONTINUOUS
 66
     1
 40
0.000000
 41
0.000000
  0
VERTEX
  8
0
  6
CONTINUOUS
 10
7.648960
 20
1.708960
  0
VERTEX
  8
0
  6
CONTINUOUS
 10
7.648960
 20
2.456080
  0
VERTEX
  8
0
  6
CONTINUOUS
 10
7.684160
 20
2.440240
  0
VERTEX
  8
0
  6
CONTINUOUS
 10
7.683720
 20
1.693120
  0
VERTEX
  8
0
  6
CONTINUOUS
 10
7.648960
 20
1.708960
  0
SEQEND
  8
0
  0
SOLID
  8
0
 62
    15
 10
7.683720
 20
1.693120
 11
7.684160
 21
2.440240
 12
7.714960
 22
1.671560
 13
7.715400
 23
2.418680
  0
POLYLINE
  8
0
  6
CONTINUOUS
 66
     1
 40
0.000000
 41
0.000000
  0
VERTEX
  8
0
  6
CONTINUOUS
 10
7.683720
 20
1.693120
  0
VERTEX
  8
0
  6
CONTINUOUS
 10
7.684160
 20
2.440240
  0
VERTEX
  8
0
  6
CONTINUOUS
 10
7.715400
 20
2.418680
  0
VERTEX
  8
0
  6
CONTINUOUS
 10
7.714960
 20
1.671560
  0
VERTEX
  8
0
  6
CONTINUOUS
 10
7.683720
 20
1.693120
  0
SEQEND
  8
0
  0
SOLID
  8
0
 62
    15
 10
7.714960
 20
1.671560
 11
7.715400
 21
2.418680
 12
7.741360
 22
1.644720
 13
7.741360
 23
2.391840
  0
POLYLINE
  8
0
  6
CONTINUOUS
 66
     1
 40
0.000000
 41
0.000000
  0
VERTEX
  8
0
  6
CONTINUOUS
 10
7.714960
 20
1.671560
  0
VERTEX
  8
0
  6
CONTINUOUS
 10
7.715400
 20
2.418680
  0
VERTEX
  8
0
  6
CONTINUOUS
 10
7.741360
 20
2.391840
  0
VERTEX
  8
0
  6
CONTINUOUS
 10
7.741360
 20
1.644720
  0
VERTEX
  8
0
  6
CONTINUOUS
 10
7.714960
 20
1.671560
  0
SEQEND
  8
0
  0
SOLID
  8
0
 62
    15
 10
7.741360
 20
1.644720
 11
7.741360
 21
2.391840
 12
7.761600
 22
1.612600
 13
7.761600
 23
2.359720
  0
POLYLINE
  8
0
  6
CONTINUOUS
 66
     1
 40
0.000000
 41
0.000000
  0
VERTEX
  8
0
  6
CONTINUOUS
 10
7.741360
 20
1.644720
  0
VERTEX
  8
0
  6
CONTINUOUS
 10
7.741360
 20
2.391840
  0
VERTEX
  8
0
  6
CONTINUOUS
 10
7.761600
 20
2.359720
  0
VERTEX
  8
0
  6
CONTINUOUS
 10
7.761600
 20
1.612600
  0
VERTEX
  8
0
  6
CONTINUOUS
 10
7.741360
 20
1.644720
  0
SEQEND
  8
0
  0
SOLID
  8
0
 62
    15
 10
7.774360
 20
1.575200
 11
7.774360
 21
2.322320
 12
7.778760
 22
1.532960
 13
7.779200
 23
2.280080
  0
POLYLINE
  8
0
  6
CONTINUOUS
 66
     1
 40
0.000000
 41
0.000000
  0
VERTEX
  8
0
  6
CONTINUOUS
 10
7.774360
 20
1.575200
  0
VERTEX
  8
0
  6
CONTINUOUS
 10
7.774360
 20
2.322320
  0
VERTEX
  8
0
  6
CONTINUOUS
 10
7.779200
 20
2.280080
  0
VERTEX
  8
0
  6
CONTINUOUS
 10
7.778760
 20
1.532960
  0
VERTEX
  8
0
  6
CONTINUOUS
 10
7.774360
 20
1.575200
  0
SEQEND
  8
0
  0
SOLID
  8
0
 62
    15
 10
7.761600
 20
1.612600
 11
7.761600
 21
2.359720
 12
7.774360
 22
1.575200
 13
7.774360
 23
2.322320
  0
POLYLINE
  8
0
  6
CONTINUOUS
 66
     1
 40
0.000000
 41
0.000000
  0
VERTEX
  8
0
  6
CONTINUOUS
 10
7.761600
 20
1.612600
  0
VERTEX
  8
0
  6
CONTINUOUS
 10
7.761600
 20
2.359720
  0
VERTEX
  8
0
  6
CONTINUOUS
 10
7.774360
 20
2.322320
  0
VERTEX
  8
0
  6
CONTINUOUS
 10
7.774360
 20
1.575200
  0
VERTEX
  8
0
  6
CONTINUOUS
 10
7.761600
 20
1.612600
  0
SEQEND
  8
0
  0
SOLID
  8
0
 62
    15
 10
7.778760
 20
1.532960
 11
7.779200
 21
2.280080
 12
7.778760
 22
0.985160
 13
7.779200
 23
1.732280
  0
POLYLINE
  8
0
  6
CONTINUOUS
 66
     1
 40
0.000000
 41
0.000000
  0
VERTEX
  8
0
  6
CONTINUOUS
 10
7.778760
 20
1.532960
  0
VERTEX
  8
0
  6
CONTINUOUS
 10
7.779200
 20
2.280080
  0
VERTEX
  8
0
  6
CONTINUOUS
 10
7.779200
 20
1.732280
  0
VERTEX
  8
0
  6
CONTINUOUS
 10
7.778760
 20
0.985160
  0
VERTEX
  8
0
  6
CONTINUOUS
 10
7.778760
 20
1.532960
  0
SEQEND
  8
0
  0
SOLID
  8
0
 62
    15
 10
4.318600
 20
2.038960
 11
4.318600
 21
2.786080
 12
4.720760
 22
2.005960
 13
4.720760
 23
2.753080
  0
POLYLINE
  8
0
  6
CONTINUOUS
 66
     1
 40
0.000000
 41
0.000000
  0
VERTEX
  8
0
  6
CONTINUOUS
 10
4.318600
 20
2.038960
  0
VERTEX
  8
0
  6
CONTINUOUS
 10
4.318600
 20
2.786080
  0
VERTEX
  8
0
  6
CONTINUOUS
 10
4.720760
 20
2.753080
  0
VERTEX
  8
0
  6
CONTINUOUS
 10
4.720760
 20
2.005960
  0
VERTEX
  8
0
  6
CONTINUOUS
 10
4.318600
 20
2.038960
  0
SEQEND
  8
0
  0
SOLID
  8
0
 62
    15
 10
4.720760
 20
2.005960
 11
4.720760
 21
2.753080
 12
4.753760
 22
1.876600
 13
4.754200
 23
2.623720
  0
POLYLINE
  8
0
  6
CONTINUOUS
 66
     1
 40
0.000000
 41
0.000000
  0
VERTEX
  8
0
  6
CONTINUOUS
 10
4.720760
 20
2.005960
  0
VERTEX
  8
0
  6
CONTINUOUS
 10
4.720760
 20
2.753080
  0
VERTEX
  8
0
  6
CONTINUOUS
 10
4.754200
 20
2.623720
  0
VERTEX
  8
0
  6
CONTINUOUS
 10
4.753760
 20
1.876600
  0
VERTEX
  8
0
  6
CONTINUOUS
 10
4.720760
 20
2.005960
  0
SEQEND
  8
0
  0
SOLID
  8
0
 62
    15
 10
4.753760
 20
1.876600
 11
4.754200
 21
2.623720
 12
4.766520
 22
1.874400
 13
4.766520
 23
2.621520
  0
POLYLINE
  8
0
  6
CONTINUOUS
 66
     1
 40
0.000000
 41
0.000000
  0
VERTEX
  8
0
  6
CONTINUOUS
 10
4.753760
 20
1.876600
  0
VERTEX
  8
0
  6
CONTINUOUS
 10
4.754200
 20
2.623720
  0
VERTEX
  8
0
  6
CONTINUOUS
 10
4.766520
 20
2.621520
  0
VERTEX
  8
0
  6
CONTINUOUS
 10
4.766520
 20
1.874400
  0
VERTEX
  8
0
  6
CONTINUOUS
 10
4.753760
 20
1.876600
  0
SEQEND
  8
0
  0
SOLID
  8
0
 62
    15
 10
4.766520
 20
1.874400
 11
4.766520
 21
2.621520
 12
4.770480
 22
1.878800
 13
4.770920
 23
2.625920
  0
POLYLINE
  8
0
  6
CONTINUOUS
 66
     1
 40
0.000000
 41
0.000000
  0
VERTEX
  8
0
  6
CONTINUOUS
 10
4.766520
 20
1.874400
  0
VERTEX
  8
0
  6
CONTINUOUS
 10
4.766520
 20
2.621520
  0
VERTEX
  8
0
  6
CONTINUOUS
 10
4.770920
 20
2.625920
  0
VERTEX
  8
0
  6
CONTINUOUS
 10
4.770480
 20
1.878800
  0
VERTEX
  8
0
  6
CONTINUOUS
 10
4.766520
 20
1.874400
  0
SEQEND
  8
0
  0
POLYLINE
  8
0
  6
CONTINUOUS
 66
     1
 40
0.000000
 41
0.000000
  0
VERTEX
  8
0
  6
CONTINUOUS
 10
4.770480
 20
1.878800
  0
VERTEX
  8
0
  6
CONTINUOUS
 10
4.804800
 20
1.916200
  0
VERTEX
  8
0
  6
CONTINUOUS
 10
4.838240
 20
1.944360
  0
VERTEX
  8
0
  6
CONTINUOUS
 10
4.870360
 20
1.963280
  0
VERTEX
  8
0
  6
CONTINUOUS
 10
4.901600
 20
1.974720
  0
VERTEX
  8
0
  6
CONTINUOUS
 10
4.931520
 20
1.978680
  0
VERTEX
  8
0
  6
CONTINUOUS
 10
4.960120
 20
1.976040
  0
VERTEX
  8
0
  6
CONTINUOUS
 10
4.987840
 20
1.967680
  0
VERTEX
  8
0
  6
CONTINUOUS
 10
5.014240
 20
1.954480
  0
VERTEX
  8
0
  6
CONTINUOUS
 10
5.063520
 20
1.916200
  0
VERTEX
  8
0
  6
CONTINUOUS
 10
5.107080
 20
1.866920
  0
VERTEX
  8
0
  6
CONTINUOUS
 10
5.144920
 20
1.812800
  0
VERTEX
  8
0
  6
CONTINUOUS
 10
5.176600
 20
1.760000
  0
VERTEX
  8
0
  6
CONTINUOUS
 10
5.230280
 20
1.676840
  0
VERTEX
  8
0
  6
CONTINUOUS
 10
5.286600
 20
1.607760
  0
VERTEX
  8
0
  6
CONTINUOUS
 10
5.313440
 20
1.579600
  0
VERTEX
  8
0
  6
CONTINUOUS
 10
5.338080
 20
1.556720
  0
VERTEX
  8
0
  6
CONTINUOUS
 10
5.360520
 20
1.539560
  0
VERTEX
  8
0
  6
CONTINUOUS
 10
5.379000
 20
1.528560
  0
VERTEX
  8
0
  6
CONTINUOUS
 10
5.395280
 20
1.529880
  0
VERTEX
  8
0
  6
CONTINUOUS
 10
5.406720
 20
1.536920
  0
VERTEX
  8
0
  6
CONTINUOUS
 10
5.416400
 20
1.555840
  0
VERTEX
  8
0
  6
CONTINUOUS
 10
5.423880
 20
1.582240
  0
VERTEX
  8
0
  6
CONTINUOUS
 10
5.436640
 20
1.607320
  0
VERTEX
  8
0
  6
CONTINUOUS
 10
5.474480
 20
1.649120
  0
VERTEX
  8
0
  6
CONTINUOUS
 10
5.524640
 20
1.677280
  0
VERTEX
  8
0
  6
CONTINUOUS
 10
5.553240
 20
1.685200
  0
VERTEX
  8
0
  6
CONTINUOUS
 10
5.582280
 20
1.688280
  0
VERTEX
  8
0
  6
CONTINUOUS
 10
5.611760
 20
1.685640
  0
VERTEX
  8
0
  6
CONTINUOUS
 10
5.641240
 20
1.676840
  0
VERTEX
  8
0
  6
CONTINUOUS
 10
5.669840
 20
1.661880
  0
VERTEX
  8
0
  6
CONTINUOUS
 10
5.696680
 20
1.639440
  0
VERTEX
  8
0
  6
CONTINUOUS
 10
5.721320
 20
1.609960
  0
VERTEX
  8
0
  6
CONTINUOUS
 10
5.742880
 20
1.572120
  0
VERTEX
  8
0
  6
CONTINUOUS
 10
5.760920
 20
1.525920
  0
VERTEX
  8
0
  6
CONTINUOUS
 10
5.774560
 20
1.470480
  0
VERTEX
  8
0
  6
CONTINUOUS
 10
5.776760
 20
1.470480
  0
VERTEX
  8
0
  6
CONTINUOUS
 10
5.776760
 20
1.466080
  0
VERTEX
  8
0
  6
CONTINUOUS
 10
5.870480
 20
1.466080
  0
VERTEX
  8
0
  6
CONTINUOUS
 10
5.870480
 20
1.368400
  0
VERTEX
  8
0
  6
CONTINUOUS
 10
7.189160
 20
1.368400
  0
VERTEX
  8
0
  6
CONTINUOUS
 10
7.198840
 20
1.419000
  0
VERTEX
  8
0
  6
CONTINUOUS
 10
7.210720
 20
1.458600
  0
VERTEX
  8
0
  6
CONTINUOUS
 10
7.224800
 20
1.488520
  0
VERTEX
  8
0
  6
CONTINUOUS
 10
7.241080
 20
1.510520
  0
VERTEX
  8
0
  6
CONTINUOUS
 10
7.260440
 20
1.525920
  0
VERTEX
  8
0
  6
CONTINUOUS
 10
7.282000
 20
1.535160
  0
VERTEX
  8
0
  6
CONTINUOUS
 10
7.335240
 20
1.543520
  0
VERTEX
  8
0
  6
CONTINUOUS
 10
7.346680
 20
1.587960
  0
VERTEX
  8
0
  6
CONTINUOUS
 10
7.365600
 20
1.626240
  0
VERTEX
  8
0
  6
CONTINUOUS
 10
7.390680
 20
1.657920
  0
VERTEX
  8
0
  6
CONTINUOUS
 10
7.421040
 20
1.683440
  0
VERTEX
  8
0
  6
CONTINUOUS
 10
7.455360
 20
1.702800
  0
VERTEX
  8
0
  6
CONTINUOUS
 10
7.492760
 20
1.716000
  0
VERTEX
  8
0
  6
CONTINUOUS
 10
7.531920
 20
1.723040
  0
VERTEX
  8
0
  6
CONTINUOUS
 10
7.571960
 20
1.723920
  0
VERTEX
  8
0
  6
CONTINUOUS
 10
7.611120
 20
1.719520
  0
VERTEX
  8
0
  6
CONTINUOUS
 10
7.648960
 20
1.708960
  0
VERTEX
  8
0
  6
CONTINUOUS
 10
7.683720
 20
1.693120
  0
VERTEX
  8
0
  6
CONTINUOUS
 10
7.714960
 20
1.671560
  0
VERTEX
  8
0
  6
CONTINUOUS
 10
7.741360
 20
1.644720
  0
VERTEX
  8
0
  6
CONTINUOUS
 10
7.761600
 20
1.612600
  0
VERTEX
  8
0
  6
CONTINUOUS
 10
7.774360
 20
1.575200
  0
VERTEX
  8
0
  6
CONTINUOUS
 10
7.778760
 20
1.532960
  0
VERTEX
  8
0
  6
CONTINUOUS
 10
7.778760
 20
0.985160
  0
VERTEX
  8
0
  6
CONTINUOUS
 10
4.318600
 20
0.985160
  0
VERTEX
  8
0
  6
CONTINUOUS
 10
4.318600
 20
2.038960
  0
VERTEX
  8
0
  6
CONTINUOUS
 10
4.720760
 20
2.005960
  0
VERTEX
  8
0
  6
CONTINUOUS
 10
4.753760
 20
1.876600
  0
VERTEX
  8
0
  6
CONTINUOUS
 10
4.766520
 20
1.874400
  0
VERTEX
  8
0
  6
CONTINUOUS
 10
4.770480
 20
1.878800
  0
SEQEND
  8
0
  0
TEXT
  8
0
 10
5.752560
 20
0.751080
 40
0.138135
  1
BA  320
 41
1.000000
  7
SN0
 71
     0
 72
     5
 11
6.341785
 21
0.751080
  0
TEXT
  8
0
 10
5.430920
 20
0.559680
 40
0.138135
  1
1-1/16" x 3-7/16"
 41
1.000000
  7
SN0
 71
     0
 72
     5
 11
6.660887
 21
0.559680
  0
ENDSEC
  0
EOF
