  0
SECTION
  2
HEADER
  9
$ACADVER
  1
AC1006
  9
$EXTMIN
 10
5.362280
 20
0.471680
  9
$EXTMAX
 10
7.872040
 20
2.743840
  9
$LTSCALE
 40
0.044000
  9
$PDMODE
 70
    35
  9
$PDSIZE
 40
0.035200
  0
ENDSEC
  0
SECTION
  2
TABLES
  0
TABLE
  2
LTYPE
 70
     9
  0
LTYPE
  2
CONTINUOUS
 70
    64
  3
Solid line
 72
    65
 73
     0
 40
0.000000
  0
LTYPE
  2
DASHED
 70
    64
  3
__ __ __ __ __ __ __ __ __ __ __ __ __ __ __
 72
    65
 73
     2
 40
0.000330
 49
0.000220
 49
-0.000110
  0
LTYPE
  2
HIDDEN
 70
    64
  3
 _ _ _ _ _ _ _ _ _ _ _ _ _ _ _ _ _ _ _ _ _ _
 72
    65
 73
     2
 40
0.000165
 49
0.000110
 49
-0.000055
  0
LTYPE
  2
CENTER
 70
    64
  3
____ _ ____ _ ____ _ ____ _ ____ _ ____ _ ____
 72
    65
 73
     4
 40
0.000880
 49
0.000550
 49
-0.000110
 49
0.000110
 49
-0.000110
  0
LTYPE
  2
PHANTOM
 70
    64
  3
_____ _ _ _____ _ _ _____ _ _ _____ _ _ ____
 72
    65
 73
     6
 40
0.001100
 49
0.000550
 49
-0.000110
 49
0.000110
 49
-0.000110
 49
0.000110
 49
-0.000110
  0
LTYPE
  2
DOT
 70
    64
  3
...............................................
 72
    65
 73
     2
 40
0.000110
 49
0.000000
 49
-0.000110
  0
LTYPE
  2
DASHDOT
 70
    64
  3
__ . __ . __ . __ . __ . __ . __ . __ . __ . __
 72
    65
 73
     4
 40
0.000440
 49
0.000220
 49
-0.000110
 49
0.000000
 49
-0.000110
  0
LTYPE
  2
BORDER
 70
    64
  3
__ __ . __ __ . __ __ . __ __ . __ __ . __ __
 72
    65
 73
     6
 40
0.000770
 49
0.000220
 49
-0.000110
 49
0.000220
 49
-0.000110
 49
0.000000
 49
-0.000110
  0
LTYPE
  2
DIVIDE
 70
    64
  3
__ . . __ . . __ . . __ . . __ . . __ . . __
 72
    65
 73
     6
 40
0.000550
 49
0.000220
 49
-0.000110
 49
0.000000
 49
-0.000110
 49
0.000000
 49
-0.000110
  0
LTYPE
  2
DOTDOT
 70
    64
  3
 . .  . .  . .  . .  . .  . . 
 72
    65
 73
     5
 40
0.000242
 49
-0.000110
 49
0.000000
 49
-0.000110
 49
0.000000
 49
-0.000110
  0
ENDTAB
  0
TABLE
  2
STYLE
 70
     2
  0
STYLE
 70
     0
  2
SN0
 40
0.000000
 41
0.000440
 50
0.000000
 71
     0
 42
0.000000
  3
ROMAND
  0
STYLE
 70
    68
  2
SV0
 40
0.000000
 41
0.000440
 50
0.000000
 71
     0
 42
0.000000
  3
ROMAND
  0
ENDTAB
  0
TABLE
  2
LAYER
 70
     3
  0
LAYER
  2
FOREGROUND
 70
    64
 62
     7
  6
CONTINUOUS
  0
LAYER
  2
BACKGROUND
 70
    65
 62
    -7
  6
CONTINUOUS
  0
LAYER
  2
0
 70
    64
 62
     7
  6
CONTINUOUS
  0
ENDTAB
  0
ENDSEC
  0
SECTION
  2
ENTITIES
  0
POLYLINE
  8
FOREGROUND
  6
CONTINUOUS
 66
     1
 40
0.000000
 41
0.000000
  0
VERTEX
  8
FOREGROUND
  6
CONTINUOUS
 10
0.000000
 20
3.215520
  0
VERTEX
  8
FOREGROUND
  6
CONTINUOUS
 10
8.499920
 20
3.215520
  0
VERTEX
  8
FOREGROUND
  6
CONTINUOUS
 10
8.499920
 20
-7.784480
  0
VERTEX
  8
FOREGROUND
  6
CONTINUOUS
 10
0.000000
 20
-7.784480
  0
VERTEX
  8
FOREGROUND
  6
CONTINUOUS
 10
0.000000
 20
3.215520
  0
SEQEND
  8
0
  0
POLYLINE
  8
FOREGROUND
  6
CONTINUOUS
 66
     1
 40
0.000000
 41
0.000000
  0
VERTEX
  8
FOREGROUND
  6
CONTINUOUS
 10
0.000000
 20
3.215520
  0
VERTEX
  8
FOREGROUND
  6
CONTINUOUS
 10
8.499920
 20
3.215520
  0
VERTEX
  8
FOREGROUND
  6
CONTINUOUS
 10
8.499920
 20
-7.784480
  0
VERTEX
  8
FOREGROUND
  6
CONTINUOUS
 10
0.000000
 20
-7.784480
  0
VERTEX
  8
FOREGROUND
  6
CONTINUOUS
 10
0.000000
 20
3.215520
  0
SEQEND
  8
0
  0
POLYLINE
  8
0
  6
CONTINUOUS
 66
     1
 40
0.014080
 41
0.014080
  0
VERTEX
  8
0
  6
CONTINUOUS
 10
5.369760
 20
2.234760
  0
VERTEX
  8
0
  6
CONTINUOUS
 10
6.367240
 20
2.234760
  0
VERTEX
  8
0
  6
CONTINUOUS
 10
6.365920
 20
2.236080
  0
VERTEX
  8
0
  6
CONTINUOUS
 10
6.365480
 20
2.261600
  0
VERTEX
  8
0
  6
CONTINUOUS
 10
6.360200
 20
2.311760
  0
VERTEX
  8
0
  6
CONTINUOUS
 10
6.350520
 20
2.360600
  0
VERTEX
  8
0
  6
CONTINUOUS
 10
6.336000
 20
2.407240
  0
VERTEX
  8
0
  6
CONTINUOUS
 10
6.317080
 20
2.452120
  0
VERTEX
  8
0
  6
CONTINUOUS
 10
6.294200
 20
2.494800
  0
VERTEX
  8
0
  6
CONTINUOUS
 10
6.267800
 20
2.534400
  0
VERTEX
  8
0
  6
CONTINUOUS
 10
6.237440
 20
2.571360
  0
VERTEX
  8
0
  6
CONTINUOUS
 10
6.203560
 20
2.605680
  0
VERTEX
  8
0
  6
CONTINUOUS
 10
6.167040
 20
2.636040
  0
VERTEX
  8
0
  6
CONTINUOUS
 10
6.127440
 20
2.663320
  0
VERTEX
  8
0
  6
CONTINUOUS
 10
6.085200
 20
2.686200
  0
VERTEX
  8
0
  6
CONTINUOUS
 10
6.040760
 20
2.705560
  0
VERTEX
  8
0
  6
CONTINUOUS
 10
5.994120
 20
2.720080
  0
VERTEX
  8
0
  6
CONTINUOUS
 10
5.945280
 20
2.730200
  0
VERTEX
  8
0
  6
CONTINUOUS
 10
5.895120
 20
2.735480
  0
VERTEX
  8
0
  6
CONTINUOUS
 10
5.844080
 20
2.735480
  0
VERTEX
  8
0
  6
CONTINUOUS
 10
5.793920
 20
2.730200
  0
VERTEX
  8
0
  6
CONTINUOUS
 10
5.745080
 20
2.720080
  0
VERTEX
  8
0
  6
CONTINUOUS
 10
5.698440
 20
2.705560
  0
VERTEX
  8
0
  6
CONTINUOUS
 10
5.653560
 20
2.686200
  0
VERTEX
  8
0
  6
CONTINUOUS
 10
5.610880
 20
2.663320
  0
VERTEX
  8
0
  6
CONTINUOUS
 10
5.571280
 20
2.636040
  0
VERTEX
  8
0
  6
CONTINUOUS
 10
5.534320
 20
2.605680
  0
VERTEX
  8
0
  6
CONTINUOUS
 10
5.500000
 20
2.571360
  0
VERTEX
  8
0
  6
CONTINUOUS
 10
5.469640
 20
2.534400
  0
VERTEX
  8
0
  6
CONTINUOUS
 10
5.442360
 20
2.494800
  0
VERTEX
  8
0
  6
CONTINUOUS
 10
5.419480
 20
2.452120
  0
VERTEX
  8
0
  6
CONTINUOUS
 10
5.400120
 20
2.407240
  0
VERTEX
  8
0
  6
CONTINUOUS
 10
5.385600
 20
2.360600
  0
VERTEX
  8
0
  6
CONTINUOUS
 10
5.375480
 20
2.311760
  0
VERTEX
  8
0
  6
CONTINUOUS
 10
5.370200
 20
2.261600
  0
VERTEX
  8
0
  6
CONTINUOUS
 10
5.369760
 20
2.234760
  0
SEQEND
  8
0
  0
SOLID
  8
0
 62
     7
 10
7.006120
 20
1.354760
 11
7.652040
 21
1.726120
 12
7.044400
 22
1.326160
 13
7.690320
 23
1.697520
  0
POLYLINE
  8
0
  6
CONTINUOUS
 66
     1
 40
0.000000
 41
0.000000
  0
VERTEX
  8
0
  6
CONTINUOUS
 10
7.006120
 20
1.354760
  0
VERTEX
  8
0
  6
CONTINUOUS
 10
7.652040
 20
1.726120
  0
VERTEX
  8
0
  6
CONTINUOUS
 10
7.690320
 20
1.697520
  0
VERTEX
  8
0
  6
CONTINUOUS
 10
7.044400
 20
1.326160
  0
VERTEX
  8
0
  6
CONTINUOUS
 10
7.006120
 20
1.354760
  0
SEQEND
  8
0
  0
SOLID
  8
0
 62
    15
 10
6.534440
 20
1.400960
 11
7.180360
 21
1.772320
 12
6.580640
 22
1.418120
 13
7.226120
 23
1.789480
  0
POLYLINE
  8
0
  6
CONTINUOUS
 66
     1
 40
0.000000
 41
0.000000
  0
VERTEX
  8
0
  6
CONTINUOUS
 10
6.534440
 20
1.400960
  0
VERTEX
  8
0
  6
CONTINUOUS
 10
7.180360
 20
1.772320
  0
VERTEX
  8
0
  6
CONTINUOUS
 10
7.226120
 20
1.789480
  0
VERTEX
  8
0
  6
CONTINUOUS
 10
6.580640
 20
1.418120
  0
VERTEX
  8
0
  6
CONTINUOUS
 10
6.534440
 20
1.400960
  0
SEQEND
  8
0
  0
SOLID
  8
0
 62
    15
 10
6.580640
 20
1.418120
 11
7.226120
 21
1.789480
 12
6.628160
 22
1.430440
 13
7.274080
 23
1.801800
  0
POLYLINE
  8
0
  6
CONTINUOUS
 66
     1
 40
0.000000
 41
0.000000
  0
VERTEX
  8
0
  6
CONTINUOUS
 10
6.580640
 20
1.418120
  0
VERTEX
  8
0
  6
CONTINUOUS
 10
7.226120
 20
1.789480
  0
VERTEX
  8
0
  6
CONTINUOUS
 10
7.274080
 20
1.801800
  0
VERTEX
  8
0
  6
CONTINUOUS
 10
6.628160
 20
1.430440
  0
VERTEX
  8
0
  6
CONTINUOUS
 10
6.580640
 20
1.418120
  0
SEQEND
  8
0
  0
SOLID
  8
0
 62
    15
 10
6.628160
 20
1.430440
 11
7.274080
 21
1.801800
 12
6.677880
 22
1.437920
 13
7.323800
 23
1.809280
  0
POLYLINE
  8
0
  6
CONTINUOUS
 66
     1
 40
0.000000
 41
0.000000
  0
VERTEX
  8
0
  6
CONTINUOUS
 10
6.628160
 20
1.430440
  0
VERTEX
  8
0
  6
CONTINUOUS
 10
7.274080
 20
1.801800
  0
VERTEX
  8
0
  6
CONTINUOUS
 10
7.323800
 20
1.809280
  0
VERTEX
  8
0
  6
CONTINUOUS
 10
6.677880
 20
1.437920
  0
VERTEX
  8
0
  6
CONTINUOUS
 10
6.628160
 20
1.430440
  0
SEQEND
  8
0
  0
SOLID
  8
0
 62
    15
 10
6.677880
 20
1.437920
 11
7.323800
 21
1.809280
 12
6.728480
 22
1.440560
 13
7.374400
 23
1.811920
  0
POLYLINE
  8
0
  6
CONTINUOUS
 66
     1
 40
0.000000
 41
0.000000
  0
VERTEX
  8
0
  6
CONTINUOUS
 10
6.677880
 20
1.437920
  0
VERTEX
  8
0
  6
CONTINUOUS
 10
7.323800
 20
1.809280
  0
VERTEX
  8
0
  6
CONTINUOUS
 10
7.374400
 20
1.811920
  0
VERTEX
  8
0
  6
CONTINUOUS
 10
6.728480
 20
1.440560
  0
VERTEX
  8
0
  6
CONTINUOUS
 10
6.677880
 20
1.437920
  0
SEQEND
  8
0
  0
SOLID
  8
0
 62
    15
 10
6.728480
 20
1.440560
 11
7.374400
 21
1.811920
 12
6.779520
 22
1.437920
 13
7.425440
 23
1.809280
  0
POLYLINE
  8
0
  6
CONTINUOUS
 66
     1
 40
0.000000
 41
0.000000
  0
VERTEX
  8
0
  6
CONTINUOUS
 10
6.728480
 20
1.440560
  0
VERTEX
  8
0
  6
CONTINUOUS
 10
7.374400
 20
1.811920
  0
VERTEX
  8
0
  6
CONTINUOUS
 10
7.425440
 20
1.809280
  0
VERTEX
  8
0
  6
CONTINUOUS
 10
6.779520
 20
1.437920
  0
VERTEX
  8
0
  6
CONTINUOUS
 10
6.728480
 20
1.440560
  0
SEQEND
  8
0
  0
SOLID
  8
0
 62
    15
 10
6.779520
 20
1.437920
 11
7.425440
 21
1.809280
 12
6.828800
 22
1.430440
 13
7.474720
 23
1.801800
  0
POLYLINE
  8
0
  6
CONTINUOUS
 66
     1
 40
0.000000
 41
0.000000
  0
VERTEX
  8
0
  6
CONTINUOUS
 10
6.779520
 20
1.437920
  0
VERTEX
  8
0
  6
CONTINUOUS
 10
7.425440
 20
1.809280
  0
VERTEX
  8
0
  6
CONTINUOUS
 10
7.474720
 20
1.801800
  0
VERTEX
  8
0
  6
CONTINUOUS
 10
6.828800
 20
1.430440
  0
VERTEX
  8
0
  6
CONTINUOUS
 10
6.779520
 20
1.437920
  0
SEQEND
  8
0
  0
SOLID
  8
0
 62
    15
 10
6.828800
 20
1.430440
 11
7.474720
 21
1.801800
 12
6.876320
 22
1.418120
 13
7.522240
 23
1.789480
  0
POLYLINE
  8
0
  6
CONTINUOUS
 66
     1
 40
0.000000
 41
0.000000
  0
VERTEX
  8
0
  6
CONTINUOUS
 10
6.828800
 20
1.430440
  0
VERTEX
  8
0
  6
CONTINUOUS
 10
7.474720
 20
1.801800
  0
VERTEX
  8
0
  6
CONTINUOUS
 10
7.522240
 20
1.789480
  0
VERTEX
  8
0
  6
CONTINUOUS
 10
6.876320
 20
1.418120
  0
VERTEX
  8
0
  6
CONTINUOUS
 10
6.828800
 20
1.430440
  0
SEQEND
  8
0
  0
SOLID
  8
0
 62
    15
 10
6.876320
 20
1.418120
 11
7.522240
 21
1.789480
 12
6.922080
 22
1.400960
 13
7.568000
 23
1.772320
  0
POLYLINE
  8
0
  6
CONTINUOUS
 66
     1
 40
0.000000
 41
0.000000
  0
VERTEX
  8
0
  6
CONTINUOUS
 10
6.876320
 20
1.418120
  0
VERTEX
  8
0
  6
CONTINUOUS
 10
7.522240
 20
1.789480
  0
VERTEX
  8
0
  6
CONTINUOUS
 10
7.568000
 20
1.772320
  0
VERTEX
  8
0
  6
CONTINUOUS
 10
6.922080
 20
1.400960
  0
VERTEX
  8
0
  6
CONTINUOUS
 10
6.876320
 20
1.418120
  0
SEQEND
  8
0
  0
SOLID
  8
0
 62
     7
 10
6.922080
 20
1.400960
 11
7.568000
 21
1.772320
 12
6.965200
 22
1.379840
 13
7.611120
 23
1.751200
  0
POLYLINE
  8
0
  6
CONTINUOUS
 66
     1
 40
0.000000
 41
0.000000
  0
VERTEX
  8
0
  6
CONTINUOUS
 10
6.922080
 20
1.400960
  0
VERTEX
  8
0
  6
CONTINUOUS
 10
7.568000
 20
1.772320
  0
VERTEX
  8
0
  6
CONTINUOUS
 10
7.611120
 20
1.751200
  0
VERTEX
  8
0
  6
CONTINUOUS
 10
6.965200
 20
1.379840
  0
VERTEX
  8
0
  6
CONTINUOUS
 10
6.922080
 20
1.400960
  0
SEQEND
  8
0
  0
SOLID
  8
0
 62
     7
 10
6.965200
 20
1.379840
 11
7.611120
 21
1.751200
 12
7.006120
 22
1.354760
 13
7.652040
 23
1.726120
  0
POLYLINE
  8
0
  6
CONTINUOUS
 66
     1
 40
0.000000
 41
0.000000
  0
VERTEX
  8
0
  6
CONTINUOUS
 10
6.965200
 20
1.379840
  0
VERTEX
  8
0
  6
CONTINUOUS
 10
7.611120
 20
1.751200
  0
VERTEX
  8
0
  6
CONTINUOUS
 10
7.652040
 20
1.726120
  0
VERTEX
  8
0
  6
CONTINUOUS
 10
7.006120
 20
1.354760
  0
VERTEX
  8
0
  6
CONTINUOUS
 10
6.965200
 20
1.379840
  0
SEQEND
  8
0
  0
SOLID
  8
0
 62
    15
 10
6.490880
 20
1.379840
 11
7.136800
 21
1.751200
 12
6.534440
 22
1.400960
 13
7.180360
 23
1.772320
  0
POLYLINE
  8
0
  6
CONTINUOUS
 66
     1
 40
0.000000
 41
0.000000
  0
VERTEX
  8
0
  6
CONTINUOUS
 10
6.490880
 20
1.379840
  0
VERTEX
  8
0
  6
CONTINUOUS
 10
7.136800
 20
1.751200
  0
VERTEX
  8
0
  6
CONTINUOUS
 10
7.180360
 20
1.772320
  0
VERTEX
  8
0
  6
CONTINUOUS
 10
6.534440
 20
1.400960
  0
VERTEX
  8
0
  6
CONTINUOUS
 10
6.490880
 20
1.379840
  0
SEQEND
  8
0
  0
SOLID
  8
0
 62
     7
 10
7.044400
 20
1.326160
 11
7.690320
 21
1.697520
 12
7.079600
 22
1.293600
 13
7.725520
 23
1.664960
  0
POLYLINE
  8
0
  6
CONTINUOUS
 66
     1
 40
0.000000
 41
0.000000
  0
VERTEX
  8
0
  6
CONTINUOUS
 10
7.044400
 20
1.326160
  0
VERTEX
  8
0
  6
CONTINUOUS
 10
7.690320
 20
1.697520
  0
VERTEX
  8
0
  6
CONTINUOUS
 10
7.725520
 20
1.664960
  0
VERTEX
  8
0
  6
CONTINUOUS
 10
7.079600
 20
1.293600
  0
VERTEX
  8
0
  6
CONTINUOUS
 10
7.044400
 20
1.326160
  0
SEQEND
  8
0
  0
SOLID
  8
0
 62
     7
 10
7.079600
 20
1.293600
 11
7.725520
 21
1.664960
 12
7.111720
 22
1.257960
 13
7.757200
 23
1.629320
  0
POLYLINE
  8
0
  6
CONTINUOUS
 66
     1
 40
0.000000
 41
0.000000
  0
VERTEX
  8
0
  6
CONTINUOUS
 10
7.079600
 20
1.293600
  0
VERTEX
  8
0
  6
CONTINUOUS
 10
7.725520
 20
1.664960
  0
VERTEX
  8
0
  6
CONTINUOUS
 10
7.757200
 20
1.629320
  0
VERTEX
  8
0
  6
CONTINUOUS
 10
7.111720
 20
1.257960
  0
VERTEX
  8
0
  6
CONTINUOUS
 10
7.079600
 20
1.293600
  0
SEQEND
  8
0
  0
SOLID
  8
0
 62
     7
 10
7.111720
 20
1.257960
 11
7.757200
 21
1.629320
 12
7.139880
 22
1.219680
 13
7.785800
 23
1.591040
  0
POLYLINE
  8
0
  6
CONTINUOUS
 66
     1
 40
0.000000
 41
0.000000
  0
VERTEX
  8
0
  6
CONTINUOUS
 10
7.111720
 20
1.257960
  0
VERTEX
  8
0
  6
CONTINUOUS
 10
7.757200
 20
1.629320
  0
VERTEX
  8
0
  6
CONTINUOUS
 10
7.785800
 20
1.591040
  0
VERTEX
  8
0
  6
CONTINUOUS
 10
7.139880
 20
1.219680
  0
VERTEX
  8
0
  6
CONTINUOUS
 10
7.111720
 20
1.257960
  0
SEQEND
  8
0
  0
SOLID
  8
0
 62
     7
 10
7.139880
 20
1.219680
 11
7.785800
 21
1.591040
 12
7.164960
 22
1.178320
 13
7.810880
 23
1.549680
  0
POLYLINE
  8
0
  6
CONTINUOUS
 66
     1
 40
0.000000
 41
0.000000
  0
VERTEX
  8
0
  6
CONTINUOUS
 10
7.139880
 20
1.219680
  0
VERTEX
  8
0
  6
CONTINUOUS
 10
7.785800
 20
1.591040
  0
VERTEX
  8
0
  6
CONTINUOUS
 10
7.810880
 20
1.549680
  0
VERTEX
  8
0
  6
CONTINUOUS
 10
7.164960
 20
1.178320
  0
VERTEX
  8
0
  6
CONTINUOUS
 10
7.139880
 20
1.219680
  0
SEQEND
  8
0
  0
SOLID
  8
0
 62
     7
 10
7.164960
 20
1.178320
 11
7.810880
 21
1.549680
 12
7.185640
 22
1.134760
 13
7.831560
 23
1.506120
  0
POLYLINE
  8
0
  6
CONTINUOUS
 66
     1
 40
0.000000
 41
0.000000
  0
VERTEX
  8
0
  6
CONTINUOUS
 10
7.164960
 20
1.178320
  0
VERTEX
  8
0
  6
CONTINUOUS
 10
7.810880
 20
1.549680
  0
VERTEX
  8
0
  6
CONTINUOUS
 10
7.831560
 20
1.506120
  0
VERTEX
  8
0
  6
CONTINUOUS
 10
7.185640
 20
1.134760
  0
VERTEX
  8
0
  6
CONTINUOUS
 10
7.164960
 20
1.178320
  0
SEQEND
  8
0
  0
SOLID
  8
0
 62
     7
 10
7.185640
 20
1.134760
 11
7.831560
 21
1.506120
 12
7.202360
 22
1.089000
 13
7.848280
 23
1.459920
  0
POLYLINE
  8
0
  6
CONTINUOUS
 66
     1
 40
0.000000
 41
0.000000
  0
VERTEX
  8
0
  6
CONTINUOUS
 10
7.185640
 20
1.134760
  0
VERTEX
  8
0
  6
CONTINUOUS
 10
7.831560
 20
1.506120
  0
VERTEX
  8
0
  6
CONTINUOUS
 10
7.848280
 20
1.459920
  0
VERTEX
  8
0
  6
CONTINUOUS
 10
7.202360
 20
1.089000
  0
VERTEX
  8
0
  6
CONTINUOUS
 10
7.185640
 20
1.134760
  0
SEQEND
  8
0
  0
SOLID
  8
0
 62
     7
 10
7.202360
 20
1.089000
 11
7.848280
 21
1.459920
 12
7.214680
 22
1.041040
 13
7.860600
 23
1.412400
  0
POLYLINE
  8
0
  6
CONTINUOUS
 66
     1
 40
0.000000
 41
0.000000
  0
VERTEX
  8
0
  6
CONTINUOUS
 10
7.202360
 20
1.089000
  0
VERTEX
  8
0
  6
CONTINUOUS
 10
7.848280
 20
1.459920
  0
VERTEX
  8
0
  6
CONTINUOUS
 10
7.860600
 20
1.412400
  0
VERTEX
  8
0
  6
CONTINUOUS
 10
7.214680
 20
1.041040
  0
VERTEX
  8
0
  6
CONTINUOUS
 10
7.202360
 20
1.089000
  0
SEQEND
  8
0
  0
SOLID
  8
0
 62
     7
 10
7.214680
 20
1.041040
 11
7.860600
 21
1.412400
 12
7.222160
 22
0.991320
 13
7.868080
 23
1.362680
  0
POLYLINE
  8
0
  6
CONTINUOUS
 66
     1
 40
0.000000
 41
0.000000
  0
VERTEX
  8
0
  6
CONTINUOUS
 10
7.214680
 20
1.041040
  0
VERTEX
  8
0
  6
CONTINUOUS
 10
7.860600
 20
1.412400
  0
VERTEX
  8
0
  6
CONTINUOUS
 10
7.868080
 20
1.362680
  0
VERTEX
  8
0
  6
CONTINUOUS
 10
7.222160
 20
0.991320
  0
VERTEX
  8
0
  6
CONTINUOUS
 10
7.214680
 20
1.041040
  0
SEQEND
  8
0
  0
SOLID
  8
0
 62
     7
 10
7.222160
 20
0.991320
 11
7.868080
 21
1.362680
 12
7.224800
 22
0.940720
 13
7.870280
 23
1.312080
  0
POLYLINE
  8
0
  6
CONTINUOUS
 66
     1
 40
0.000000
 41
0.000000
  0
VERTEX
  8
0
  6
CONTINUOUS
 10
7.222160
 20
0.991320
  0
VERTEX
  8
0
  6
CONTINUOUS
 10
7.868080
 20
1.362680
  0
VERTEX
  8
0
  6
CONTINUOUS
 10
7.870280
 20
1.312080
  0
VERTEX
  8
0
  6
CONTINUOUS
 10
7.224800
 20
0.940720
  0
VERTEX
  8
0
  6
CONTINUOUS
 10
7.222160
 20
0.991320
  0
SEQEND
  8
0
  0
SOLID
  8
0
 62
     7
 10
7.224800
 20
0.940720
 11
7.870280
 21
1.312080
 12
7.226120
 22
0.939400
 13
7.871600
 23
1.310760
  0
POLYLINE
  8
0
  6
CONTINUOUS
 66
     1
 40
0.000000
 41
0.000000
  0
VERTEX
  8
0
  6
CONTINUOUS
 10
7.224800
 20
0.940720
  0
VERTEX
  8
0
  6
CONTINUOUS
 10
7.870280
 20
1.312080
  0
VERTEX
  8
0
  6
CONTINUOUS
 10
7.871600
 20
1.310760
  0
VERTEX
  8
0
  6
CONTINUOUS
 10
7.226120
 20
0.939400
  0
VERTEX
  8
0
  6
CONTINUOUS
 10
7.224800
 20
0.940720
  0
SEQEND
  8
0
  0
POLYLINE
  8
0
  6
CONTINUOUS
 66
     1
 40
0.000000
 41
0.000000
  0
VERTEX
  8
0
  6
CONTINUOUS
 10
6.228640
 20
0.940720
  0
VERTEX
  8
0
  6
CONTINUOUS
 10
6.231280
 20
0.991320
  0
VERTEX
  8
0
  6
CONTINUOUS
 10
6.238760
 20
1.041040
  0
VERTEX
  8
0
  6
CONTINUOUS
 10
6.251080
 20
1.089000
  0
VERTEX
  8
0
  6
CONTINUOUS
 10
6.268240
 20
1.134760
  0
VERTEX
  8
0
  6
CONTINUOUS
 10
6.289360
 20
1.178320
  0
VERTEX
  8
0
  6
CONTINUOUS
 10
6.314440
 20
1.219680
  0
VERTEX
  8
0
  6
CONTINUOUS
 10
6.343480
 20
1.257960
  0
VERTEX
  8
0
  6
CONTINUOUS
 10
6.375600
 20
1.293600
  0
VERTEX
  8
0
  6
CONTINUOUS
 10
6.411240
 20
1.326160
  0
VERTEX
  8
0
  6
CONTINUOUS
 10
6.449520
 20
1.354760
  0
VERTEX
  8
0
  6
CONTINUOUS
 10
6.490880
 20
1.379840
  0
VERTEX
  8
0
  6
CONTINUOUS
 10
6.534440
 20
1.400960
  0
VERTEX
  8
0
  6
CONTINUOUS
 10
6.580640
 20
1.418120
  0
VERTEX
  8
0
  6
CONTINUOUS
 10
6.628160
 20
1.430440
  0
VERTEX
  8
0
  6
CONTINUOUS
 10
6.677880
 20
1.437920
  0
VERTEX
  8
0
  6
CONTINUOUS
 10
6.728480
 20
1.440560
  0
VERTEX
  8
0
  6
CONTINUOUS
 10
6.779520
 20
1.437920
  0
VERTEX
  8
0
  6
CONTINUOUS
 10
6.828800
 20
1.430440
  0
VERTEX
  8
0
  6
CONTINUOUS
 10
6.876320
 20
1.418120
  0
VERTEX
  8
0
  6
CONTINUOUS
 10
6.922080
 20
1.400960
  0
VERTEX
  8
0
  6
CONTINUOUS
 10
6.965200
 20
1.379840
  0
VERTEX
  8
0
  6
CONTINUOUS
 10
7.006120
 20
1.354760
  0
VERTEX
  8
0
  6
CONTINUOUS
 10
7.044400
 20
1.326160
  0
VERTEX
  8
0
  6
CONTINUOUS
 10
7.079600
 20
1.293600
  0
VERTEX
  8
0
  6
CONTINUOUS
 10
7.111720
 20
1.257960
  0
VERTEX
  8
0
  6
CONTINUOUS
 10
7.139880
 20
1.219680
  0
VERTEX
  8
0
  6
CONTINUOUS
 10
7.164960
 20
1.178320
  0
VERTEX
  8
0
  6
CONTINUOUS
 10
7.185640
 20
1.134760
  0
VERTEX
  8
0
  6
CONTINUOUS
 10
7.202360
 20
1.089000
  0
VERTEX
  8
0
  6
CONTINUOUS
 10
7.214680
 20
1.041040
  0
VERTEX
  8
0
  6
CONTINUOUS
 10
7.222160
 20
0.991320
  0
VERTEX
  8
0
  6
CONTINUOUS
 10
7.224800
 20
0.940720
  0
VERTEX
  8
0
  6
CONTINUOUS
 10
7.226120
 20
0.939400
  0
VERTEX
  8
0
  6
CONTINUOUS
 10
6.228640
 20
0.939400
  0
VERTEX
  8
0
  6
CONTINUOUS
 10
6.228640
 20
0.940720
  0
SEQEND
  8
0
  0
TEXT
  8
0
 10
6.753560
 20
0.707520
 40
0.138042
  1
BA  115
 41
1.000000
  7
SN0
 71
     0
 72
     5
 11
7.342977
 21
0.707520
  0
TEXT
  8
0
 10
6.973560
 20
0.515680
 40
0.138042
  1
1"
 41
1.000000
  7
SN0
 71
     0
 72
     5
 11
7.124773
 21
0.515680
  0
ENDSEC
  0
EOF
