  0
SECTION
  2
HEADER
  9
$ACADVER
  1
AC1006
  9
$EXTMIN
 10
1.402280
 20
0.622160
  9
$EXTMAX
 10
7.018440
 20
6.836280
  9
$LTSCALE
 40
0.044000
  9
$PDMODE
 70
    35
  9
$PDSIZE
 40
0.035200
  0
ENDSEC
  0
SECTION
  2
TABLES
  0
TABLE
  2
LTYPE
 70
     9
  0
LTYPE
  2
CONTINUOUS
 70
    64
  3
Solid line
 72
    65
 73
     0
 40
0.000000
  0
LTYPE
  2
DASHED
 70
    64
  3
__ __ __ __ __ __ __ __ __ __ __ __ __ __ __
 72
    65
 73
     2
 40
0.000330
 49
0.000220
 49
-0.000110
  0
LTYPE
  2
HIDDEN
 70
    64
  3
 _ _ _ _ _ _ _ _ _ _ _ _ _ _ _ _ _ _ _ _ _ _
 72
    65
 73
     2
 40
0.000165
 49
0.000110
 49
-0.000055
  0
LTYPE
  2
CENTER
 70
    64
  3
____ _ ____ _ ____ _ ____ _ ____ _ ____ _ ____
 72
    65
 73
     4
 40
0.000880
 49
0.000550
 49
-0.000110
 49
0.000110
 49
-0.000110
  0
LTYPE
  2
PHANTOM
 70
    64
  3
_____ _ _ _____ _ _ _____ _ _ _____ _ _ ____
 72
    65
 73
     6
 40
0.001100
 49
0.000550
 49
-0.000110
 49
0.000110
 49
-0.000110
 49
0.000110
 49
-0.000110
  0
LTYPE
  2
DOT
 70
    64
  3
...............................................
 72
    65
 73
     2
 40
0.000110
 49
0.000000
 49
-0.000110
  0
LTYPE
  2
DASHDOT
 70
    64
  3
__ . __ . __ . __ . __ . __ . __ . __ . __ . __
 72
    65
 73
     4
 40
0.000440
 49
0.000220
 49
-0.000110
 49
0.000000
 49
-0.000110
  0
LTYPE
  2
BORDER
 70
    64
  3
__ __ . __ __ . __ __ . __ __ . __ __ . __ __
 72
    65
 73
     6
 40
0.000770
 49
0.000220
 49
-0.000110
 49
0.000220
 49
-0.000110
 49
0.000000
 49
-0.000110
  0
LTYPE
  2
DIVIDE
 70
    64
  3
__ . . __ . . __ . . __ . . __ . . __ . . __
 72
    65
 73
     6
 40
0.000550
 49
0.000220
 49
-0.000110
 49
0.000000
 49
-0.000110
 49
0.000000
 49
-0.000110
  0
LTYPE
  2
DOTDOT
 70
    64
  3
 . .  . .  . .  . .  . .  . . 
 72
    65
 73
     5
 40
0.000242
 49
-0.000110
 49
0.000000
 49
-0.000110
 49
0.000000
 49
-0.000110
  0
ENDTAB
  0
TABLE
  2
STYLE
 70
     2
  0
STYLE
 70
     0
  2
SN0
 40
0.000000
 41
0.000440
 50
0.000000
 71
     0
 42
0.000000
  3
ROMAND
  0
STYLE
 70
    68
  2
SV0
 40
0.000000
 41
0.000440
 50
0.000000
 71
     0
 42
0.000000
  3
ROMAND
  0
ENDTAB
  0
TABLE
  2
LAYER
 70
     3
  0
LAYER
  2
FOREGROUND
 70
    64
 62
     7
  6
CONTINUOUS
  0
LAYER
  2
BACKGROUND
 70
    65
 62
    -7
  6
CONTINUOUS
  0
LAYER
  2
0
 70
    64
 62
     7
  6
CONTINUOUS
  0
ENDTAB
  0
ENDSEC
  0
SECTION
  2
ENTITIES
  0
POLYLINE
  8
FOREGROUND
  6
CONTINUOUS
 66
     1
 40
0.000000
 41
0.000000
  0
VERTEX
  8
FOREGROUND
  6
CONTINUOUS
 10
0.000000
 20
7.458440
  0
VERTEX
  8
FOREGROUND
  6
CONTINUOUS
 10
8.499920
 20
7.458440
  0
VERTEX
  8
FOREGROUND
  6
CONTINUOUS
 10
8.499920
 20
-3.541560
  0
VERTEX
  8
FOREGROUND
  6
CONTINUOUS
 10
0.000000
 20
-3.541560
  0
VERTEX
  8
FOREGROUND
  6
CONTINUOUS
 10
0.000000
 20
7.458440
  0
SEQEND
  8
0
  0
POLYLINE
  8
FOREGROUND
  6
CONTINUOUS
 66
     1
 40
0.000000
 41
0.000000
  0
VERTEX
  8
FOREGROUND
  6
CONTINUOUS
 10
0.000000
 20
7.458440
  0
VERTEX
  8
FOREGROUND
  6
CONTINUOUS
 10
8.499920
 20
7.458440
  0
VERTEX
  8
FOREGROUND
  6
CONTINUOUS
 10
8.499920
 20
-3.541560
  0
VERTEX
  8
FOREGROUND
  6
CONTINUOUS
 10
0.000000
 20
-3.541560
  0
VERTEX
  8
FOREGROUND
  6
CONTINUOUS
 10
0.000000
 20
7.458440
  0
SEQEND
  8
0
  0
POLYLINE
  8
0
  6
CONTINUOUS
 66
     1
 40
0.014080
 41
0.014080
  0
VERTEX
  8
0
  6
CONTINUOUS
 10
2.125200
 20
6.829240
  0
VERTEX
  8
0
  6
CONTINUOUS
 10
1.408440
 20
6.264280
  0
VERTEX
  8
0
  6
CONTINUOUS
 10
1.577840
 20
6.058800
  0
VERTEX
  8
0
  6
CONTINUOUS
 10
6.488240
 20
6.075960
  0
VERTEX
  8
0
  6
CONTINUOUS
 10
7.014040
 20
6.435880
  0
VERTEX
  8
0
  6
CONTINUOUS
 10
7.011840
 20
6.440280
  0
VERTEX
  8
0
  6
CONTINUOUS
 10
6.961240
 20
6.471520
  0
VERTEX
  8
0
  6
CONTINUOUS
 10
6.857400
 20
6.529160
  0
VERTEX
  8
0
  6
CONTINUOUS
 10
6.751360
 20
6.580640
  0
VERTEX
  8
0
  6
CONTINUOUS
 10
6.697680
 20
6.604400
  0
VERTEX
  8
0
  6
CONTINUOUS
 10
6.588560
 20
6.647080
  0
VERTEX
  8
0
  6
CONTINUOUS
 10
6.477680
 20
6.684920
  0
VERTEX
  8
0
  6
CONTINUOUS
 10
6.365480
 20
6.717040
  0
VERTEX
  8
0
  6
CONTINUOUS
 10
6.252400
 20
6.744320
  0
VERTEX
  8
0
  6
CONTINUOUS
 10
6.138440
 20
6.767200
  0
VERTEX
  8
0
  6
CONTINUOUS
 10
6.024040
 20
6.785680
  0
VERTEX
  8
0
  6
CONTINUOUS
 10
5.909640
 20
6.799760
  0
VERTEX
  8
0
  6
CONTINUOUS
 10
5.795680
 20
6.810320
  0
VERTEX
  8
0
  6
CONTINUOUS
 10
5.682600
 20
6.817360
  0
VERTEX
  8
0
  6
CONTINUOUS
 10
5.569960
 20
6.821320
  0
VERTEX
  8
0
  6
CONTINUOUS
 10
5.403640
 20
6.821320
  0
VERTEX
  8
0
  6
CONTINUOUS
 10
5.294960
 20
6.818240
  0
VERTEX
  8
0
  6
CONTINUOUS
 10
5.135680
 20
6.809000
  0
VERTEX
  8
0
  6
CONTINUOUS
 10
4.982560
 20
6.795800
  0
VERTEX
  8
0
  6
CONTINUOUS
 10
4.836040
 20
6.779520
  0
VERTEX
  8
0
  6
CONTINUOUS
 10
4.610320
 20
6.746960
  0
VERTEX
  8
0
  6
CONTINUOUS
 10
4.411440
 20
6.712200
  0
VERTEX
  8
0
  6
CONTINUOUS
 10
4.138200
 20
6.657200
  0
VERTEX
  8
0
  6
CONTINUOUS
 10
4.027760
 20
6.635640
  0
VERTEX
  8
0
  6
CONTINUOUS
 10
3.769040
 20
6.586800
  0
VERTEX
  8
0
  6
CONTINUOUS
 10
3.668720
 20
6.570520
  0
VERTEX
  8
0
  6
CONTINUOUS
 10
3.560040
 20
6.556000
  0
VERTEX
  8
0
  6
CONTINUOUS
 10
3.443880
 20
6.544120
  0
VERTEX
  8
0
  6
CONTINUOUS
 10
3.383600
 20
6.539720
  0
VERTEX
  8
0
  6
CONTINUOUS
 10
3.321560
 20
6.536640
  0
VERTEX
  8
0
  6
CONTINUOUS
 10
3.257760
 20
6.534880
  0
VERTEX
  8
0
  6
CONTINUOUS
 10
3.193080
 20
6.534880
  0
VERTEX
  8
0
  6
CONTINUOUS
 10
3.059760
 20
6.539720
  0
VERTEX
  8
0
  6
CONTINUOUS
 10
2.957240
 20
6.548960
  0
VERTEX
  8
0
  6
CONTINUOUS
 10
2.852960
 20
6.563040
  0
VERTEX
  8
0
  6
CONTINUOUS
 10
2.746920
 20
6.582840
  0
VERTEX
  8
0
  6
CONTINUOUS
 10
2.640000
 20
6.608800
  0
VERTEX
  8
0
  6
CONTINUOUS
 10
2.567840
 20
6.629920
  0
VERTEX
  8
0
  6
CONTINUOUS
 10
2.459600
 20
6.667760
  0
VERTEX
  8
0
  6
CONTINUOUS
 10
2.387440
 20
6.697240
  0
VERTEX
  8
0
  6
CONTINUOUS
 10
2.315280
 20
6.730240
  0
VERTEX
  8
0
  6
CONTINUOUS
 10
2.243120
 20
6.766760
  0
VERTEX
  8
0
  6
CONTINUOUS
 10
2.171400
 20
6.807240
  0
VERTEX
  8
0
  6
CONTINUOUS
 10
2.135760
 20
6.829240
  0
VERTEX
  8
0
  6
CONTINUOUS
 10
2.125200
 20
6.829240
  0
SEQEND
  8
0
  0
SOLID
  8
0
 62
    15
 10
4.395600
 20
2.834480
 11
5.020840
 21
2.459600
 12
4.313320
 22
2.687520
 13
4.938560
 23
2.312640
  0
POLYLINE
  8
0
  6
CONTINUOUS
 66
     1
 40
0.000000
 41
0.000000
  0
VERTEX
  8
0
  6
CONTINUOUS
 10
4.395600
 20
2.834480
  0
VERTEX
  8
0
  6
CONTINUOUS
 10
5.020840
 20
2.459600
  0
VERTEX
  8
0
  6
CONTINUOUS
 10
4.938560
 20
2.312640
  0
VERTEX
  8
0
  6
CONTINUOUS
 10
4.313320
 20
2.687520
  0
VERTEX
  8
0
  6
CONTINUOUS
 10
4.395600
 20
2.834480
  0
SEQEND
  8
0
  0
SOLID
  8
0
 62
    15
 10
5.651360
 20
4.472160
 11
6.277040
 21
4.097280
 12
5.400560
 22
4.304520
 13
6.025800
 23
3.929640
  0
POLYLINE
  8
0
  6
CONTINUOUS
 66
     1
 40
0.000000
 41
0.000000
  0
VERTEX
  8
0
  6
CONTINUOUS
 10
5.651360
 20
4.472160
  0
VERTEX
  8
0
  6
CONTINUOUS
 10
6.277040
 20
4.097280
  0
VERTEX
  8
0
  6
CONTINUOUS
 10
6.025800
 20
3.929640
  0
VERTEX
  8
0
  6
CONTINUOUS
 10
5.400560
 20
4.304520
  0
VERTEX
  8
0
  6
CONTINUOUS
 10
5.651360
 20
4.472160
  0
SEQEND
  8
0
  0
SOLID
  8
0
 62
    15
 10
5.400560
 20
4.304520
 11
6.025800
 21
3.929640
 12
5.189800
 22
4.114440
 13
5.815040
 23
3.739560
  0
POLYLINE
  8
0
  6
CONTINUOUS
 66
     1
 40
0.000000
 41
0.000000
  0
VERTEX
  8
0
  6
CONTINUOUS
 10
5.400560
 20
4.304520
  0
VERTEX
  8
0
  6
CONTINUOUS
 10
6.025800
 20
3.929640
  0
VERTEX
  8
0
  6
CONTINUOUS
 10
5.815040
 20
3.739560
  0
VERTEX
  8
0
  6
CONTINUOUS
 10
5.189800
 20
4.114440
  0
VERTEX
  8
0
  6
CONTINUOUS
 10
5.400560
 20
4.304520
  0
SEQEND
  8
0
  0
SOLID
  8
0
 62
    15
 10
5.189800
 20
4.114440
 11
5.815040
 21
3.739560
 12
5.015120
 22
3.912920
 13
5.640360
 23
3.538040
  0
POLYLINE
  8
0
  6
CONTINUOUS
 66
     1
 40
0.000000
 41
0.000000
  0
VERTEX
  8
0
  6
CONTINUOUS
 10
5.189800
 20
4.114440
  0
VERTEX
  8
0
  6
CONTINUOUS
 10
5.815040
 20
3.739560
  0
VERTEX
  8
0
  6
CONTINUOUS
 10
5.640360
 20
3.538040
  0
VERTEX
  8
0
  6
CONTINUOUS
 10
5.015120
 20
3.912920
  0
VERTEX
  8
0
  6
CONTINUOUS
 10
5.189800
 20
4.114440
  0
SEQEND
  8
0
  0
SOLID
  8
0
 62
    15
 10
5.015120
 20
3.912920
 11
5.640360
 21
3.538040
 12
4.873440
 22
3.712720
 13
5.498680
 23
3.337840
  0
POLYLINE
  8
0
  6
CONTINUOUS
 66
     1
 40
0.000000
 41
0.000000
  0
VERTEX
  8
0
  6
CONTINUOUS
 10
5.015120
 20
3.912920
  0
VERTEX
  8
0
  6
CONTINUOUS
 10
5.640360
 20
3.538040
  0
VERTEX
  8
0
  6
CONTINUOUS
 10
5.498680
 20
3.337840
  0
VERTEX
  8
0
  6
CONTINUOUS
 10
4.873440
 20
3.712720
  0
VERTEX
  8
0
  6
CONTINUOUS
 10
5.015120
 20
3.912920
  0
SEQEND
  8
0
  0
SOLID
  8
0
 62
    15
 10
4.873440
 20
3.712720
 11
5.498680
 21
3.337840
 12
4.759920
 22
3.525280
 13
5.385600
 23
3.150400
  0
POLYLINE
  8
0
  6
CONTINUOUS
 66
     1
 40
0.000000
 41
0.000000
  0
VERTEX
  8
0
  6
CONTINUOUS
 10
4.873440
 20
3.712720
  0
VERTEX
  8
0
  6
CONTINUOUS
 10
5.498680
 20
3.337840
  0
VERTEX
  8
0
  6
CONTINUOUS
 10
5.385600
 20
3.150400
  0
VERTEX
  8
0
  6
CONTINUOUS
 10
4.759920
 20
3.525280
  0
VERTEX
  8
0
  6
CONTINUOUS
 10
4.873440
 20
3.712720
  0
SEQEND
  8
0
  0
SOLID
  8
0
 62
    15
 10
4.759920
 20
3.525280
 11
5.385600
 21
3.150400
 12
4.671920
 22
3.362480
 13
5.297160
 23
2.987600
  0
POLYLINE
  8
0
  6
CONTINUOUS
 66
     1
 40
0.000000
 41
0.000000
  0
VERTEX
  8
0
  6
CONTINUOUS
 10
4.759920
 20
3.525280
  0
VERTEX
  8
0
  6
CONTINUOUS
 10
5.385600
 20
3.150400
  0
VERTEX
  8
0
  6
CONTINUOUS
 10
5.297160
 20
2.987600
  0
VERTEX
  8
0
  6
CONTINUOUS
 10
4.671920
 20
3.362480
  0
VERTEX
  8
0
  6
CONTINUOUS
 10
4.759920
 20
3.525280
  0
SEQEND
  8
0
  0
SOLID
  8
0
 62
    15
 10
4.671920
 20
3.362480
 11
5.297160
 21
2.987600
 12
4.605040
 22
3.236200
 13
5.230280
 23
2.861320
  0
POLYLINE
  8
0
  6
CONTINUOUS
 66
     1
 40
0.000000
 41
0.000000
  0
VERTEX
  8
0
  6
CONTINUOUS
 10
4.671920
 20
3.362480
  0
VERTEX
  8
0
  6
CONTINUOUS
 10
5.297160
 20
2.987600
  0
VERTEX
  8
0
  6
CONTINUOUS
 10
5.230280
 20
2.861320
  0
VERTEX
  8
0
  6
CONTINUOUS
 10
4.605040
 20
3.236200
  0
VERTEX
  8
0
  6
CONTINUOUS
 10
4.671920
 20
3.362480
  0
SEQEND
  8
0
  0
SOLID
  8
0
 62
    15
 10
4.605040
 20
3.236200
 11
5.230280
 21
2.861320
 12
4.570280
 22
3.170640
 13
5.195520
 23
2.795760
  0
POLYLINE
  8
0
  6
CONTINUOUS
 66
     1
 40
0.000000
 41
0.000000
  0
VERTEX
  8
0
  6
CONTINUOUS
 10
4.605040
 20
3.236200
  0
VERTEX
  8
0
  6
CONTINUOUS
 10
5.230280
 20
2.861320
  0
VERTEX
  8
0
  6
CONTINUOUS
 10
5.195520
 20
2.795760
  0
VERTEX
  8
0
  6
CONTINUOUS
 10
4.570280
 20
3.170640
  0
VERTEX
  8
0
  6
CONTINUOUS
 10
4.605040
 20
3.236200
  0
SEQEND
  8
0
  0
SOLID
  8
0
 62
    15
 10
4.570280
 20
3.170640
 11
5.195520
 21
2.795760
 12
4.523640
 22
3.079560
 13
5.148880
 23
2.704240
  0
POLYLINE
  8
0
  6
CONTINUOUS
 66
     1
 40
0.000000
 41
0.000000
  0
VERTEX
  8
0
  6
CONTINUOUS
 10
4.570280
 20
3.170640
  0
VERTEX
  8
0
  6
CONTINUOUS
 10
5.195520
 20
2.795760
  0
VERTEX
  8
0
  6
CONTINUOUS
 10
5.148880
 20
2.704240
  0
VERTEX
  8
0
  6
CONTINUOUS
 10
4.523640
 20
3.079560
  0
VERTEX
  8
0
  6
CONTINUOUS
 10
4.570280
 20
3.170640
  0
SEQEND
  8
0
  0
SOLID
  8
0
 62
    15
 10
4.523640
 20
3.079560
 11
5.148880
 21
2.704240
 12
4.465560
 22
2.966480
 13
5.090800
 23
2.591160
  0
POLYLINE
  8
0
  6
CONTINUOUS
 66
     1
 40
0.000000
 41
0.000000
  0
VERTEX
  8
0
  6
CONTINUOUS
 10
4.523640
 20
3.079560
  0
VERTEX
  8
0
  6
CONTINUOUS
 10
5.148880
 20
2.704240
  0
VERTEX
  8
0
  6
CONTINUOUS
 10
5.090800
 20
2.591160
  0
VERTEX
  8
0
  6
CONTINUOUS
 10
4.465560
 20
2.966480
  0
VERTEX
  8
0
  6
CONTINUOUS
 10
4.523640
 20
3.079560
  0
SEQEND
  8
0
  0
SOLID
  8
0
 62
    15
 10
4.465560
 20
2.966480
 11
5.090800
 21
2.591160
 12
4.395600
 22
2.834480
 13
5.020840
 23
2.459600
  0
POLYLINE
  8
0
  6
CONTINUOUS
 66
     1
 40
0.000000
 41
0.000000
  0
VERTEX
  8
0
  6
CONTINUOUS
 10
4.465560
 20
2.966480
  0
VERTEX
  8
0
  6
CONTINUOUS
 10
5.090800
 20
2.591160
  0
VERTEX
  8
0
  6
CONTINUOUS
 10
5.020840
 20
2.459600
  0
VERTEX
  8
0
  6
CONTINUOUS
 10
4.395600
 20
2.834480
  0
VERTEX
  8
0
  6
CONTINUOUS
 10
4.465560
 20
2.966480
  0
SEQEND
  8
0
  0
SOLID
  8
0
 62
    15
 10
5.946600
 20
4.605040
 11
6.571840
 21
4.229720
 12
5.651360
 22
4.472160
 13
6.277040
 23
4.097280
  0
POLYLINE
  8
0
  6
CONTINUOUS
 66
     1
 40
0.000000
 41
0.000000
  0
VERTEX
  8
0
  6
CONTINUOUS
 10
5.946600
 20
4.605040
  0
VERTEX
  8
0
  6
CONTINUOUS
 10
6.571840
 20
4.229720
  0
VERTEX
  8
0
  6
CONTINUOUS
 10
6.277040
 20
4.097280
  0
VERTEX
  8
0
  6
CONTINUOUS
 10
5.651360
 20
4.472160
  0
VERTEX
  8
0
  6
CONTINUOUS
 10
5.946600
 20
4.605040
  0
SEQEND
  8
0
  0
SOLID
  8
0
 62
    15
 10
4.313320
 20
2.687520
 11
4.938560
 21
2.312640
 12
4.218720
 22
2.529120
 13
4.844400
 23
2.154240
  0
POLYLINE
  8
0
  6
CONTINUOUS
 66
     1
 40
0.000000
 41
0.000000
  0
VERTEX
  8
0
  6
CONTINUOUS
 10
4.313320
 20
2.687520
  0
VERTEX
  8
0
  6
CONTINUOUS
 10
4.938560
 20
2.312640
  0
VERTEX
  8
0
  6
CONTINUOUS
 10
4.844400
 20
2.154240
  0
VERTEX
  8
0
  6
CONTINUOUS
 10
4.218720
 20
2.529120
  0
VERTEX
  8
0
  6
CONTINUOUS
 10
4.313320
 20
2.687520
  0
SEQEND
  8
0
  0
SOLID
  8
0
 62
    15
 10
4.218720
 20
2.529120
 11
4.844400
 21
2.154240
 12
3.993880
 22
2.189880
 13
4.619120
 23
1.815000
  0
POLYLINE
  8
0
  6
CONTINUOUS
 66
     1
 40
0.000000
 41
0.000000
  0
VERTEX
  8
0
  6
CONTINUOUS
 10
4.218720
 20
2.529120
  0
VERTEX
  8
0
  6
CONTINUOUS
 10
4.844400
 20
2.154240
  0
VERTEX
  8
0
  6
CONTINUOUS
 10
4.619120
 20
1.815000
  0
VERTEX
  8
0
  6
CONTINUOUS
 10
3.993880
 20
2.189880
  0
VERTEX
  8
0
  6
CONTINUOUS
 10
4.218720
 20
2.529120
  0
SEQEND
  8
0
  0
SOLID
  8
0
 62
    15
 10
3.993880
 20
2.189880
 11
4.619120
 21
1.815000
 12
3.719320
 22
1.844480
 13
4.345000
 23
1.469600
  0
POLYLINE
  8
0
  6
CONTINUOUS
 66
     1
 40
0.000000
 41
0.000000
  0
VERTEX
  8
0
  6
CONTINUOUS
 10
3.993880
 20
2.189880
  0
VERTEX
  8
0
  6
CONTINUOUS
 10
4.619120
 20
1.815000
  0
VERTEX
  8
0
  6
CONTINUOUS
 10
4.345000
 20
1.469600
  0
VERTEX
  8
0
  6
CONTINUOUS
 10
3.719320
 20
1.844480
  0
VERTEX
  8
0
  6
CONTINUOUS
 10
3.993880
 20
2.189880
  0
SEQEND
  8
0
  0
SOLID
  8
0
 62
    15
 10
3.719320
 20
1.844480
 11
4.345000
 21
1.469600
 12
3.395040
 22
1.520200
 13
4.020280
 23
1.145320
  0
POLYLINE
  8
0
  6
CONTINUOUS
 66
     1
 40
0.000000
 41
0.000000
  0
VERTEX
  8
0
  6
CONTINUOUS
 10
3.719320
 20
1.844480
  0
VERTEX
  8
0
  6
CONTINUOUS
 10
4.345000
 20
1.469600
  0
VERTEX
  8
0
  6
CONTINUOUS
 10
4.020280
 20
1.145320
  0
VERTEX
  8
0
  6
CONTINUOUS
 10
3.395040
 20
1.520200
  0
VERTEX
  8
0
  6
CONTINUOUS
 10
3.719320
 20
1.844480
  0
SEQEND
  8
0
  0
SOLID
  8
0
 62
    15
 10
3.395040
 20
1.520200
 11
4.020280
 21
1.145320
 12
3.213760
 22
1.374120
 13
3.839440
 23
0.999240
  0
POLYLINE
  8
0
  6
CONTINUOUS
 66
     1
 40
0.000000
 41
0.000000
  0
VERTEX
  8
0
  6
CONTINUOUS
 10
3.395040
 20
1.520200
  0
VERTEX
  8
0
  6
CONTINUOUS
 10
4.020280
 20
1.145320
  0
VERTEX
  8
0
  6
CONTINUOUS
 10
3.839440
 20
0.999240
  0
VERTEX
  8
0
  6
CONTINUOUS
 10
3.213760
 20
1.374120
  0
VERTEX
  8
0
  6
CONTINUOUS
 10
3.395040
 20
1.520200
  0
SEQEND
  8
0
  0
SOLID
  8
0
 62
    15
 10
3.213760
 20
1.374120
 11
3.839440
 21
0.999240
 12
3.020160
 22
1.243880
 13
3.645400
 23
0.868560
  0
POLYLINE
  8
0
  6
CONTINUOUS
 66
     1
 40
0.000000
 41
0.000000
  0
VERTEX
  8
0
  6
CONTINUOUS
 10
3.213760
 20
1.374120
  0
VERTEX
  8
0
  6
CONTINUOUS
 10
3.839440
 20
0.999240
  0
VERTEX
  8
0
  6
CONTINUOUS
 10
3.645400
 20
0.868560
  0
VERTEX
  8
0
  6
CONTINUOUS
 10
3.020160
 20
1.243880
  0
VERTEX
  8
0
  6
CONTINUOUS
 10
3.213760
 20
1.374120
  0
SEQEND
  8
0
  0
SOLID
  8
0
 62
    15
 10
3.020160
 20
1.243880
 11
3.645400
 21
0.868560
 12
2.813360
 22
1.132120
 13
3.438600
 23
0.757240
  0
POLYLINE
  8
0
  6
CONTINUOUS
 66
     1
 40
0.000000
 41
0.000000
  0
VERTEX
  8
0
  6
CONTINUOUS
 10
3.020160
 20
1.243880
  0
VERTEX
  8
0
  6
CONTINUOUS
 10
3.645400
 20
0.868560
  0
VERTEX
  8
0
  6
CONTINUOUS
 10
3.438600
 20
0.757240
  0
VERTEX
  8
0
  6
CONTINUOUS
 10
2.813360
 20
1.132120
  0
VERTEX
  8
0
  6
CONTINUOUS
 10
3.020160
 20
1.243880
  0
SEQEND
  8
0
  0
SOLID
  8
0
 62
    15
 10
2.593800
 20
1.042360
 11
3.219040
 21
0.667480
 12
2.589400
 22
1.043680
 13
3.214640
 23
0.668800
  0
POLYLINE
  8
0
  6
CONTINUOUS
 66
     1
 40
0.000000
 41
0.000000
  0
VERTEX
  8
0
  6
CONTINUOUS
 10
2.593800
 20
1.042360
  0
VERTEX
  8
0
  6
CONTINUOUS
 10
3.219040
 20
0.667480
  0
VERTEX
  8
0
  6
CONTINUOUS
 10
3.214640
 20
0.668800
  0
VERTEX
  8
0
  6
CONTINUOUS
 10
2.589400
 20
1.043680
  0
VERTEX
  8
0
  6
CONTINUOUS
 10
2.593800
 20
1.042360
  0
SEQEND
  8
0
  0
SOLID
  8
0
 62
    15
 10
2.813360
 20
1.132120
 11
3.438600
 21
0.757240
 12
2.593800
 22
1.042360
 13
3.219040
 23
0.667480
  0
POLYLINE
  8
0
  6
CONTINUOUS
 66
     1
 40
0.000000
 41
0.000000
  0
VERTEX
  8
0
  6
CONTINUOUS
 10
2.813360
 20
1.132120
  0
VERTEX
  8
0
  6
CONTINUOUS
 10
3.438600
 20
0.757240
  0
VERTEX
  8
0
  6
CONTINUOUS
 10
3.219040
 20
0.667480
  0
VERTEX
  8
0
  6
CONTINUOUS
 10
2.593800
 20
1.042360
  0
VERTEX
  8
0
  6
CONTINUOUS
 10
2.813360
 20
1.132120
  0
SEQEND
  8
0
  0
SOLID
  8
0
 62
    15
 10
5.960240
 20
5.525520
 11
6.585480
 21
5.150640
 12
5.953200
 22
4.612960
 13
6.578440
 23
4.238080
  0
POLYLINE
  8
0
  6
CONTINUOUS
 66
     1
 40
0.000000
 41
0.000000
  0
VERTEX
  8
0
  6
CONTINUOUS
 10
5.960240
 20
5.525520
  0
VERTEX
  8
0
  6
CONTINUOUS
 10
6.585480
 20
5.150640
  0
VERTEX
  8
0
  6
CONTINUOUS
 10
6.578440
 20
4.238080
  0
VERTEX
  8
0
  6
CONTINUOUS
 10
5.953200
 20
4.612960
  0
VERTEX
  8
0
  6
CONTINUOUS
 10
5.960240
 20
5.525520
  0
SEQEND
  8
0
  0
SOLID
  8
0
 62
    15
 10
5.953200
 20
4.612960
 11
6.578440
 21
4.238080
 12
5.946600
 22
4.605040
 13
6.571840
 23
4.229720
  0
POLYLINE
  8
0
  6
CONTINUOUS
 66
     1
 40
0.000000
 41
0.000000
  0
VERTEX
  8
0
  6
CONTINUOUS
 10
5.953200
 20
4.612960
  0
VERTEX
  8
0
  6
CONTINUOUS
 10
6.578440
 20
4.238080
  0
VERTEX
  8
0
  6
CONTINUOUS
 10
6.571840
 20
4.229720
  0
VERTEX
  8
0
  6
CONTINUOUS
 10
5.946600
 20
4.605040
  0
VERTEX
  8
0
  6
CONTINUOUS
 10
5.953200
 20
4.612960
  0
SEQEND
  8
0
  0
POLYLINE
  8
0
  6
CONTINUOUS
 66
     1
 40
0.000000
 41
0.000000
  0
VERTEX
  8
0
  6
CONTINUOUS
 10
5.946600
 20
4.605040
  0
VERTEX
  8
0
  6
CONTINUOUS
 10
5.651360
 20
4.472160
  0
VERTEX
  8
0
  6
CONTINUOUS
 10
5.400560
 20
4.304520
  0
VERTEX
  8
0
  6
CONTINUOUS
 10
5.189800
 20
4.114440
  0
VERTEX
  8
0
  6
CONTINUOUS
 10
5.015120
 20
3.912920
  0
VERTEX
  8
0
  6
CONTINUOUS
 10
4.873440
 20
3.712720
  0
VERTEX
  8
0
  6
CONTINUOUS
 10
4.759920
 20
3.525280
  0
VERTEX
  8
0
  6
CONTINUOUS
 10
4.671920
 20
3.362480
  0
VERTEX
  8
0
  6
CONTINUOUS
 10
4.605040
 20
3.236200
  0
VERTEX
  8
0
  6
CONTINUOUS
 10
4.570280
 20
3.170640
  0
VERTEX
  8
0
  6
CONTINUOUS
 10
4.523640
 20
3.079560
  0
VERTEX
  8
0
  6
CONTINUOUS
 10
4.465560
 20
2.966480
  0
VERTEX
  8
0
  6
CONTINUOUS
 10
4.395600
 20
2.834480
  0
VERTEX
  8
0
  6
CONTINUOUS
 10
4.313320
 20
2.687520
  0
VERTEX
  8
0
  6
CONTINUOUS
 10
4.218720
 20
2.529120
  0
VERTEX
  8
0
  6
CONTINUOUS
 10
3.993880
 20
2.189880
  0
VERTEX
  8
0
  6
CONTINUOUS
 10
3.719320
 20
1.844480
  0
VERTEX
  8
0
  6
CONTINUOUS
 10
3.395040
 20
1.520200
  0
VERTEX
  8
0
  6
CONTINUOUS
 10
3.213760
 20
1.374120
  0
VERTEX
  8
0
  6
CONTINUOUS
 10
3.020160
 20
1.243880
  0
VERTEX
  8
0
  6
CONTINUOUS
 10
2.813360
 20
1.132120
  0
VERTEX
  8
0
  6
CONTINUOUS
 10
2.593800
 20
1.042360
  0
VERTEX
  8
0
  6
CONTINUOUS
 10
2.589400
 20
1.043680
  0
VERTEX
  8
0
  6
CONTINUOUS
 10
2.636920
 20
1.679040
  0
VERTEX
  8
0
  6
CONTINUOUS
 10
5.693600
 20
5.522000
  0
VERTEX
  8
0
  6
CONTINUOUS
 10
5.960240
 20
5.525520
  0
VERTEX
  8
0
  6
CONTINUOUS
 10
5.953200
 20
4.612960
  0
VERTEX
  8
0
  6
CONTINUOUS
 10
5.946600
 20
4.605040
  0
SEQEND
  8
0
  0
TEXT
  8
0
 10
4.503840
 20
0.857560
 40
0.138140
  1
BA  318
 41
1.000000
  7
SN0
 71
     0
 72
     5
 11
5.094803
 21
0.857560
  0
TEXT
  8
0
 10
4.347640
 20
0.666160
 40
0.138140
  1
3/4" x 5-5/8"
 41
1.000000
  7
SN0
 71
     0
 72
     5
 11
5.248687
 21
0.666160
  0
ENDSEC
  0
EOF
