  0
SECTION
  2
HEADER
  9
$ACADVER
  1
AC1006
  9
$EXTMIN
 10
3.004760
 20
0.485760
  9
$EXTMAX
 10
7.311920
 20
4.814480
  9
$LTSCALE
 40
0.044000
  9
$PDMODE
 70
    35
  9
$PDSIZE
 40
0.035200
  0
ENDSEC
  0
SECTION
  2
TABLES
  0
TABLE
  2
LTYPE
 70
     9
  0
LTYPE
  2
CONTINUOUS
 70
    64
  3
Solid line
 72
    65
 73
     0
 40
0.000000
  0
LTYPE
  2
DASHED
 70
    64
  3
__ __ __ __ __ __ __ __ __ __ __ __ __ __ __
 72
    65
 73
     2
 40
0.000330
 49
0.000220
 49
-0.000110
  0
LTYPE
  2
HIDDEN
 70
    64
  3
 _ _ _ _ _ _ _ _ _ _ _ _ _ _ _ _ _ _ _ _ _ _
 72
    65
 73
     2
 40
0.000165
 49
0.000110
 49
-0.000055
  0
LTYPE
  2
CENTER
 70
    64
  3
____ _ ____ _ ____ _ ____ _ ____ _ ____ _ ____
 72
    65
 73
     4
 40
0.000880
 49
0.000550
 49
-0.000110
 49
0.000110
 49
-0.000110
  0
LTYPE
  2
PHANTOM
 70
    64
  3
_____ _ _ _____ _ _ _____ _ _ _____ _ _ ____
 72
    65
 73
     6
 40
0.001100
 49
0.000550
 49
-0.000110
 49
0.000110
 49
-0.000110
 49
0.000110
 49
-0.000110
  0
LTYPE
  2
DOT
 70
    64
  3
...............................................
 72
    65
 73
     2
 40
0.000110
 49
0.000000
 49
-0.000110
  0
LTYPE
  2
DASHDOT
 70
    64
  3
__ . __ . __ . __ . __ . __ . __ . __ . __ . __
 72
    65
 73
     4
 40
0.000440
 49
0.000220
 49
-0.000110
 49
0.000000
 49
-0.000110
  0
LTYPE
  2
BORDER
 70
    64
  3
__ __ . __ __ . __ __ . __ __ . __ __ . __ __
 72
    65
 73
     6
 40
0.000770
 49
0.000220
 49
-0.000110
 49
0.000220
 49
-0.000110
 49
0.000000
 49
-0.000110
  0
LTYPE
  2
DIVIDE
 70
    64
  3
__ . . __ . . __ . . __ . . __ . . __ . . __
 72
    65
 73
     6
 40
0.000550
 49
0.000220
 49
-0.000110
 49
0.000000
 49
-0.000110
 49
0.000000
 49
-0.000110
  0
LTYPE
  2
DOTDOT
 70
    64
  3
 . .  . .  . .  . .  . .  . . 
 72
    65
 73
     5
 40
0.000242
 49
-0.000110
 49
0.000000
 49
-0.000110
 49
0.000000
 49
-0.000110
  0
ENDTAB
  0
TABLE
  2
STYLE
 70
     2
  0
STYLE
 70
     0
  2
SN0
 40
0.000000
 41
0.000440
 50
0.000000
 71
     0
 42
0.000000
  3
ROMAND
  0
STYLE
 70
    68
  2
SV0
 40
0.000000
 41
0.000440
 50
0.000000
 71
     0
 42
0.000000
  3
ROMAND
  0
ENDTAB
  0
TABLE
  2
LAYER
 70
     3
  0
LAYER
  2
FOREGROUND
 70
    64
 62
     7
  6
CONTINUOUS
  0
LAYER
  2
BACKGROUND
 70
    65
 62
    -7
  6
CONTINUOUS
  0
LAYER
  2
0
 70
    64
 62
     7
  6
CONTINUOUS
  0
ENDTAB
  0
ENDSEC
  0
SECTION
  2
ENTITIES
  0
POLYLINE
  8
FOREGROUND
  6
CONTINUOUS
 66
     1
 40
0.000000
 41
0.000000
  0
VERTEX
  8
FOREGROUND
  6
CONTINUOUS
 10
0.000000
 20
5.300240
  0
VERTEX
  8
FOREGROUND
  6
CONTINUOUS
 10
8.499920
 20
5.300240
  0
VERTEX
  8
FOREGROUND
  6
CONTINUOUS
 10
8.499920
 20
-5.699760
  0
VERTEX
  8
FOREGROUND
  6
CONTINUOUS
 10
0.000000
 20
-5.699760
  0
VERTEX
  8
FOREGROUND
  6
CONTINUOUS
 10
0.000000
 20
5.300240
  0
SEQEND
  8
0
  0
POLYLINE
  8
FOREGROUND
  6
CONTINUOUS
 66
     1
 40
0.000000
 41
0.000000
  0
VERTEX
  8
FOREGROUND
  6
CONTINUOUS
 10
0.000000
 20
5.300240
  0
VERTEX
  8
FOREGROUND
  6
CONTINUOUS
 10
8.499920
 20
5.300240
  0
VERTEX
  8
FOREGROUND
  6
CONTINUOUS
 10
8.499920
 20
-5.699760
  0
VERTEX
  8
FOREGROUND
  6
CONTINUOUS
 10
0.000000
 20
-5.699760
  0
VERTEX
  8
FOREGROUND
  6
CONTINUOUS
 10
0.000000
 20
5.300240
  0
SEQEND
  8
0
  0
POLYLINE
  8
0
  6
CONTINUOUS
 66
     1
 40
0.014080
 41
0.014080
  0
VERTEX
  8
0
  6
CONTINUOUS
 10
6.263840
 20
4.702720
  0
VERTEX
  8
0
  6
CONTINUOUS
 10
6.622440
 20
4.336200
  0
VERTEX
  8
0
  6
CONTINUOUS
 10
6.247120
 20
3.944600
  0
VERTEX
  8
0
  6
CONTINUOUS
 10
3.382720
 20
3.944600
  0
VERTEX
  8
0
  6
CONTINUOUS
 10
3.014000
 20
4.206840
  0
VERTEX
  8
0
  6
CONTINUOUS
 10
3.011800
 20
4.211240
  0
VERTEX
  8
0
  6
CONTINUOUS
 10
3.036000
 20
4.268000
  0
VERTEX
  8
0
  6
CONTINUOUS
 10
3.062840
 20
4.321680
  0
VERTEX
  8
0
  6
CONTINUOUS
 10
3.092760
 20
4.372720
  0
VERTEX
  8
0
  6
CONTINUOUS
 10
3.142920
 20
4.444000
  0
VERTEX
  8
0
  6
CONTINUOUS
 10
3.179440
 20
4.487560
  0
VERTEX
  8
0
  6
CONTINUOUS
 10
3.218600
 20
4.528480
  0
VERTEX
  8
0
  6
CONTINUOUS
 10
3.259520
 20
4.566760
  0
VERTEX
  8
0
  6
CONTINUOUS
 10
3.324640
 20
4.617800
  0
VERTEX
  8
0
  6
CONTINUOUS
 10
3.370400
 20
4.648160
  0
VERTEX
  8
0
  6
CONTINUOUS
 10
3.442120
 20
4.687320
  0
VERTEX
  8
0
  6
CONTINUOUS
 10
3.491840
 20
4.709760
  0
VERTEX
  8
0
  6
CONTINUOUS
 10
3.542440
 20
4.729120
  0
VERTEX
  8
0
  6
CONTINUOUS
 10
3.594360
 20
4.744960
  0
VERTEX
  8
0
  6
CONTINUOUS
 10
3.647160
 20
4.757720
  0
VERTEX
  8
0
  6
CONTINUOUS
 10
3.700840
 20
4.766960
  0
VERTEX
  8
0
  6
CONTINUOUS
 10
3.781800
 20
4.774440
  0
VERTEX
  8
0
  6
CONTINUOUS
 10
3.836800
 20
4.775320
  0
VERTEX
  8
0
  6
CONTINUOUS
 10
3.891360
 20
4.772240
  0
VERTEX
  8
0
  6
CONTINUOUS
 10
3.946360
 20
4.766080
  0
VERTEX
  8
0
  6
CONTINUOUS
 10
4.001360
 20
4.756400
  0
VERTEX
  8
0
  6
CONTINUOUS
 10
4.055920
 20
4.743200
  0
VERTEX
  8
0
  6
CONTINUOUS
 10
4.136880
 20
4.716360
  0
VERTEX
  8
0
  6
CONTINUOUS
 10
4.189680
 20
4.693920
  0
VERTEX
  8
0
  6
CONTINUOUS
 10
4.242040
 20
4.667520
  0
VERTEX
  8
0
  6
CONTINUOUS
 10
4.293520
 20
4.637600
  0
VERTEX
  8
0
  6
CONTINUOUS
 10
4.343680
 20
4.603720
  0
VERTEX
  8
0
  6
CONTINUOUS
 10
4.392520
 20
4.566320
  0
VERTEX
  8
0
  6
CONTINUOUS
 10
4.440040
 20
4.524520
  0
VERTEX
  8
0
  6
CONTINUOUS
 10
4.485800
 20
4.479200
  0
VERTEX
  8
0
  6
CONTINUOUS
 10
4.511760
 20
4.450600
  0
VERTEX
  8
0
  6
CONTINUOUS
 10
4.893240
 20
4.809200
  0
VERTEX
  8
0
  6
CONTINUOUS
 10
4.922720
 20
4.773560
  0
VERTEX
  8
0
  6
CONTINUOUS
 10
4.986520
 20
4.706240
  0
VERTEX
  8
0
  6
CONTINUOUS
 10
5.056040
 20
4.645960
  0
VERTEX
  8
0
  6
CONTINUOUS
 10
5.093000
 20
4.618240
  0
VERTEX
  8
0
  6
CONTINUOUS
 10
5.131280
 20
4.592280
  0
VERTEX
  8
0
  6
CONTINUOUS
 10
5.170440
 20
4.568080
  0
VERTEX
  8
0
  6
CONTINUOUS
 10
5.210480
 20
4.546080
  0
VERTEX
  8
0
  6
CONTINUOUS
 10
5.294080
 20
4.507800
  0
VERTEX
  8
0
  6
CONTINUOUS
 10
5.337200
 20
4.491960
  0
VERTEX
  8
0
  6
CONTINUOUS
 10
5.380760
 20
4.478320
  0
VERTEX
  8
0
  6
CONTINUOUS
 10
5.425200
 20
4.466440
  0
VERTEX
  8
0
  6
CONTINUOUS
 10
5.470520
 20
4.457200
  0
VERTEX
  8
0
  6
CONTINUOUS
 10
5.516280
 20
4.450160
  0
VERTEX
  8
0
  6
CONTINUOUS
 10
5.562040
 20
4.445320
  0
VERTEX
  8
0
  6
CONTINUOUS
 10
5.608680
 20
4.443120
  0
VERTEX
  8
0
  6
CONTINUOUS
 10
5.679080
 20
4.444440
  0
VERTEX
  8
0
  6
CONTINUOUS
 10
5.749920
 20
4.451920
  0
VERTEX
  8
0
  6
CONTINUOUS
 10
5.797000
 20
4.459840
  0
VERTEX
  8
0
  6
CONTINUOUS
 10
5.867840
 20
4.477000
  0
VERTEX
  8
0
  6
CONTINUOUS
 10
5.938680
 20
4.500760
  0
VERTEX
  8
0
  6
CONTINUOUS
 10
6.008640
 20
4.531120
  0
VERTEX
  8
0
  6
CONTINUOUS
 10
6.078160
 20
4.567640
  0
VERTEX
  8
0
  6
CONTINUOUS
 10
6.146800
 20
4.611640
  0
VERTEX
  8
0
  6
CONTINUOUS
 10
6.191680
 20
4.644640
  0
VERTEX
  8
0
  6
CONTINUOUS
 10
6.257680
 20
4.700520
  0
VERTEX
  8
0
  6
CONTINUOUS
 10
6.263840
 20
4.702720
  0
SEQEND
  8
0
  0
SOLID
  8
0
 62
    15
 10
6.056600
 20
2.346520
 11
6.706920
 21
1.968120
 12
5.941320
 22
2.317480
 13
6.591640
 23
1.939080
  0
POLYLINE
  8
0
  6
CONTINUOUS
 66
     1
 40
0.000000
 41
0.000000
  0
VERTEX
  8
0
  6
CONTINUOUS
 10
6.056600
 20
2.346520
  0
VERTEX
  8
0
  6
CONTINUOUS
 10
6.706920
 20
1.968120
  0
VERTEX
  8
0
  6
CONTINUOUS
 10
6.591640
 20
1.939080
  0
VERTEX
  8
0
  6
CONTINUOUS
 10
5.941320
 20
2.317480
  0
VERTEX
  8
0
  6
CONTINUOUS
 10
6.056600
 20
2.346520
  0
SEQEND
  8
0
  0
SOLID
  8
0
 62
    15
 10
4.098600
 20
0.905960
 11
4.748920
 21
0.528000
 12
4.098600
 22
0.905960
 13
4.748920
 23
0.527560
  0
POLYLINE
  8
0
  6
CONTINUOUS
 66
     1
 40
0.000000
 41
0.000000
  0
VERTEX
  8
0
  6
CONTINUOUS
 10
4.098600
 20
0.905960
  0
VERTEX
  8
0
  6
CONTINUOUS
 10
4.748920
 20
0.528000
  0
VERTEX
  8
0
  6
CONTINUOUS
 10
4.748920
 20
0.527560
  0
VERTEX
  8
0
  6
CONTINUOUS
 10
4.098600
 20
0.905960
  0
SEQEND
  8
0
  0
SOLID
  8
0
 62
    15
 10
6.586360
 20
3.525720
 11
7.236680
 21
3.147320
 12
6.627280
 22
3.410880
 13
7.277600
 23
3.032920
  0
POLYLINE
  8
0
  6
CONTINUOUS
 66
     1
 40
0.000000
 41
0.000000
  0
VERTEX
  8
0
  6
CONTINUOUS
 10
6.586360
 20
3.525720
  0
VERTEX
  8
0
  6
CONTINUOUS
 10
7.236680
 20
3.147320
  0
VERTEX
  8
0
  6
CONTINUOUS
 10
7.277600
 20
3.032920
  0
VERTEX
  8
0
  6
CONTINUOUS
 10
6.627280
 20
3.410880
  0
VERTEX
  8
0
  6
CONTINUOUS
 10
6.586360
 20
3.525720
  0
SEQEND
  8
0
  0
SOLID
  8
0
 62
    15
 10
6.627280
 20
3.410880
 11
7.277600
 21
3.032920
 12
6.651920
 22
3.296480
 13
7.302240
 23
2.918080
  0
POLYLINE
  8
0
  6
CONTINUOUS
 66
     1
 40
0.000000
 41
0.000000
  0
VERTEX
  8
0
  6
CONTINUOUS
 10
6.627280
 20
3.410880
  0
VERTEX
  8
0
  6
CONTINUOUS
 10
7.277600
 20
3.032920
  0
VERTEX
  8
0
  6
CONTINUOUS
 10
7.302240
 20
2.918080
  0
VERTEX
  8
0
  6
CONTINUOUS
 10
6.651920
 20
3.296480
  0
VERTEX
  8
0
  6
CONTINUOUS
 10
6.627280
 20
3.410880
  0
SEQEND
  8
0
  0
SOLID
  8
0
 62
    15
 10
6.651920
 20
3.296480
 11
7.302240
 21
2.918080
 12
6.661160
 22
3.182520
 13
7.311480
 23
2.804560
  0
POLYLINE
  8
0
  6
CONTINUOUS
 66
     1
 40
0.000000
 41
0.000000
  0
VERTEX
  8
0
  6
CONTINUOUS
 10
6.651920
 20
3.296480
  0
VERTEX
  8
0
  6
CONTINUOUS
 10
7.302240
 20
2.918080
  0
VERTEX
  8
0
  6
CONTINUOUS
 10
7.311480
 20
2.804560
  0
VERTEX
  8
0
  6
CONTINUOUS
 10
6.661160
 20
3.182520
  0
VERTEX
  8
0
  6
CONTINUOUS
 10
6.651920
 20
3.296480
  0
SEQEND
  8
0
  0
SOLID
  8
0
 62
    15
 10
6.661160
 20
3.182520
 11
7.311480
 21
2.804560
 12
6.655880
 22
3.071200
 13
7.306200
 23
2.692800
  0
POLYLINE
  8
0
  6
CONTINUOUS
 66
     1
 40
0.000000
 41
0.000000
  0
VERTEX
  8
0
  6
CONTINUOUS
 10
6.661160
 20
3.182520
  0
VERTEX
  8
0
  6
CONTINUOUS
 10
7.311480
 20
2.804560
  0
VERTEX
  8
0
  6
CONTINUOUS
 10
7.306200
 20
2.692800
  0
VERTEX
  8
0
  6
CONTINUOUS
 10
6.655880
 20
3.071200
  0
VERTEX
  8
0
  6
CONTINUOUS
 10
6.661160
 20
3.182520
  0
SEQEND
  8
0
  0
SOLID
  8
0
 62
    15
 10
6.655880
 20
3.071200
 11
7.306200
 21
2.692800
 12
6.636520
 22
2.962960
 13
7.286840
 23
2.584560
  0
POLYLINE
  8
0
  6
CONTINUOUS
 66
     1
 40
0.000000
 41
0.000000
  0
VERTEX
  8
0
  6
CONTINUOUS
 10
6.655880
 20
3.071200
  0
VERTEX
  8
0
  6
CONTINUOUS
 10
7.306200
 20
2.692800
  0
VERTEX
  8
0
  6
CONTINUOUS
 10
7.286840
 20
2.584560
  0
VERTEX
  8
0
  6
CONTINUOUS
 10
6.636520
 20
2.962960
  0
VERTEX
  8
0
  6
CONTINUOUS
 10
6.655880
 20
3.071200
  0
SEQEND
  8
0
  0
SOLID
  8
0
 62
    15
 10
6.636520
 20
2.962960
 11
7.286840
 21
2.584560
 12
6.603520
 22
2.858680
 13
7.253840
 23
2.480720
  0
POLYLINE
  8
0
  6
CONTINUOUS
 66
     1
 40
0.000000
 41
0.000000
  0
VERTEX
  8
0
  6
CONTINUOUS
 10
6.636520
 20
2.962960
  0
VERTEX
  8
0
  6
CONTINUOUS
 10
7.286840
 20
2.584560
  0
VERTEX
  8
0
  6
CONTINUOUS
 10
7.253840
 20
2.480720
  0
VERTEX
  8
0
  6
CONTINUOUS
 10
6.603520
 20
2.858680
  0
VERTEX
  8
0
  6
CONTINUOUS
 10
6.636520
 20
2.962960
  0
SEQEND
  8
0
  0
SOLID
  8
0
 62
    15
 10
6.603520
 20
2.858680
 11
7.253840
 21
2.480720
 12
6.558200
 22
2.760560
 13
7.208520
 23
2.382160
  0
POLYLINE
  8
0
  6
CONTINUOUS
 66
     1
 40
0.000000
 41
0.000000
  0
VERTEX
  8
0
  6
CONTINUOUS
 10
6.603520
 20
2.858680
  0
VERTEX
  8
0
  6
CONTINUOUS
 10
7.253840
 20
2.480720
  0
VERTEX
  8
0
  6
CONTINUOUS
 10
7.208520
 20
2.382160
  0
VERTEX
  8
0
  6
CONTINUOUS
 10
6.558200
 20
2.760560
  0
VERTEX
  8
0
  6
CONTINUOUS
 10
6.603520
 20
2.858680
  0
SEQEND
  8
0
  0
SOLID
  8
0
 62
    15
 10
6.558200
 20
2.760560
 11
7.208520
 21
2.382160
 12
6.500560
 22
2.668600
 13
7.150880
 23
2.290200
  0
POLYLINE
  8
0
  6
CONTINUOUS
 66
     1
 40
0.000000
 41
0.000000
  0
VERTEX
  8
0
  6
CONTINUOUS
 10
6.558200
 20
2.760560
  0
VERTEX
  8
0
  6
CONTINUOUS
 10
7.208520
 20
2.382160
  0
VERTEX
  8
0
  6
CONTINUOUS
 10
7.150880
 20
2.290200
  0
VERTEX
  8
0
  6
CONTINUOUS
 10
6.500560
 20
2.668600
  0
VERTEX
  8
0
  6
CONTINUOUS
 10
6.558200
 20
2.760560
  0
SEQEND
  8
0
  0
SOLID
  8
0
 62
    15
 10
6.500560
 20
2.668600
 11
7.150880
 21
2.290200
 12
6.431920
 22
2.584120
 13
7.081800
 23
2.206160
  0
POLYLINE
  8
0
  6
CONTINUOUS
 66
     1
 40
0.000000
 41
0.000000
  0
VERTEX
  8
0
  6
CONTINUOUS
 10
6.500560
 20
2.668600
  0
VERTEX
  8
0
  6
CONTINUOUS
 10
7.150880
 20
2.290200
  0
VERTEX
  8
0
  6
CONTINUOUS
 10
7.081800
 20
2.206160
  0
VERTEX
  8
0
  6
CONTINUOUS
 10
6.431920
 20
2.584120
  0
VERTEX
  8
0
  6
CONTINUOUS
 10
6.500560
 20
2.668600
  0
SEQEND
  8
0
  0
SOLID
  8
0
 62
    15
 10
6.431920
 20
2.584120
 11
7.081800
 21
2.206160
 12
6.352280
 22
2.508880
 13
7.002600
 23
2.130480
  0
POLYLINE
  8
0
  6
CONTINUOUS
 66
     1
 40
0.000000
 41
0.000000
  0
VERTEX
  8
0
  6
CONTINUOUS
 10
6.431920
 20
2.584120
  0
VERTEX
  8
0
  6
CONTINUOUS
 10
7.081800
 20
2.206160
  0
VERTEX
  8
0
  6
CONTINUOUS
 10
7.002600
 20
2.130480
  0
VERTEX
  8
0
  6
CONTINUOUS
 10
6.352280
 20
2.508880
  0
VERTEX
  8
0
  6
CONTINUOUS
 10
6.431920
 20
2.584120
  0
SEQEND
  8
0
  0
SOLID
  8
0
 62
    15
 10
6.352280
 20
2.508880
 11
7.002600
 21
2.130480
 12
6.262520
 22
2.443320
 13
6.912840
 23
2.064920
  0
POLYLINE
  8
0
  6
CONTINUOUS
 66
     1
 40
0.000000
 41
0.000000
  0
VERTEX
  8
0
  6
CONTINUOUS
 10
6.352280
 20
2.508880
  0
VERTEX
  8
0
  6
CONTINUOUS
 10
7.002600
 20
2.130480
  0
VERTEX
  8
0
  6
CONTINUOUS
 10
6.912840
 20
2.064920
  0
VERTEX
  8
0
  6
CONTINUOUS
 10
6.262520
 20
2.443320
  0
VERTEX
  8
0
  6
CONTINUOUS
 10
6.352280
 20
2.508880
  0
SEQEND
  8
0
  0
SOLID
  8
0
 62
    15
 10
6.262520
 20
2.443320
 11
6.912840
 21
2.064920
 12
6.163960
 22
2.388760
 13
6.814280
 23
2.010800
  0
POLYLINE
  8
0
  6
CONTINUOUS
 66
     1
 40
0.000000
 41
0.000000
  0
VERTEX
  8
0
  6
CONTINUOUS
 10
6.262520
 20
2.443320
  0
VERTEX
  8
0
  6
CONTINUOUS
 10
6.912840
 20
2.064920
  0
VERTEX
  8
0
  6
CONTINUOUS
 10
6.814280
 20
2.010800
  0
VERTEX
  8
0
  6
CONTINUOUS
 10
6.163960
 20
2.388760
  0
VERTEX
  8
0
  6
CONTINUOUS
 10
6.262520
 20
2.443320
  0
SEQEND
  8
0
  0
SOLID
  8
0
 62
    15
 10
6.163960
 20
2.388760
 11
6.814280
 21
2.010800
 12
6.056600
 22
2.346520
 13
6.706920
 23
1.968120
  0
POLYLINE
  8
0
  6
CONTINUOUS
 66
     1
 40
0.000000
 41
0.000000
  0
VERTEX
  8
0
  6
CONTINUOUS
 10
6.163960
 20
2.388760
  0
VERTEX
  8
0
  6
CONTINUOUS
 10
6.814280
 20
2.010800
  0
VERTEX
  8
0
  6
CONTINUOUS
 10
6.706920
 20
1.968120
  0
VERTEX
  8
0
  6
CONTINUOUS
 10
6.056600
 20
2.346520
  0
VERTEX
  8
0
  6
CONTINUOUS
 10
6.163960
 20
2.388760
  0
SEQEND
  8
0
  0
SOLID
  8
0
 62
    15
 10
4.611200
 20
0.895400
 11
5.261520
 21
0.517440
 12
4.098600
 22
0.905960
 13
4.748920
 23
0.528000
  0
POLYLINE
  8
0
  6
CONTINUOUS
 66
     1
 40
0.000000
 41
0.000000
  0
VERTEX
  8
0
  6
CONTINUOUS
 10
4.611200
 20
0.895400
  0
VERTEX
  8
0
  6
CONTINUOUS
 10
5.261520
 20
0.517440
  0
VERTEX
  8
0
  6
CONTINUOUS
 10
4.748920
 20
0.528000
  0
VERTEX
  8
0
  6
CONTINUOUS
 10
4.098600
 20
0.905960
  0
VERTEX
  8
0
  6
CONTINUOUS
 10
4.611200
 20
0.895400
  0
SEQEND
  8
0
  0
SOLID
  8
0
 62
    15
 10
5.941320
 20
2.317480
 11
6.591640
 21
1.939080
 12
5.819000
 22
2.302520
 13
6.469320
 23
1.924560
  0
POLYLINE
  8
0
  6
CONTINUOUS
 66
     1
 40
0.000000
 41
0.000000
  0
VERTEX
  8
0
  6
CONTINUOUS
 10
5.941320
 20
2.317480
  0
VERTEX
  8
0
  6
CONTINUOUS
 10
6.591640
 20
1.939080
  0
VERTEX
  8
0
  6
CONTINUOUS
 10
6.469320
 20
1.924560
  0
VERTEX
  8
0
  6
CONTINUOUS
 10
5.819000
 20
2.302520
  0
VERTEX
  8
0
  6
CONTINUOUS
 10
5.941320
 20
2.317480
  0
SEQEND
  8
0
  0
SOLID
  8
0
 62
    15
 10
5.819000
 20
2.302520
 11
6.469320
 21
1.924560
 12
5.690080
 22
2.303400
 13
6.340400
 23
1.925000
  0
POLYLINE
  8
0
  6
CONTINUOUS
 66
     1
 40
0.000000
 41
0.000000
  0
VERTEX
  8
0
  6
CONTINUOUS
 10
5.819000
 20
2.302520
  0
VERTEX
  8
0
  6
CONTINUOUS
 10
6.469320
 20
1.924560
  0
VERTEX
  8
0
  6
CONTINUOUS
 10
6.340400
 20
1.925000
  0
VERTEX
  8
0
  6
CONTINUOUS
 10
5.690080
 20
2.303400
  0
VERTEX
  8
0
  6
CONTINUOUS
 10
5.819000
 20
2.302520
  0
SEQEND
  8
0
  0
SOLID
  8
0
 62
    15
 10
5.690080
 20
2.303400
 11
6.340400
 21
1.925000
 12
5.684360
 22
2.303400
 13
6.334680
 23
1.925440
  0
POLYLINE
  8
0
  6
CONTINUOUS
 66
     1
 40
0.000000
 41
0.000000
  0
VERTEX
  8
0
  6
CONTINUOUS
 10
5.690080
 20
2.303400
  0
VERTEX
  8
0
  6
CONTINUOUS
 10
6.340400
 20
1.925000
  0
VERTEX
  8
0
  6
CONTINUOUS
 10
6.334680
 20
1.925440
  0
VERTEX
  8
0
  6
CONTINUOUS
 10
5.684360
 20
2.303400
  0
VERTEX
  8
0
  6
CONTINUOUS
 10
5.690080
 20
2.303400
  0
SEQEND
  8
0
  0
SOLID
  8
0
 62
    15
 10
5.684360
 20
2.303400
 11
6.334680
 21
1.925440
 12
5.663680
 22
1.780680
 13
6.313560
 23
1.402280
  0
POLYLINE
  8
0
  6
CONTINUOUS
 66
     1
 40
0.000000
 41
0.000000
  0
VERTEX
  8
0
  6
CONTINUOUS
 10
5.684360
 20
2.303400
  0
VERTEX
  8
0
  6
CONTINUOUS
 10
6.334680
 20
1.925440
  0
VERTEX
  8
0
  6
CONTINUOUS
 10
6.313560
 20
1.402280
  0
VERTEX
  8
0
  6
CONTINUOUS
 10
5.663680
 20
1.780680
  0
VERTEX
  8
0
  6
CONTINUOUS
 10
5.684360
 20
2.303400
  0
SEQEND
  8
0
  0
SOLID
  8
0
 62
    15
 10
5.663680
 20
1.780680
 11
6.313560
 21
1.402280
 12
5.478880
 22
1.786840
 13
6.128760
 23
1.408440
  0
POLYLINE
  8
0
  6
CONTINUOUS
 66
     1
 40
0.000000
 41
0.000000
  0
VERTEX
  8
0
  6
CONTINUOUS
 10
5.663680
 20
1.780680
  0
VERTEX
  8
0
  6
CONTINUOUS
 10
6.313560
 20
1.402280
  0
VERTEX
  8
0
  6
CONTINUOUS
 10
6.128760
 20
1.408440
  0
VERTEX
  8
0
  6
CONTINUOUS
 10
5.478880
 20
1.786840
  0
VERTEX
  8
0
  6
CONTINUOUS
 10
5.663680
 20
1.780680
  0
SEQEND
  8
0
  0
SOLID
  8
0
 62
    15
 10
5.478880
 20
1.786840
 11
6.128760
 21
1.408440
 12
5.297160
 22
1.758240
 13
5.947480
 23
1.379840
  0
POLYLINE
  8
0
  6
CONTINUOUS
 66
     1
 40
0.000000
 41
0.000000
  0
VERTEX
  8
0
  6
CONTINUOUS
 10
5.478880
 20
1.786840
  0
VERTEX
  8
0
  6
CONTINUOUS
 10
6.128760
 20
1.408440
  0
VERTEX
  8
0
  6
CONTINUOUS
 10
5.947480
 20
1.379840
  0
VERTEX
  8
0
  6
CONTINUOUS
 10
5.297160
 20
1.758240
  0
VERTEX
  8
0
  6
CONTINUOUS
 10
5.478880
 20
1.786840
  0
SEQEND
  8
0
  0
SOLID
  8
0
 62
    15
 10
5.297160
 20
1.758240
 11
5.947480
 21
1.379840
 12
5.124680
 22
1.695760
 13
5.775000
 23
1.317360
  0
POLYLINE
  8
0
  6
CONTINUOUS
 66
     1
 40
0.000000
 41
0.000000
  0
VERTEX
  8
0
  6
CONTINUOUS
 10
5.297160
 20
1.758240
  0
VERTEX
  8
0
  6
CONTINUOUS
 10
5.947480
 20
1.379840
  0
VERTEX
  8
0
  6
CONTINUOUS
 10
5.775000
 20
1.317360
  0
VERTEX
  8
0
  6
CONTINUOUS
 10
5.124680
 20
1.695760
  0
VERTEX
  8
0
  6
CONTINUOUS
 10
5.297160
 20
1.758240
  0
SEQEND
  8
0
  0
SOLID
  8
0
 62
    15
 10
5.124680
 20
1.695760
 11
5.775000
 21
1.317360
 12
4.967600
 22
1.599840
 13
5.617920
 23
1.221880
  0
POLYLINE
  8
0
  6
CONTINUOUS
 66
     1
 40
0.000000
 41
0.000000
  0
VERTEX
  8
0
  6
CONTINUOUS
 10
5.124680
 20
1.695760
  0
VERTEX
  8
0
  6
CONTINUOUS
 10
5.775000
 20
1.317360
  0
VERTEX
  8
0
  6
CONTINUOUS
 10
5.617920
 20
1.221880
  0
VERTEX
  8
0
  6
CONTINUOUS
 10
4.967600
 20
1.599840
  0
VERTEX
  8
0
  6
CONTINUOUS
 10
5.124680
 20
1.695760
  0
SEQEND
  8
0
  0
SOLID
  8
0
 62
    15
 10
4.967600
 20
1.599840
 11
5.617920
 21
1.221880
 12
4.832080
 22
1.471800
 13
5.482400
 23
1.093840
  0
POLYLINE
  8
0
  6
CONTINUOUS
 66
     1
 40
0.000000
 41
0.000000
  0
VERTEX
  8
0
  6
CONTINUOUS
 10
4.967600
 20
1.599840
  0
VERTEX
  8
0
  6
CONTINUOUS
 10
5.617920
 20
1.221880
  0
VERTEX
  8
0
  6
CONTINUOUS
 10
5.482400
 20
1.093840
  0
VERTEX
  8
0
  6
CONTINUOUS
 10
4.832080
 20
1.471800
  0
VERTEX
  8
0
  6
CONTINUOUS
 10
4.967600
 20
1.599840
  0
SEQEND
  8
0
  0
SOLID
  8
0
 62
    15
 10
4.832080
 20
1.471800
 11
5.482400
 21
1.093840
 12
4.723840
 22
1.312520
 13
5.374160
 23
0.934120
  0
POLYLINE
  8
0
  6
CONTINUOUS
 66
     1
 40
0.000000
 41
0.000000
  0
VERTEX
  8
0
  6
CONTINUOUS
 10
4.832080
 20
1.471800
  0
VERTEX
  8
0
  6
CONTINUOUS
 10
5.482400
 20
1.093840
  0
VERTEX
  8
0
  6
CONTINUOUS
 10
5.374160
 20
0.934120
  0
VERTEX
  8
0
  6
CONTINUOUS
 10
4.723840
 20
1.312520
  0
VERTEX
  8
0
  6
CONTINUOUS
 10
4.832080
 20
1.471800
  0
SEQEND
  8
0
  0
SOLID
  8
0
 62
    15
 10
4.723840
 20
1.312520
 11
5.374160
 21
0.934120
 12
4.649040
 22
1.122000
 13
5.299360
 23
0.743600
  0
POLYLINE
  8
0
  6
CONTINUOUS
 66
     1
 40
0.000000
 41
0.000000
  0
VERTEX
  8
0
  6
CONTINUOUS
 10
4.723840
 20
1.312520
  0
VERTEX
  8
0
  6
CONTINUOUS
 10
5.374160
 20
0.934120
  0
VERTEX
  8
0
  6
CONTINUOUS
 10
5.299360
 20
0.743600
  0
VERTEX
  8
0
  6
CONTINUOUS
 10
4.649040
 20
1.122000
  0
VERTEX
  8
0
  6
CONTINUOUS
 10
4.723840
 20
1.312520
  0
SEQEND
  8
0
  0
SOLID
  8
0
 62
    15
 10
4.649040
 20
1.122000
 11
5.299360
 21
0.743600
 12
4.626600
 22
1.015520
 13
5.276480
 23
0.637120
  0
POLYLINE
  8
0
  6
CONTINUOUS
 66
     1
 40
0.000000
 41
0.000000
  0
VERTEX
  8
0
  6
CONTINUOUS
 10
4.649040
 20
1.122000
  0
VERTEX
  8
0
  6
CONTINUOUS
 10
5.299360
 20
0.743600
  0
VERTEX
  8
0
  6
CONTINUOUS
 10
5.276480
 20
0.637120
  0
VERTEX
  8
0
  6
CONTINUOUS
 10
4.626600
 20
1.015520
  0
VERTEX
  8
0
  6
CONTINUOUS
 10
4.649040
 20
1.122000
  0
SEQEND
  8
0
  0
SOLID
  8
0
 62
    15
 10
4.626600
 20
1.015520
 11
5.276480
 21
0.637120
 12
4.614280
 22
0.901560
 13
5.264600
 23
0.523160
  0
POLYLINE
  8
0
  6
CONTINUOUS
 66
     1
 40
0.000000
 41
0.000000
  0
VERTEX
  8
0
  6
CONTINUOUS
 10
4.626600
 20
1.015520
  0
VERTEX
  8
0
  6
CONTINUOUS
 10
5.276480
 20
0.637120
  0
VERTEX
  8
0
  6
CONTINUOUS
 10
5.264600
 20
0.523160
  0
VERTEX
  8
0
  6
CONTINUOUS
 10
4.614280
 20
0.901560
  0
VERTEX
  8
0
  6
CONTINUOUS
 10
4.626600
 20
1.015520
  0
SEQEND
  8
0
  0
SOLID
  8
0
 62
    15
 10
4.614280
 20
0.901560
 11
5.264600
 21
0.523160
 12
4.611200
 22
0.895400
 13
5.261520
 23
0.517440
  0
POLYLINE
  8
0
  6
CONTINUOUS
 66
     1
 40
0.000000
 41
0.000000
  0
VERTEX
  8
0
  6
CONTINUOUS
 10
4.614280
 20
0.901560
  0
VERTEX
  8
0
  6
CONTINUOUS
 10
5.264600
 20
0.523160
  0
VERTEX
  8
0
  6
CONTINUOUS
 10
5.261520
 20
0.517440
  0
VERTEX
  8
0
  6
CONTINUOUS
 10
4.611200
 20
0.895400
  0
VERTEX
  8
0
  6
CONTINUOUS
 10
4.614280
 20
0.901560
  0
SEQEND
  8
0
  0
POLYLINE
  8
0
  6
CONTINUOUS
 66
     1
 40
0.000000
 41
0.000000
  0
VERTEX
  8
0
  6
CONTINUOUS
 10
4.611200
 20
0.895400
  0
VERTEX
  8
0
  6
CONTINUOUS
 10
4.098600
 20
0.905960
  0
VERTEX
  8
0
  6
CONTINUOUS
 10
4.091560
 20
1.448040
  0
VERTEX
  8
0
  6
CONTINUOUS
 10
6.134920
 20
3.455760
  0
VERTEX
  8
0
  6
CONTINUOUS
 10
6.581960
 20
3.527040
  0
VERTEX
  8
0
  6
CONTINUOUS
 10
6.586360
 20
3.525720
  0
VERTEX
  8
0
  6
CONTINUOUS
 10
6.627280
 20
3.410880
  0
VERTEX
  8
0
  6
CONTINUOUS
 10
6.651920
 20
3.296480
  0
VERTEX
  8
0
  6
CONTINUOUS
 10
6.661160
 20
3.182520
  0
VERTEX
  8
0
  6
CONTINUOUS
 10
6.655880
 20
3.071200
  0
VERTEX
  8
0
  6
CONTINUOUS
 10
6.636520
 20
2.962960
  0
VERTEX
  8
0
  6
CONTINUOUS
 10
6.603520
 20
2.858680
  0
VERTEX
  8
0
  6
CONTINUOUS
 10
6.558200
 20
2.760560
  0
VERTEX
  8
0
  6
CONTINUOUS
 10
6.500560
 20
2.668600
  0
VERTEX
  8
0
  6
CONTINUOUS
 10
6.431920
 20
2.584120
  0
VERTEX
  8
0
  6
CONTINUOUS
 10
6.352280
 20
2.508880
  0
VERTEX
  8
0
  6
CONTINUOUS
 10
6.262520
 20
2.443320
  0
VERTEX
  8
0
  6
CONTINUOUS
 10
6.163960
 20
2.388760
  0
VERTEX
  8
0
  6
CONTINUOUS
 10
6.056600
 20
2.346520
  0
VERTEX
  8
0
  6
CONTINUOUS
 10
5.941320
 20
2.317480
  0
VERTEX
  8
0
  6
CONTINUOUS
 10
5.819000
 20
2.302520
  0
VERTEX
  8
0
  6
CONTINUOUS
 10
5.690080
 20
2.303400
  0
VERTEX
  8
0
  6
CONTINUOUS
 10
5.684360
 20
2.303400
  0
VERTEX
  8
0
  6
CONTINUOUS
 10
5.663680
 20
1.780680
  0
VERTEX
  8
0
  6
CONTINUOUS
 10
5.478880
 20
1.786840
  0
VERTEX
  8
0
  6
CONTINUOUS
 10
5.297160
 20
1.758240
  0
VERTEX
  8
0
  6
CONTINUOUS
 10
5.124680
 20
1.695760
  0
VERTEX
  8
0
  6
CONTINUOUS
 10
4.967600
 20
1.599840
  0
VERTEX
  8
0
  6
CONTINUOUS
 10
4.832080
 20
1.471800
  0
VERTEX
  8
0
  6
CONTINUOUS
 10
4.723840
 20
1.312520
  0
VERTEX
  8
0
  6
CONTINUOUS
 10
4.649040
 20
1.122000
  0
VERTEX
  8
0
  6
CONTINUOUS
 10
4.626600
 20
1.015520
  0
VERTEX
  8
0
  6
CONTINUOUS
 10
4.614280
 20
0.901560
  0
VERTEX
  8
0
  6
CONTINUOUS
 10
4.611200
 20
0.895400
  0
SEQEND
  8
0
  0
TEXT
  8
0
 10
5.782040
 20
0.721160
 40
0.138091
  1
BA  317
 41
1.000000
  7
SN0
 71
     0
 72
     5
 11
6.372045
 21
0.721160
  0
TEXT
  8
0
 10
5.533880
 20
0.529760
 40
0.138091
  1
13/16" x 3-5/8"
 41
1.000000
  7
SN0
 71
     0
 72
     5
 11
6.618441
 21
0.529760
  0
ENDSEC
  0
EOF
