  0
SECTION
  2
HEADER
  9
$ACADVER
  1
AC1006
  9
$EXTMIN
 10
1.503920
 20
0.822360
  9
$EXTMAX
 10
7.224800
 20
7.240200
  9
$LTSCALE
 40
0.044000
  9
$PDMODE
 70
    35
  9
$PDSIZE
 40
0.035200
  0
ENDSEC
  0
SECTION
  2
TABLES
  0
TABLE
  2
LTYPE
 70
     9
  0
LTYPE
  2
CONTINUOUS
 70
    64
  3
Solid line
 72
    65
 73
     0
 40
0.000000
  0
LTYPE
  2
DASHED
 70
    64
  3
__ __ __ __ __ __ __ __ __ __ __ __ __ __ __
 72
    65
 73
     2
 40
0.000330
 49
0.000220
 49
-0.000110
  0
LTYPE
  2
HIDDEN
 70
    64
  3
 _ _ _ _ _ _ _ _ _ _ _ _ _ _ _ _ _ _ _ _ _ _
 72
    65
 73
     2
 40
0.000165
 49
0.000110
 49
-0.000055
  0
LTYPE
  2
CENTER
 70
    64
  3
____ _ ____ _ ____ _ ____ _ ____ _ ____ _ ____
 72
    65
 73
     4
 40
0.000880
 49
0.000550
 49
-0.000110
 49
0.000110
 49
-0.000110
  0
LTYPE
  2
PHANTOM
 70
    64
  3
_____ _ _ _____ _ _ _____ _ _ _____ _ _ ____
 72
    65
 73
     6
 40
0.001100
 49
0.000550
 49
-0.000110
 49
0.000110
 49
-0.000110
 49
0.000110
 49
-0.000110
  0
LTYPE
  2
DOT
 70
    64
  3
...............................................
 72
    65
 73
     2
 40
0.000110
 49
0.000000
 49
-0.000110
  0
LTYPE
  2
DASHDOT
 70
    64
  3
__ . __ . __ . __ . __ . __ . __ . __ . __ . __
 72
    65
 73
     4
 40
0.000440
 49
0.000220
 49
-0.000110
 49
0.000000
 49
-0.000110
  0
LTYPE
  2
BORDER
 70
    64
  3
__ __ . __ __ . __ __ . __ __ . __ __ . __ __
 72
    65
 73
     6
 40
0.000770
 49
0.000220
 49
-0.000110
 49
0.000220
 49
-0.000110
 49
0.000000
 49
-0.000110
  0
LTYPE
  2
DIVIDE
 70
    64
  3
__ . . __ . . __ . . __ . . __ . . __ . . __
 72
    65
 73
     6
 40
0.000550
 49
0.000220
 49
-0.000110
 49
0.000000
 49
-0.000110
 49
0.000000
 49
-0.000110
  0
LTYPE
  2
DOTDOT
 70
    64
  3
 . .  . .  . .  . .  . .  . . 
 72
    65
 73
     5
 40
0.000242
 49
-0.000110
 49
0.000000
 49
-0.000110
 49
0.000000
 49
-0.000110
  0
ENDTAB
  0
TABLE
  2
STYLE
 70
     2
  0
STYLE
 70
     0
  2
SN0
 40
0.000000
 41
0.000440
 50
0.000000
 71
     0
 42
0.000000
  3
ROMAND
  0
STYLE
 70
    68
  2
SV0
 40
0.000000
 41
0.000440
 50
0.000000
 71
     0
 42
0.000000
  3
ROMAND
  0
ENDTAB
  0
TABLE
  2
LAYER
 70
     3
  0
LAYER
  2
FOREGROUND
 70
    64
 62
     7
  6
CONTINUOUS
  0
LAYER
  2
BACKGROUND
 70
    65
 62
    -7
  6
CONTINUOUS
  0
LAYER
  2
0
 70
    64
 62
     7
  6
CONTINUOUS
  0
ENDTAB
  0
ENDSEC
  0
SECTION
  2
ENTITIES
  0
POLYLINE
  8
FOREGROUND
  6
CONTINUOUS
 66
     1
 40
0.000000
 41
0.000000
  0
VERTEX
  8
FOREGROUND
  6
CONTINUOUS
 10
0.000000
 20
8.062560
  0
VERTEX
  8
FOREGROUND
  6
CONTINUOUS
 10
8.499920
 20
8.062560
  0
VERTEX
  8
FOREGROUND
  6
CONTINUOUS
 10
8.499920
 20
-2.937440
  0
VERTEX
  8
FOREGROUND
  6
CONTINUOUS
 10
0.000000
 20
-2.937440
  0
VERTEX
  8
FOREGROUND
  6
CONTINUOUS
 10
0.000000
 20
8.062560
  0
SEQEND
  8
0
  0
POLYLINE
  8
FOREGROUND
  6
CONTINUOUS
 66
     1
 40
0.000000
 41
0.000000
  0
VERTEX
  8
FOREGROUND
  6
CONTINUOUS
 10
0.000000
 20
8.062560
  0
VERTEX
  8
FOREGROUND
  6
CONTINUOUS
 10
8.499920
 20
8.062560
  0
VERTEX
  8
FOREGROUND
  6
CONTINUOUS
 10
8.499920
 20
-2.937440
  0
VERTEX
  8
FOREGROUND
  6
CONTINUOUS
 10
0.000000
 20
-2.937440
  0
VERTEX
  8
FOREGROUND
  6
CONTINUOUS
 10
0.000000
 20
8.062560
  0
SEQEND
  8
0
  0
POLYLINE
  8
0
  6
CONTINUOUS
 66
     1
 40
0.014080
 41
0.014080
  0
VERTEX
  8
0
  6
CONTINUOUS
 10
6.359320
 20
5.983560
  0
VERTEX
  8
0
  6
CONTINUOUS
 10
7.219960
 20
6.512880
  0
VERTEX
  8
0
  6
CONTINUOUS
 10
7.219960
 20
6.515080
  0
VERTEX
  8
0
  6
CONTINUOUS
 10
7.096320
 20
6.628600
  0
VERTEX
  8
0
  6
CONTINUOUS
 10
7.003920
 20
6.706040
  0
VERTEX
  8
0
  6
CONTINUOUS
 10
6.882040
 20
6.799760
  0
VERTEX
  8
0
  6
CONTINUOUS
 10
6.790960
 20
6.862680
  0
VERTEX
  8
0
  6
CONTINUOUS
 10
6.730680
 20
6.901840
  0
VERTEX
  8
0
  6
CONTINUOUS
 10
6.670840
 20
6.938360
  0
VERTEX
  8
0
  6
CONTINUOUS
 10
6.611000
 20
6.972240
  0
VERTEX
  8
0
  6
CONTINUOUS
 10
6.492640
 20
7.032960
  0
VERTEX
  8
0
  6
CONTINUOUS
 10
6.434120
 20
7.059800
  0
VERTEX
  8
0
  6
CONTINUOUS
 10
6.317960
 20
7.107320
  0
VERTEX
  8
0
  6
CONTINUOUS
 10
6.203560
 20
7.146040
  0
VERTEX
  8
0
  6
CONTINUOUS
 10
6.147240
 20
7.162760
  0
VERTEX
  8
0
  6
CONTINUOUS
 10
6.035480
 20
7.190040
  0
VERTEX
  8
0
  6
CONTINUOUS
 10
5.980040
 20
7.201040
  0
VERTEX
  8
0
  6
CONTINUOUS
 10
5.925480
 20
7.210280
  0
VERTEX
  8
0
  6
CONTINUOUS
 10
5.871360
 20
7.217760
  0
VERTEX
  8
0
  6
CONTINUOUS
 10
5.764880
 20
7.227880
  0
VERTEX
  8
0
  6
CONTINUOUS
 10
5.712520
 20
7.230960
  0
VERTEX
  8
0
  6
CONTINUOUS
 10
5.609560
 20
7.232720
  0
VERTEX
  8
0
  6
CONTINUOUS
 10
5.508800
 20
7.228760
  0
VERTEX
  8
0
  6
CONTINUOUS
 10
5.411120
 20
7.220400
  0
VERTEX
  8
0
  6
CONTINUOUS
 10
5.316080
 20
7.207640
  0
VERTEX
  8
0
  6
CONTINUOUS
 10
5.223680
 20
7.191360
  0
VERTEX
  8
0
  6
CONTINUOUS
 10
5.134360
 20
7.171560
  0
VERTEX
  8
0
  6
CONTINUOUS
 10
5.048120
 20
7.149120
  0
VERTEX
  8
0
  6
CONTINUOUS
 10
4.924920
 20
7.110840
  0
VERTEX
  8
0
  6
CONTINUOUS
 10
4.809640
 20
7.069480
  0
VERTEX
  8
0
  6
CONTINUOUS
 10
4.702720
 20
7.025480
  0
VERTEX
  8
0
  6
CONTINUOUS
 10
4.573360
 20
6.966960
  0
VERTEX
  8
0
  6
CONTINUOUS
 10
4.275480
 20
6.819560
  0
VERTEX
  8
0
  6
CONTINUOUS
 10
4.135120
 20
6.756200
  0
VERTEX
  8
0
  6
CONTINUOUS
 10
4.052840
 20
6.723200
  0
VERTEX
  8
0
  6
CONTINUOUS
 10
3.963080
 20
6.691520
  0
VERTEX
  8
0
  6
CONTINUOUS
 10
3.864520
 20
6.661600
  0
VERTEX
  8
0
  6
CONTINUOUS
 10
3.812600
 20
6.647960
  0
VERTEX
  8
0
  6
CONTINUOUS
 10
3.701720
 20
6.624200
  0
VERTEX
  8
0
  6
CONTINUOUS
 10
3.613280
 20
6.609680
  0
VERTEX
  8
0
  6
CONTINUOUS
 10
3.520440
 20
6.599120
  0
VERTEX
  8
0
  6
CONTINUOUS
 10
3.422760
 20
6.592520
  0
VERTEX
  8
0
  6
CONTINUOUS
 10
3.320240
 20
6.591200
  0
VERTEX
  8
0
  6
CONTINUOUS
 10
3.248960
 20
6.592960
  0
VERTEX
  8
0
  6
CONTINUOUS
 10
3.138520
 20
6.600440
  0
VERTEX
  8
0
  6
CONTINUOUS
 10
3.023240
 20
6.614080
  0
VERTEX
  8
0
  6
CONTINUOUS
 10
2.903120
 20
6.634760
  0
VERTEX
  8
0
  6
CONTINUOUS
 10
2.778160
 20
6.662920
  0
VERTEX
  8
0
  6
CONTINUOUS
 10
2.692360
 20
6.685800
  0
VERTEX
  8
0
  6
CONTINUOUS
 10
2.603920
 20
6.712640
  0
VERTEX
  8
0
  6
CONTINUOUS
 10
2.467520
 20
6.760160
  0
VERTEX
  8
0
  6
CONTINUOUS
 10
2.326280
 20
6.816920
  0
VERTEX
  8
0
  6
CONTINUOUS
 10
2.321880
 20
6.816920
  0
VERTEX
  8
0
  6
CONTINUOUS
 10
1.509640
 20
5.984000
  0
VERTEX
  8
0
  6
CONTINUOUS
 10
6.359320
 20
5.983560
  0
SEQEND
  8
0
  0
SOLID
  8
0
 62
    15
 10
4.206400
 20
3.113000
 11
4.857160
 21
2.716560
 12
4.170320
 22
3.006960
 13
4.821080
 23
2.610520
  0
POLYLINE
  8
0
  6
CONTINUOUS
 66
     1
 40
0.000000
 41
0.000000
  0
VERTEX
  8
0
  6
CONTINUOUS
 10
4.206400
 20
3.113000
  0
VERTEX
  8
0
  6
CONTINUOUS
 10
4.857160
 20
2.716560
  0
VERTEX
  8
0
  6
CONTINUOUS
 10
4.821080
 20
2.610520
  0
VERTEX
  8
0
  6
CONTINUOUS
 10
4.170320
 20
3.006960
  0
VERTEX
  8
0
  6
CONTINUOUS
 10
4.206400
 20
3.113000
  0
SEQEND
  8
0
  0
SOLID
  8
0
 62
    15
 10
5.639040
 20
4.601080
 11
6.289800
 21
4.205080
 12
5.635960
 22
4.598000
 13
6.286720
 23
4.202000
  0
POLYLINE
  8
0
  6
CONTINUOUS
 66
     1
 40
0.000000
 41
0.000000
  0
VERTEX
  8
0
  6
CONTINUOUS
 10
5.639040
 20
4.601080
  0
VERTEX
  8
0
  6
CONTINUOUS
 10
6.289800
 20
4.205080
  0
VERTEX
  8
0
  6
CONTINUOUS
 10
6.286720
 20
4.202000
  0
VERTEX
  8
0
  6
CONTINUOUS
 10
5.635960
 20
4.598000
  0
VERTEX
  8
0
  6
CONTINUOUS
 10
5.639040
 20
4.601080
  0
SEQEND
  8
0
  0
SOLID
  8
0
 62
    15
 10
5.635960
 20
4.598000
 11
6.286720
 21
4.202000
 12
5.450720
 22
4.519240
 13
6.101480
 23
4.123240
  0
POLYLINE
  8
0
  6
CONTINUOUS
 66
     1
 40
0.000000
 41
0.000000
  0
VERTEX
  8
0
  6
CONTINUOUS
 10
5.635960
 20
4.598000
  0
VERTEX
  8
0
  6
CONTINUOUS
 10
6.286720
 20
4.202000
  0
VERTEX
  8
0
  6
CONTINUOUS
 10
6.101480
 20
4.123240
  0
VERTEX
  8
0
  6
CONTINUOUS
 10
5.450720
 20
4.519240
  0
VERTEX
  8
0
  6
CONTINUOUS
 10
5.635960
 20
4.598000
  0
SEQEND
  8
0
  0
SOLID
  8
0
 62
    15
 10
5.450720
 20
4.519240
 11
6.101480
 21
4.123240
 12
5.283080
 22
4.435200
 13
5.933840
 23
4.038760
  0
POLYLINE
  8
0
  6
CONTINUOUS
 66
     1
 40
0.000000
 41
0.000000
  0
VERTEX
  8
0
  6
CONTINUOUS
 10
5.450720
 20
4.519240
  0
VERTEX
  8
0
  6
CONTINUOUS
 10
6.101480
 20
4.123240
  0
VERTEX
  8
0
  6
CONTINUOUS
 10
5.933840
 20
4.038760
  0
VERTEX
  8
0
  6
CONTINUOUS
 10
5.283080
 20
4.435200
  0
VERTEX
  8
0
  6
CONTINUOUS
 10
5.450720
 20
4.519240
  0
SEQEND
  8
0
  0
SOLID
  8
0
 62
    15
 10
5.283080
 20
4.435200
 11
5.933840
 21
4.038760
 12
4.996640
 22
4.254360
 13
5.647400
 23
3.857920
  0
POLYLINE
  8
0
  6
CONTINUOUS
 66
     1
 40
0.000000
 41
0.000000
  0
VERTEX
  8
0
  6
CONTINUOUS
 10
5.283080
 20
4.435200
  0
VERTEX
  8
0
  6
CONTINUOUS
 10
5.933840
 20
4.038760
  0
VERTEX
  8
0
  6
CONTINUOUS
 10
5.647400
 20
3.857920
  0
VERTEX
  8
0
  6
CONTINUOUS
 10
4.996640
 20
4.254360
  0
VERTEX
  8
0
  6
CONTINUOUS
 10
5.283080
 20
4.435200
  0
SEQEND
  8
0
  0
SOLID
  8
0
 62
    15
 10
4.996640
 20
4.254360
 11
5.647400
 21
3.857920
 12
4.768720
 22
4.062960
 13
5.419480
 23
3.666520
  0
POLYLINE
  8
0
  6
CONTINUOUS
 66
     1
 40
0.000000
 41
0.000000
  0
VERTEX
  8
0
  6
CONTINUOUS
 10
4.996640
 20
4.254360
  0
VERTEX
  8
0
  6
CONTINUOUS
 10
5.647400
 20
3.857920
  0
VERTEX
  8
0
  6
CONTINUOUS
 10
5.419480
 20
3.666520
  0
VERTEX
  8
0
  6
CONTINUOUS
 10
4.768720
 20
4.062960
  0
VERTEX
  8
0
  6
CONTINUOUS
 10
4.996640
 20
4.254360
  0
SEQEND
  8
0
  0
SOLID
  8
0
 62
    15
 10
4.768720
 20
4.062960
 11
5.419480
 21
3.666520
 12
4.591840
 22
3.868040
 13
5.242600
 23
3.471600
  0
POLYLINE
  8
0
  6
CONTINUOUS
 66
     1
 40
0.000000
 41
0.000000
  0
VERTEX
  8
0
  6
CONTINUOUS
 10
4.768720
 20
4.062960
  0
VERTEX
  8
0
  6
CONTINUOUS
 10
5.419480
 20
3.666520
  0
VERTEX
  8
0
  6
CONTINUOUS
 10
5.242600
 20
3.471600
  0
VERTEX
  8
0
  6
CONTINUOUS
 10
4.591840
 20
3.868040
  0
VERTEX
  8
0
  6
CONTINUOUS
 10
4.768720
 20
4.062960
  0
SEQEND
  8
0
  0
SOLID
  8
0
 62
    15
 10
4.591840
 20
3.868040
 11
5.242600
 21
3.471600
 12
4.457640
 22
3.677080
 13
5.108400
 23
3.280640
  0
POLYLINE
  8
0
  6
CONTINUOUS
 66
     1
 40
0.000000
 41
0.000000
  0
VERTEX
  8
0
  6
CONTINUOUS
 10
4.591840
 20
3.868040
  0
VERTEX
  8
0
  6
CONTINUOUS
 10
5.242600
 20
3.471600
  0
VERTEX
  8
0
  6
CONTINUOUS
 10
5.108400
 20
3.280640
  0
VERTEX
  8
0
  6
CONTINUOUS
 10
4.457640
 20
3.677080
  0
VERTEX
  8
0
  6
CONTINUOUS
 10
4.591840
 20
3.868040
  0
SEQEND
  8
0
  0
SOLID
  8
0
 62
    15
 10
4.457640
 20
3.677080
 11
5.108400
 21
3.280640
 12
4.358640
 22
3.497120
 13
5.009840
 23
3.100680
  0
POLYLINE
  8
0
  6
CONTINUOUS
 66
     1
 40
0.000000
 41
0.000000
  0
VERTEX
  8
0
  6
CONTINUOUS
 10
4.457640
 20
3.677080
  0
VERTEX
  8
0
  6
CONTINUOUS
 10
5.108400
 20
3.280640
  0
VERTEX
  8
0
  6
CONTINUOUS
 10
5.009840
 20
3.100680
  0
VERTEX
  8
0
  6
CONTINUOUS
 10
4.358640
 20
3.497120
  0
VERTEX
  8
0
  6
CONTINUOUS
 10
4.457640
 20
3.677080
  0
SEQEND
  8
0
  0
SOLID
  8
0
 62
    15
 10
4.358640
 20
3.497120
 11
5.009840
 21
3.100680
 12
4.287360
 22
3.335200
 13
4.938560
 23
2.939200
  0
POLYLINE
  8
0
  6
CONTINUOUS
 66
     1
 40
0.000000
 41
0.000000
  0
VERTEX
  8
0
  6
CONTINUOUS
 10
4.358640
 20
3.497120
  0
VERTEX
  8
0
  6
CONTINUOUS
 10
5.009840
 20
3.100680
  0
VERTEX
  8
0
  6
CONTINUOUS
 10
4.938560
 20
2.939200
  0
VERTEX
  8
0
  6
CONTINUOUS
 10
4.287360
 20
3.335200
  0
VERTEX
  8
0
  6
CONTINUOUS
 10
4.358640
 20
3.497120
  0
SEQEND
  8
0
  0
SOLID
  8
0
 62
    15
 10
4.287360
 20
3.335200
 11
4.938560
 21
2.939200
 12
4.236320
 22
3.199240
 13
4.887080
 23
2.802800
  0
POLYLINE
  8
0
  6
CONTINUOUS
 66
     1
 40
0.000000
 41
0.000000
  0
VERTEX
  8
0
  6
CONTINUOUS
 10
4.287360
 20
3.335200
  0
VERTEX
  8
0
  6
CONTINUOUS
 10
4.938560
 20
2.939200
  0
VERTEX
  8
0
  6
CONTINUOUS
 10
4.887080
 20
2.802800
  0
VERTEX
  8
0
  6
CONTINUOUS
 10
4.236320
 20
3.199240
  0
VERTEX
  8
0
  6
CONTINUOUS
 10
4.287360
 20
3.335200
  0
SEQEND
  8
0
  0
SOLID
  8
0
 62
    15
 10
4.236320
 20
3.199240
 11
4.887080
 21
2.802800
 12
4.206400
 22
3.113000
 13
4.857160
 23
2.716560
  0
POLYLINE
  8
0
  6
CONTINUOUS
 66
     1
 40
0.000000
 41
0.000000
  0
VERTEX
  8
0
  6
CONTINUOUS
 10
4.236320
 20
3.199240
  0
VERTEX
  8
0
  6
CONTINUOUS
 10
4.887080
 20
2.802800
  0
VERTEX
  8
0
  6
CONTINUOUS
 10
4.857160
 20
2.716560
  0
VERTEX
  8
0
  6
CONTINUOUS
 10
4.206400
 20
3.113000
  0
VERTEX
  8
0
  6
CONTINUOUS
 10
4.236320
 20
3.199240
  0
SEQEND
  8
0
  0
SOLID
  8
0
 62
    15
 10
5.634640
 20
5.764880
 11
6.285400
 21
5.368880
 12
5.639040
 22
4.601080
 13
6.289800
 23
4.205080
  0
POLYLINE
  8
0
  6
CONTINUOUS
 66
     1
 40
0.000000
 41
0.000000
  0
VERTEX
  8
0
  6
CONTINUOUS
 10
5.634640
 20
5.764880
  0
VERTEX
  8
0
  6
CONTINUOUS
 10
6.285400
 20
5.368880
  0
VERTEX
  8
0
  6
CONTINUOUS
 10
6.289800
 20
4.205080
  0
VERTEX
  8
0
  6
CONTINUOUS
 10
5.639040
 20
4.601080
  0
VERTEX
  8
0
  6
CONTINUOUS
 10
5.634640
 20
5.764880
  0
SEQEND
  8
0
  0
SOLID
  8
0
 62
    15
 10
4.170320
 20
3.006960
 11
4.821080
 21
2.610520
 12
4.072640
 22
2.749120
 13
4.723400
 23
2.352680
  0
POLYLINE
  8
0
  6
CONTINUOUS
 66
     1
 40
0.000000
 41
0.000000
  0
VERTEX
  8
0
  6
CONTINUOUS
 10
4.170320
 20
3.006960
  0
VERTEX
  8
0
  6
CONTINUOUS
 10
4.821080
 20
2.610520
  0
VERTEX
  8
0
  6
CONTINUOUS
 10
4.723400
 20
2.352680
  0
VERTEX
  8
0
  6
CONTINUOUS
 10
4.072640
 20
2.749120
  0
VERTEX
  8
0
  6
CONTINUOUS
 10
4.170320
 20
3.006960
  0
SEQEND
  8
0
  0
SOLID
  8
0
 62
    15
 10
4.072640
 20
2.749120
 11
4.723400
 21
2.352680
 12
3.927440
 22
2.453880
 13
4.578200
 23
2.057440
  0
POLYLINE
  8
0
  6
CONTINUOUS
 66
     1
 40
0.000000
 41
0.000000
  0
VERTEX
  8
0
  6
CONTINUOUS
 10
4.072640
 20
2.749120
  0
VERTEX
  8
0
  6
CONTINUOUS
 10
4.723400
 20
2.352680
  0
VERTEX
  8
0
  6
CONTINUOUS
 10
4.578200
 20
2.057440
  0
VERTEX
  8
0
  6
CONTINUOUS
 10
3.927440
 20
2.453880
  0
VERTEX
  8
0
  6
CONTINUOUS
 10
4.072640
 20
2.749120
  0
SEQEND
  8
0
  0
SOLID
  8
0
 62
    15
 10
3.927440
 20
2.453880
 11
4.578200
 21
2.057440
 12
3.718440
 22
2.148520
 13
4.369200
 23
1.752080
  0
POLYLINE
  8
0
  6
CONTINUOUS
 66
     1
 40
0.000000
 41
0.000000
  0
VERTEX
  8
0
  6
CONTINUOUS
 10
3.927440
 20
2.453880
  0
VERTEX
  8
0
  6
CONTINUOUS
 10
4.578200
 20
2.057440
  0
VERTEX
  8
0
  6
CONTINUOUS
 10
4.369200
 20
1.752080
  0
VERTEX
  8
0
  6
CONTINUOUS
 10
3.718440
 20
2.148520
  0
VERTEX
  8
0
  6
CONTINUOUS
 10
3.927440
 20
2.453880
  0
SEQEND
  8
0
  0
SOLID
  8
0
 62
    15
 10
3.718440
 20
2.148520
 11
4.369200
 21
1.752080
 12
3.585560
 22
2.000680
 13
4.236320
 23
1.604240
  0
POLYLINE
  8
0
  6
CONTINUOUS
 66
     1
 40
0.000000
 41
0.000000
  0
VERTEX
  8
0
  6
CONTINUOUS
 10
3.718440
 20
2.148520
  0
VERTEX
  8
0
  6
CONTINUOUS
 10
4.369200
 20
1.752080
  0
VERTEX
  8
0
  6
CONTINUOUS
 10
4.236320
 20
1.604240
  0
VERTEX
  8
0
  6
CONTINUOUS
 10
3.585560
 20
2.000680
  0
VERTEX
  8
0
  6
CONTINUOUS
 10
3.718440
 20
2.148520
  0
SEQEND
  8
0
  0
SOLID
  8
0
 62
    15
 10
3.585560
 20
2.000680
 11
4.236320
 21
1.604240
 12
3.430240
 22
1.860760
 13
4.081440
 23
1.464760
  0
POLYLINE
  8
0
  6
CONTINUOUS
 66
     1
 40
0.000000
 41
0.000000
  0
VERTEX
  8
0
  6
CONTINUOUS
 10
3.585560
 20
2.000680
  0
VERTEX
  8
0
  6
CONTINUOUS
 10
4.236320
 20
1.604240
  0
VERTEX
  8
0
  6
CONTINUOUS
 10
4.081440
 20
1.464760
  0
VERTEX
  8
0
  6
CONTINUOUS
 10
3.430240
 20
1.860760
  0
VERTEX
  8
0
  6
CONTINUOUS
 10
3.585560
 20
2.000680
  0
SEQEND
  8
0
  0
SOLID
  8
0
 62
    15
 10
3.430240
 20
1.860760
 11
4.081440
 21
1.464760
 12
3.251600
 22
1.732720
 13
3.902360
 23
1.336280
  0
POLYLINE
  8
0
  6
CONTINUOUS
 66
     1
 40
0.000000
 41
0.000000
  0
VERTEX
  8
0
  6
CONTINUOUS
 10
3.430240
 20
1.860760
  0
VERTEX
  8
0
  6
CONTINUOUS
 10
4.081440
 20
1.464760
  0
VERTEX
  8
0
  6
CONTINUOUS
 10
3.902360
 20
1.336280
  0
VERTEX
  8
0
  6
CONTINUOUS
 10
3.251600
 20
1.732720
  0
VERTEX
  8
0
  6
CONTINUOUS
 10
3.430240
 20
1.860760
  0
SEQEND
  8
0
  0
SOLID
  8
0
 62
    15
 10
3.251600
 20
1.732720
 11
3.902360
 21
1.336280
 12
3.047440
 22
1.619200
 13
3.698200
 23
1.222760
  0
POLYLINE
  8
0
  6
CONTINUOUS
 66
     1
 40
0.000000
 41
0.000000
  0
VERTEX
  8
0
  6
CONTINUOUS
 10
3.251600
 20
1.732720
  0
VERTEX
  8
0
  6
CONTINUOUS
 10
3.902360
 20
1.336280
  0
VERTEX
  8
0
  6
CONTINUOUS
 10
3.698200
 20
1.222760
  0
VERTEX
  8
0
  6
CONTINUOUS
 10
3.047440
 20
1.619200
  0
VERTEX
  8
0
  6
CONTINUOUS
 10
3.251600
 20
1.732720
  0
SEQEND
  8
0
  0
SOLID
  8
0
 62
    15
 10
3.047440
 20
1.619200
 11
3.698200
 21
1.222760
 12
2.815560
 22
1.524160
 13
3.466320
 23
1.127720
  0
POLYLINE
  8
0
  6
CONTINUOUS
 66
     1
 40
0.000000
 41
0.000000
  0
VERTEX
  8
0
  6
CONTINUOUS
 10
3.047440
 20
1.619200
  0
VERTEX
  8
0
  6
CONTINUOUS
 10
3.698200
 20
1.222760
  0
VERTEX
  8
0
  6
CONTINUOUS
 10
3.466320
 20
1.127720
  0
VERTEX
  8
0
  6
CONTINUOUS
 10
2.815560
 20
1.524160
  0
VERTEX
  8
0
  6
CONTINUOUS
 10
3.047440
 20
1.619200
  0
SEQEND
  8
0
  0
SOLID
  8
0
 62
    15
 10
2.815560
 20
1.524160
 11
3.466320
 21
1.127720
 12
2.553760
 22
1.450680
 13
3.204520
 23
1.054680
  0
POLYLINE
  8
0
  6
CONTINUOUS
 66
     1
 40
0.000000
 41
0.000000
  0
VERTEX
  8
0
  6
CONTINUOUS
 10
2.815560
 20
1.524160
  0
VERTEX
  8
0
  6
CONTINUOUS
 10
3.466320
 20
1.127720
  0
VERTEX
  8
0
  6
CONTINUOUS
 10
3.204520
 20
1.054680
  0
VERTEX
  8
0
  6
CONTINUOUS
 10
2.553760
 20
1.450680
  0
VERTEX
  8
0
  6
CONTINUOUS
 10
2.815560
 20
1.524160
  0
SEQEND
  8
0
  0
SOLID
  8
0
 62
    15
 10
2.553760
 20
1.450680
 11
3.204520
 21
1.054680
 12
2.260720
 22
1.402720
 13
2.911480
 23
1.006720
  0
POLYLINE
  8
0
  6
CONTINUOUS
 66
     1
 40
0.000000
 41
0.000000
  0
VERTEX
  8
0
  6
CONTINUOUS
 10
2.553760
 20
1.450680
  0
VERTEX
  8
0
  6
CONTINUOUS
 10
3.204520
 20
1.054680
  0
VERTEX
  8
0
  6
CONTINUOUS
 10
2.911480
 20
1.006720
  0
VERTEX
  8
0
  6
CONTINUOUS
 10
2.260720
 20
1.402720
  0
VERTEX
  8
0
  6
CONTINUOUS
 10
2.553760
 20
1.450680
  0
SEQEND
  8
0
  0
SOLID
  8
0
 62
    15
 10
2.260720
 20
1.402720
 11
2.911480
 21
1.006720
 12
1.933800
 22
1.383800
 13
2.584560
 23
0.987360
  0
POLYLINE
  8
0
  6
CONTINUOUS
 66
     1
 40
0.000000
 41
0.000000
  0
VERTEX
  8
0
  6
CONTINUOUS
 10
2.260720
 20
1.402720
  0
VERTEX
  8
0
  6
CONTINUOUS
 10
2.911480
 20
1.006720
  0
VERTEX
  8
0
  6
CONTINUOUS
 10
2.584560
 20
0.987360
  0
VERTEX
  8
0
  6
CONTINUOUS
 10
1.933800
 20
1.383800
  0
VERTEX
  8
0
  6
CONTINUOUS
 10
2.260720
 20
1.402720
  0
SEQEND
  8
0
  0
POLYLINE
  8
0
  6
CONTINUOUS
 66
     1
 40
0.000000
 41
0.000000
  0
VERTEX
  8
0
  6
CONTINUOUS
 10
2.178440
 20
2.368520
  0
VERTEX
  8
0
  6
CONTINUOUS
 10
5.631560
 20
5.762240
  0
VERTEX
  8
0
  6
CONTINUOUS
 10
5.634640
 20
5.764880
  0
VERTEX
  8
0
  6
CONTINUOUS
 10
5.639040
 20
4.601080
  0
VERTEX
  8
0
  6
CONTINUOUS
 10
5.635960
 20
4.598000
  0
VERTEX
  8
0
  6
CONTINUOUS
 10
5.450720
 20
4.519240
  0
VERTEX
  8
0
  6
CONTINUOUS
 10
5.283080
 20
4.435200
  0
VERTEX
  8
0
  6
CONTINUOUS
 10
4.996640
 20
4.254360
  0
VERTEX
  8
0
  6
CONTINUOUS
 10
4.768720
 20
4.062960
  0
VERTEX
  8
0
  6
CONTINUOUS
 10
4.591840
 20
3.868040
  0
VERTEX
  8
0
  6
CONTINUOUS
 10
4.457640
 20
3.677080
  0
VERTEX
  8
0
  6
CONTINUOUS
 10
4.358640
 20
3.497120
  0
VERTEX
  8
0
  6
CONTINUOUS
 10
4.287360
 20
3.335200
  0
VERTEX
  8
0
  6
CONTINUOUS
 10
4.236320
 20
3.199240
  0
VERTEX
  8
0
  6
CONTINUOUS
 10
4.206400
 20
3.113000
  0
VERTEX
  8
0
  6
CONTINUOUS
 10
4.170320
 20
3.006960
  0
VERTEX
  8
0
  6
CONTINUOUS
 10
4.072640
 20
2.749120
  0
VERTEX
  8
0
  6
CONTINUOUS
 10
3.927440
 20
2.453880
  0
VERTEX
  8
0
  6
CONTINUOUS
 10
3.718440
 20
2.148520
  0
VERTEX
  8
0
  6
CONTINUOUS
 10
3.585560
 20
2.000680
  0
VERTEX
  8
0
  6
CONTINUOUS
 10
3.430240
 20
1.860760
  0
VERTEX
  8
0
  6
CONTINUOUS
 10
3.251600
 20
1.732720
  0
VERTEX
  8
0
  6
CONTINUOUS
 10
3.047440
 20
1.619200
  0
VERTEX
  8
0
  6
CONTINUOUS
 10
2.815560
 20
1.524160
  0
VERTEX
  8
0
  6
CONTINUOUS
 10
2.553760
 20
1.450680
  0
VERTEX
  8
0
  6
CONTINUOUS
 10
2.260720
 20
1.402720
  0
VERTEX
  8
0
  6
CONTINUOUS
 10
1.933800
 20
1.383800
  0
VERTEX
  8
0
  6
CONTINUOUS
 10
1.932480
 20
1.385120
  0
VERTEX
  8
0
  6
CONTINUOUS
 10
2.175360
 20
2.365440
  0
VERTEX
  8
0
  6
CONTINUOUS
 10
2.178440
 20
2.368520
  0
SEQEND
  8
0
  0
TEXT
  8
0
 10
4.794240
 20
1.057320
 40
0.138256
  1
BA  316
 41
1.000000
  7
SN0
 71
     0
 72
     5
 11
5.385002
 21
1.057320
  0
TEXT
  8
0
 10
4.472160
 20
0.865480
 40
0.138256
  1
1-1/4" x 5-11/16"
 41
1.000000
  7
SN0
 71
     0
 72
     5
 11
5.706311
 21
0.865480
  0
ENDSEC
  0
EOF
