  0
SECTION
  2
HEADER
  9
$ACADVER
  1
AC1006
  9
$EXTMIN
 10
2.970440
 20
0.527120
  9
$EXTMAX
 10
7.135040
 20
3.848240
  9
$LTSCALE
 40
0.044000
  9
$PDMODE
 70
    35
  9
$PDSIZE
 40
0.035200
  0
ENDSEC
  0
SECTION
  2
TABLES
  0
TABLE
  2
LTYPE
 70
     9
  0
LTYPE
  2
CONTINUOUS
 70
    64
  3
Solid line
 72
    65
 73
     0
 40
0.000000
  0
LTYPE
  2
DASHED
 70
    64
  3
__ __ __ __ __ __ __ __ __ __ __ __ __ __ __
 72
    65
 73
     2
 40
0.000330
 49
0.000220
 49
-0.000110
  0
LTYPE
  2
HIDDEN
 70
    64
  3
 _ _ _ _ _ _ _ _ _ _ _ _ _ _ _ _ _ _ _ _ _ _
 72
    65
 73
     2
 40
0.000165
 49
0.000110
 49
-0.000055
  0
LTYPE
  2
CENTER
 70
    64
  3
____ _ ____ _ ____ _ ____ _ ____ _ ____ _ ____
 72
    65
 73
     4
 40
0.000880
 49
0.000550
 49
-0.000110
 49
0.000110
 49
-0.000110
  0
LTYPE
  2
PHANTOM
 70
    64
  3
_____ _ _ _____ _ _ _____ _ _ _____ _ _ ____
 72
    65
 73
     6
 40
0.001100
 49
0.000550
 49
-0.000110
 49
0.000110
 49
-0.000110
 49
0.000110
 49
-0.000110
  0
LTYPE
  2
DOT
 70
    64
  3
...............................................
 72
    65
 73
     2
 40
0.000110
 49
0.000000
 49
-0.000110
  0
LTYPE
  2
DASHDOT
 70
    64
  3
__ . __ . __ . __ . __ . __ . __ . __ . __ . __
 72
    65
 73
     4
 40
0.000440
 49
0.000220
 49
-0.000110
 49
0.000000
 49
-0.000110
  0
LTYPE
  2
BORDER
 70
    64
  3
__ __ . __ __ . __ __ . __ __ . __ __ . __ __
 72
    65
 73
     6
 40
0.000770
 49
0.000220
 49
-0.000110
 49
0.000220
 49
-0.000110
 49
0.000000
 49
-0.000110
  0
LTYPE
  2
DIVIDE
 70
    64
  3
__ . . __ . . __ . . __ . . __ . . __ . . __
 72
    65
 73
     6
 40
0.000550
 49
0.000220
 49
-0.000110
 49
0.000000
 49
-0.000110
 49
0.000000
 49
-0.000110
  0
LTYPE
  2
DOTDOT
 70
    64
  3
 . .  . .  . .  . .  . .  . . 
 72
    65
 73
     5
 40
0.000242
 49
-0.000110
 49
0.000000
 49
-0.000110
 49
0.000000
 49
-0.000110
  0
ENDTAB
  0
TABLE
  2
STYLE
 70
     2
  0
STYLE
 70
     0
  2
SN0
 40
0.000000
 41
0.000440
 50
0.000000
 71
     0
 42
0.000000
  3
ROMAND
  0
STYLE
 70
    68
  2
SV0
 40
0.000000
 41
0.000440
 50
0.000000
 71
     0
 42
0.000000
  3
ROMAND
  0
ENDTAB
  0
TABLE
  2
LAYER
 70
     3
  0
LAYER
  2
FOREGROUND
 70
    64
 62
     7
  6
CONTINUOUS
  0
LAYER
  2
BACKGROUND
 70
    65
 62
    -7
  6
CONTINUOUS
  0
LAYER
  2
0
 70
    64
 62
     7
  6
CONTINUOUS
  0
ENDTAB
  0
ENDSEC
  0
SECTION
  2
ENTITIES
  0
POLYLINE
  8
FOREGROUND
  6
CONTINUOUS
 66
     1
 40
0.000000
 41
0.000000
  0
VERTEX
  8
FOREGROUND
  6
CONTINUOUS
 10
0.000000
 20
4.375360
  0
VERTEX
  8
FOREGROUND
  6
CONTINUOUS
 10
8.499920
 20
4.375360
  0
VERTEX
  8
FOREGROUND
  6
CONTINUOUS
 10
8.499920
 20
-6.624640
  0
VERTEX
  8
FOREGROUND
  6
CONTINUOUS
 10
0.000000
 20
-6.624640
  0
VERTEX
  8
FOREGROUND
  6
CONTINUOUS
 10
0.000000
 20
4.375360
  0
SEQEND
  8
0
  0
POLYLINE
  8
FOREGROUND
  6
CONTINUOUS
 66
     1
 40
0.000000
 41
0.000000
  0
VERTEX
  8
FOREGROUND
  6
CONTINUOUS
 10
0.000000
 20
4.375360
  0
VERTEX
  8
FOREGROUND
  6
CONTINUOUS
 10
8.499920
 20
4.375360
  0
VERTEX
  8
FOREGROUND
  6
CONTINUOUS
 10
8.499920
 20
-6.624640
  0
VERTEX
  8
FOREGROUND
  6
CONTINUOUS
 10
0.000000
 20
-6.624640
  0
VERTEX
  8
FOREGROUND
  6
CONTINUOUS
 10
0.000000
 20
4.375360
  0
SEQEND
  8
0
  0
POLYLINE
  8
0
  6
CONTINUOUS
 66
     1
 40
0.014080
 41
0.014080
  0
VERTEX
  8
0
  6
CONTINUOUS
 10
3.436400
 20
3.795000
  0
VERTEX
  8
0
  6
CONTINUOUS
 10
3.438160
 20
3.770360
  0
VERTEX
  8
0
  6
CONTINUOUS
 10
3.442560
 20
3.755400
  0
VERTEX
  8
0
  6
CONTINUOUS
 10
3.452240
 20
3.744840
  0
VERTEX
  8
0
  6
CONTINUOUS
 10
3.470280
 20
3.739560
  0
VERTEX
  8
0
  6
CONTINUOUS
 10
3.487880
 20
3.739560
  0
VERTEX
  8
0
  6
CONTINUOUS
 10
3.498880
 20
3.740880
  0
VERTEX
  8
0
  6
CONTINUOUS
 10
3.496680
 20
3.740880
  0
VERTEX
  8
0
  6
CONTINUOUS
 10
3.542000
 20
3.774760
  0
VERTEX
  8
0
  6
CONTINUOUS
 10
3.581600
 20
3.796760
  0
VERTEX
  8
0
  6
CONTINUOUS
 10
3.605800
 20
3.806000
  0
VERTEX
  8
0
  6
CONTINUOUS
 10
3.627800
 20
3.810840
  0
VERTEX
  8
0
  6
CONTINUOUS
 10
3.648920
 20
3.812160
  0
VERTEX
  8
0
  6
CONTINUOUS
 10
3.677960
 20
3.807760
  0
VERTEX
  8
0
  6
CONTINUOUS
 10
3.705240
 20
3.796760
  0
VERTEX
  8
0
  6
CONTINUOUS
 10
3.740880
 20
3.773880
  0
VERTEX
  8
0
  6
CONTINUOUS
 10
3.838560
 20
3.695120
  0
VERTEX
  8
0
  6
CONTINUOUS
 10
3.862760
 20
3.678400
  0
VERTEX
  8
0
  6
CONTINUOUS
 10
3.913360
 20
3.650240
  0
VERTEX
  8
0
  6
CONTINUOUS
 10
3.966160
 20
3.628240
  0
VERTEX
  8
0
  6
CONTINUOUS
 10
4.018520
 20
3.611520
  0
VERTEX
  8
0
  6
CONTINUOUS
 10
4.090680
 20
3.595680
  0
VERTEX
  8
0
  6
CONTINUOUS
 10
4.148320
 20
3.589080
  0
VERTEX
  8
0
  6
CONTINUOUS
 10
4.180440
 20
3.588200
  0
VERTEX
  8
0
  6
CONTINUOUS
 10
4.186600
 20
3.588640
  0
VERTEX
  8
0
  6
CONTINUOUS
 10
4.186600
 20
3.507240
  0
VERTEX
  8
0
  6
CONTINUOUS
 10
5.380320
 20
3.507240
  0
VERTEX
  8
0
  6
CONTINUOUS
 10
5.380320
 20
3.359400
  0
VERTEX
  8
0
  6
CONTINUOUS
 10
6.611440
 20
3.359400
  0
VERTEX
  8
0
  6
CONTINUOUS
 10
6.611440
 20
3.255560
  0
VERTEX
  8
0
  6
CONTINUOUS
 10
6.717920
 20
3.255560
  0
VERTEX
  8
0
  6
CONTINUOUS
 10
6.724080
 20
3.277120
  0
VERTEX
  8
0
  6
CONTINUOUS
 10
6.734640
 20
3.294720
  0
VERTEX
  8
0
  6
CONTINUOUS
 10
6.747840
 20
3.310120
  0
VERTEX
  8
0
  6
CONTINUOUS
 10
6.763680
 20
3.322440
  0
VERTEX
  8
0
  6
CONTINUOUS
 10
6.781720
 20
3.332120
  0
VERTEX
  8
0
  6
CONTINUOUS
 10
6.811640
 20
3.340920
  0
VERTEX
  8
0
  6
CONTINUOUS
 10
6.832760
 20
3.343120
  0
VERTEX
  8
0
  6
CONTINUOUS
 10
6.864000
 20
3.340040
  0
VERTEX
  8
0
  6
CONTINUOUS
 10
6.883800
 20
3.333880
  0
VERTEX
  8
0
  6
CONTINUOUS
 10
6.902720
 20
3.323760
  0
VERTEX
  8
0
  6
CONTINUOUS
 10
6.919440
 20
3.310120
  0
VERTEX
  8
0
  6
CONTINUOUS
 10
6.927360
 20
3.302200
  0
VERTEX
  8
0
  6
CONTINUOUS
 10
6.940120
 20
3.282400
  0
VERTEX
  8
0
  6
CONTINUOUS
 10
6.949800
 20
3.259080
  0
VERTEX
  8
0
  6
CONTINUOUS
 10
6.955960
 20
3.231360
  0
VERTEX
  8
0
  6
CONTINUOUS
 10
6.957280
 20
3.215960
  0
VERTEX
  8
0
  6
CONTINUOUS
 10
6.955080
 20
2.978360
  0
VERTEX
  8
0
  6
CONTINUOUS
 10
6.957280
 20
2.976160
  0
VERTEX
  8
0
  6
CONTINUOUS
 10
2.978360
 20
2.976160
  0
VERTEX
  8
0
  6
CONTINUOUS
 10
2.978360
 20
3.840760
  0
VERTEX
  8
0
  6
CONTINUOUS
 10
3.436400
 20
3.840760
  0
VERTEX
  8
0
  6
CONTINUOUS
 10
3.436400
 20
3.795000
  0
SEQEND
  8
0
  0
SOLID
  8
0
 62
    15
 10
4.170320
 20
1.639440
 11
4.165040
 21
2.383920
 12
4.221360
 22
1.625360
 13
4.216080
 23
2.370280
  0
POLYLINE
  8
0
  6
CONTINUOUS
 66
     1
 40
0.000000
 41
0.000000
  0
VERTEX
  8
0
  6
CONTINUOUS
 10
4.170320
 20
1.639440
  0
VERTEX
  8
0
  6
CONTINUOUS
 10
4.165040
 20
2.383920
  0
VERTEX
  8
0
  6
CONTINUOUS
 10
4.216080
 20
2.370280
  0
VERTEX
  8
0
  6
CONTINUOUS
 10
4.221360
 20
1.625360
  0
VERTEX
  8
0
  6
CONTINUOUS
 10
4.170320
 20
1.639440
  0
SEQEND
  8
0
  0
SOLID
  8
0
 62
    15
 10
3.614160
 20
1.815000
 11
3.608880
 21
2.559920
 12
3.615920
 22
1.790800
 13
3.610640
 23
2.535720
  0
POLYLINE
  8
0
  6
CONTINUOUS
 66
     1
 40
0.000000
 41
0.000000
  0
VERTEX
  8
0
  6
CONTINUOUS
 10
3.614160
 20
1.815000
  0
VERTEX
  8
0
  6
CONTINUOUS
 10
3.608880
 20
2.559920
  0
VERTEX
  8
0
  6
CONTINUOUS
 10
3.610640
 20
2.535720
  0
VERTEX
  8
0
  6
CONTINUOUS
 10
3.615920
 20
1.790800
  0
VERTEX
  8
0
  6
CONTINUOUS
 10
3.614160
 20
1.815000
  0
SEQEND
  8
0
  0
SOLID
  8
0
 62
    15
 10
3.156120
 20
0.996600
 11
3.150400
 21
1.741520
 12
3.156120
 22
1.861200
 13
3.150400
 23
2.605680
  0
POLYLINE
  8
0
  6
CONTINUOUS
 66
     1
 40
0.000000
 41
0.000000
  0
VERTEX
  8
0
  6
CONTINUOUS
 10
3.156120
 20
0.996600
  0
VERTEX
  8
0
  6
CONTINUOUS
 10
3.150400
 20
1.741520
  0
VERTEX
  8
0
  6
CONTINUOUS
 10
3.150400
 20
2.605680
  0
VERTEX
  8
0
  6
CONTINUOUS
 10
3.156120
 20
1.861200
  0
VERTEX
  8
0
  6
CONTINUOUS
 10
3.156120
 20
0.996600
  0
SEQEND
  8
0
  0
SOLID
  8
0
 62
    15
 10
3.615920
 20
1.790800
 11
3.610640
 21
2.535720
 12
3.622960
 22
1.771880
 13
3.617240
 23
2.516800
  0
POLYLINE
  8
0
  6
CONTINUOUS
 66
     1
 40
0.000000
 41
0.000000
  0
VERTEX
  8
0
  6
CONTINUOUS
 10
3.615920
 20
1.790800
  0
VERTEX
  8
0
  6
CONTINUOUS
 10
3.610640
 20
2.535720
  0
VERTEX
  8
0
  6
CONTINUOUS
 10
3.617240
 20
2.516800
  0
VERTEX
  8
0
  6
CONTINUOUS
 10
3.622960
 20
1.771880
  0
VERTEX
  8
0
  6
CONTINUOUS
 10
3.615920
 20
1.790800
  0
SEQEND
  8
0
  0
SOLID
  8
0
 62
    15
 10
3.622960
 20
1.771880
 11
3.617240
 21
2.516800
 12
3.630000
 22
1.765280
 13
3.624720
 23
2.510200
  0
POLYLINE
  8
0
  6
CONTINUOUS
 66
     1
 40
0.000000
 41
0.000000
  0
VERTEX
  8
0
  6
CONTINUOUS
 10
3.622960
 20
1.771880
  0
VERTEX
  8
0
  6
CONTINUOUS
 10
3.617240
 20
2.516800
  0
VERTEX
  8
0
  6
CONTINUOUS
 10
3.624720
 20
2.510200
  0
VERTEX
  8
0
  6
CONTINUOUS
 10
3.630000
 20
1.765280
  0
VERTEX
  8
0
  6
CONTINUOUS
 10
3.622960
 20
1.771880
  0
SEQEND
  8
0
  0
SOLID
  8
0
 62
    15
 10
3.630000
 20
1.765280
 11
3.624720
 21
2.510200
 12
3.641000
 22
1.760880
 13
3.635280
 23
2.505800
  0
POLYLINE
  8
0
  6
CONTINUOUS
 66
     1
 40
0.000000
 41
0.000000
  0
VERTEX
  8
0
  6
CONTINUOUS
 10
3.630000
 20
1.765280
  0
VERTEX
  8
0
  6
CONTINUOUS
 10
3.624720
 20
2.510200
  0
VERTEX
  8
0
  6
CONTINUOUS
 10
3.635280
 20
2.505800
  0
VERTEX
  8
0
  6
CONTINUOUS
 10
3.641000
 20
1.760880
  0
VERTEX
  8
0
  6
CONTINUOUS
 10
3.630000
 20
1.765280
  0
SEQEND
  8
0
  0
SOLID
  8
0
 62
    15
 10
3.641000
 20
1.760880
 11
3.635280
 21
2.505800
 12
3.655960
 22
1.759560
 13
3.650680
 23
2.504480
  0
POLYLINE
  8
0
  6
CONTINUOUS
 66
     1
 40
0.000000
 41
0.000000
  0
VERTEX
  8
0
  6
CONTINUOUS
 10
3.641000
 20
1.760880
  0
VERTEX
  8
0
  6
CONTINUOUS
 10
3.635280
 20
2.505800
  0
VERTEX
  8
0
  6
CONTINUOUS
 10
3.650680
 20
2.504480
  0
VERTEX
  8
0
  6
CONTINUOUS
 10
3.655960
 20
1.759560
  0
VERTEX
  8
0
  6
CONTINUOUS
 10
3.641000
 20
1.760880
  0
SEQEND
  8
0
  0
SOLID
  8
0
 62
    15
 10
3.655960
 20
1.759560
 11
3.650680
 21
2.504480
 12
3.676640
 22
1.760880
 13
3.671360
 23
2.505800
  0
POLYLINE
  8
0
  6
CONTINUOUS
 66
     1
 40
0.000000
 41
0.000000
  0
VERTEX
  8
0
  6
CONTINUOUS
 10
3.655960
 20
1.759560
  0
VERTEX
  8
0
  6
CONTINUOUS
 10
3.650680
 20
2.504480
  0
VERTEX
  8
0
  6
CONTINUOUS
 10
3.671360
 20
2.505800
  0
VERTEX
  8
0
  6
CONTINUOUS
 10
3.676640
 20
1.760880
  0
VERTEX
  8
0
  6
CONTINUOUS
 10
3.655960
 20
1.759560
  0
SEQEND
  8
0
  0
SOLID
  8
0
 62
    15
 10
3.674440
 20
1.760880
 11
3.669160
 21
2.505800
 12
3.705240
 22
1.785080
 13
3.699960
 23
2.529560
  0
POLYLINE
  8
0
  6
CONTINUOUS
 66
     1
 40
0.000000
 41
0.000000
  0
VERTEX
  8
0
  6
CONTINUOUS
 10
3.674440
 20
1.760880
  0
VERTEX
  8
0
  6
CONTINUOUS
 10
3.669160
 20
2.505800
  0
VERTEX
  8
0
  6
CONTINUOUS
 10
3.699960
 20
2.529560
  0
VERTEX
  8
0
  6
CONTINUOUS
 10
3.705240
 20
1.785080
  0
VERTEX
  8
0
  6
CONTINUOUS
 10
3.674440
 20
1.760880
  0
SEQEND
  8
0
  0
SOLID
  8
0
 62
    15
 10
3.705240
 20
1.785080
 11
3.699960
 21
2.529560
 12
3.733400
 22
1.803560
 13
3.728120
 23
2.548480
  0
POLYLINE
  8
0
  6
CONTINUOUS
 66
     1
 40
0.000000
 41
0.000000
  0
VERTEX
  8
0
  6
CONTINUOUS
 10
3.705240
 20
1.785080
  0
VERTEX
  8
0
  6
CONTINUOUS
 10
3.699960
 20
2.529560
  0
VERTEX
  8
0
  6
CONTINUOUS
 10
3.728120
 20
2.548480
  0
VERTEX
  8
0
  6
CONTINUOUS
 10
3.733400
 20
1.803560
  0
VERTEX
  8
0
  6
CONTINUOUS
 10
3.705240
 20
1.785080
  0
SEQEND
  8
0
  0
SOLID
  8
0
 62
    15
 10
3.733400
 20
1.803560
 11
3.728120
 21
2.548480
 12
3.759360
 22
1.817200
 13
3.754080
 23
2.562120
  0
POLYLINE
  8
0
  6
CONTINUOUS
 66
     1
 40
0.000000
 41
0.000000
  0
VERTEX
  8
0
  6
CONTINUOUS
 10
3.733400
 20
1.803560
  0
VERTEX
  8
0
  6
CONTINUOUS
 10
3.728120
 20
2.548480
  0
VERTEX
  8
0
  6
CONTINUOUS
 10
3.754080
 20
2.562120
  0
VERTEX
  8
0
  6
CONTINUOUS
 10
3.759360
 20
1.817200
  0
VERTEX
  8
0
  6
CONTINUOUS
 10
3.733400
 20
1.803560
  0
SEQEND
  8
0
  0
SOLID
  8
0
 62
    15
 10
3.759360
 20
1.817200
 11
3.754080
 21
2.562120
 12
3.783560
 22
1.826440
 13
3.777840
 23
2.570920
  0
POLYLINE
  8
0
  6
CONTINUOUS
 66
     1
 40
0.000000
 41
0.000000
  0
VERTEX
  8
0
  6
CONTINUOUS
 10
3.759360
 20
1.817200
  0
VERTEX
  8
0
  6
CONTINUOUS
 10
3.754080
 20
2.562120
  0
VERTEX
  8
0
  6
CONTINUOUS
 10
3.777840
 20
2.570920
  0
VERTEX
  8
0
  6
CONTINUOUS
 10
3.783560
 20
1.826440
  0
VERTEX
  8
0
  6
CONTINUOUS
 10
3.759360
 20
1.817200
  0
SEQEND
  8
0
  0
SOLID
  8
0
 62
    15
 10
3.783560
 20
1.826440
 11
3.777840
 21
2.570920
 12
3.805560
 22
1.831280
 13
3.800280
 23
2.576200
  0
POLYLINE
  8
0
  6
CONTINUOUS
 66
     1
 40
0.000000
 41
0.000000
  0
VERTEX
  8
0
  6
CONTINUOUS
 10
3.783560
 20
1.826440
  0
VERTEX
  8
0
  6
CONTINUOUS
 10
3.777840
 20
2.570920
  0
VERTEX
  8
0
  6
CONTINUOUS
 10
3.800280
 20
2.576200
  0
VERTEX
  8
0
  6
CONTINUOUS
 10
3.805560
 20
1.831280
  0
VERTEX
  8
0
  6
CONTINUOUS
 10
3.783560
 20
1.826440
  0
SEQEND
  8
0
  0
SOLID
  8
0
 62
    15
 10
3.805560
 20
1.831280
 11
3.800280
 21
2.576200
 12
3.826240
 22
1.832600
 13
3.820960
 23
2.577080
  0
POLYLINE
  8
0
  6
CONTINUOUS
 66
     1
 40
0.000000
 41
0.000000
  0
VERTEX
  8
0
  6
CONTINUOUS
 10
3.805560
 20
1.831280
  0
VERTEX
  8
0
  6
CONTINUOUS
 10
3.800280
 20
2.576200
  0
VERTEX
  8
0
  6
CONTINUOUS
 10
3.820960
 20
2.577080
  0
VERTEX
  8
0
  6
CONTINUOUS
 10
3.826240
 20
1.832600
  0
VERTEX
  8
0
  6
CONTINUOUS
 10
3.805560
 20
1.831280
  0
SEQEND
  8
0
  0
SOLID
  8
0
 62
    15
 10
3.826240
 20
1.832600
 11
3.820960
 21
2.577080
 12
3.864960
 22
1.824680
 13
3.859680
 23
2.569600
  0
POLYLINE
  8
0
  6
CONTINUOUS
 66
     1
 40
0.000000
 41
0.000000
  0
VERTEX
  8
0
  6
CONTINUOUS
 10
3.826240
 20
1.832600
  0
VERTEX
  8
0
  6
CONTINUOUS
 10
3.820960
 20
2.577080
  0
VERTEX
  8
0
  6
CONTINUOUS
 10
3.859680
 20
2.569600
  0
VERTEX
  8
0
  6
CONTINUOUS
 10
3.864960
 20
1.824680
  0
VERTEX
  8
0
  6
CONTINUOUS
 10
3.826240
 20
1.832600
  0
SEQEND
  8
0
  0
SOLID
  8
0
 62
    15
 10
3.864960
 20
1.824680
 11
3.859680
 21
2.569600
 12
3.901040
 22
1.806640
 13
3.895760
 23
2.551560
  0
POLYLINE
  8
0
  6
CONTINUOUS
 66
     1
 40
0.000000
 41
0.000000
  0
VERTEX
  8
0
  6
CONTINUOUS
 10
3.864960
 20
1.824680
  0
VERTEX
  8
0
  6
CONTINUOUS
 10
3.859680
 20
2.569600
  0
VERTEX
  8
0
  6
CONTINUOUS
 10
3.895760
 20
2.551560
  0
VERTEX
  8
0
  6
CONTINUOUS
 10
3.901040
 20
1.806640
  0
VERTEX
  8
0
  6
CONTINUOUS
 10
3.864960
 20
1.824680
  0
SEQEND
  8
0
  0
SOLID
  8
0
 62
    15
 10
3.901040
 20
1.806640
 11
3.895760
 21
2.551560
 12
3.936680
 22
1.780240
 13
3.931400
 23
2.525160
  0
POLYLINE
  8
0
  6
CONTINUOUS
 66
     1
 40
0.000000
 41
0.000000
  0
VERTEX
  8
0
  6
CONTINUOUS
 10
3.901040
 20
1.806640
  0
VERTEX
  8
0
  6
CONTINUOUS
 10
3.895760
 20
2.551560
  0
VERTEX
  8
0
  6
CONTINUOUS
 10
3.931400
 20
2.525160
  0
VERTEX
  8
0
  6
CONTINUOUS
 10
3.936680
 20
1.780240
  0
VERTEX
  8
0
  6
CONTINUOUS
 10
3.901040
 20
1.806640
  0
SEQEND
  8
0
  0
SOLID
  8
0
 62
    15
 10
3.936680
 20
1.780240
 11
3.931400
 21
2.525160
 12
3.974520
 22
1.748560
 13
3.969240
 23
2.493480
  0
POLYLINE
  8
0
  6
CONTINUOUS
 66
     1
 40
0.000000
 41
0.000000
  0
VERTEX
  8
0
  6
CONTINUOUS
 10
3.936680
 20
1.780240
  0
VERTEX
  8
0
  6
CONTINUOUS
 10
3.931400
 20
2.525160
  0
VERTEX
  8
0
  6
CONTINUOUS
 10
3.969240
 20
2.493480
  0
VERTEX
  8
0
  6
CONTINUOUS
 10
3.974520
 20
1.748560
  0
VERTEX
  8
0
  6
CONTINUOUS
 10
3.936680
 20
1.780240
  0
SEQEND
  8
0
  0
SOLID
  8
0
 62
    15
 10
3.974520
 20
1.748560
 11
3.969240
 21
2.493480
 12
4.016320
 22
1.715120
 13
4.011040
 23
2.460040
  0
POLYLINE
  8
0
  6
CONTINUOUS
 66
     1
 40
0.000000
 41
0.000000
  0
VERTEX
  8
0
  6
CONTINUOUS
 10
3.974520
 20
1.748560
  0
VERTEX
  8
0
  6
CONTINUOUS
 10
3.969240
 20
2.493480
  0
VERTEX
  8
0
  6
CONTINUOUS
 10
4.011040
 20
2.460040
  0
VERTEX
  8
0
  6
CONTINUOUS
 10
4.016320
 20
1.715120
  0
VERTEX
  8
0
  6
CONTINUOUS
 10
3.974520
 20
1.748560
  0
SEQEND
  8
0
  0
SOLID
  8
0
 62
    15
 10
4.016320
 20
1.715120
 11
4.011040
 21
2.460040
 12
4.065600
 22
1.683440
 13
4.059880
 23
2.428360
  0
POLYLINE
  8
0
  6
CONTINUOUS
 66
     1
 40
0.000000
 41
0.000000
  0
VERTEX
  8
0
  6
CONTINUOUS
 10
4.016320
 20
1.715120
  0
VERTEX
  8
0
  6
CONTINUOUS
 10
4.011040
 20
2.460040
  0
VERTEX
  8
0
  6
CONTINUOUS
 10
4.059880
 20
2.428360
  0
VERTEX
  8
0
  6
CONTINUOUS
 10
4.065600
 20
1.683440
  0
VERTEX
  8
0
  6
CONTINUOUS
 10
4.016320
 20
1.715120
  0
SEQEND
  8
0
  0
SOLID
  8
0
 62
    15
 10
4.065600
 20
1.683440
 11
4.059880
 21
2.428360
 12
4.117520
 22
1.658360
 13
4.112240
 23
2.403280
  0
POLYLINE
  8
0
  6
CONTINUOUS
 66
     1
 40
0.000000
 41
0.000000
  0
VERTEX
  8
0
  6
CONTINUOUS
 10
4.065600
 20
1.683440
  0
VERTEX
  8
0
  6
CONTINUOUS
 10
4.059880
 20
2.428360
  0
VERTEX
  8
0
  6
CONTINUOUS
 10
4.112240
 20
2.403280
  0
VERTEX
  8
0
  6
CONTINUOUS
 10
4.117520
 20
1.658360
  0
VERTEX
  8
0
  6
CONTINUOUS
 10
4.065600
 20
1.683440
  0
SEQEND
  8
0
  0
SOLID
  8
0
 62
    15
 10
4.117520
 20
1.658360
 11
4.112240
 21
2.403280
 12
4.170320
 22
1.639440
 13
4.165040
 23
2.383920
  0
POLYLINE
  8
0
  6
CONTINUOUS
 66
     1
 40
0.000000
 41
0.000000
  0
VERTEX
  8
0
  6
CONTINUOUS
 10
4.117520
 20
1.658360
  0
VERTEX
  8
0
  6
CONTINUOUS
 10
4.112240
 20
2.403280
  0
VERTEX
  8
0
  6
CONTINUOUS
 10
4.165040
 20
2.383920
  0
VERTEX
  8
0
  6
CONTINUOUS
 10
4.170320
 20
1.639440
  0
VERTEX
  8
0
  6
CONTINUOUS
 10
4.117520
 20
1.658360
  0
SEQEND
  8
0
  0
SOLID
  8
0
 62
    15
 10
3.156120
 20
1.861200
 11
3.150400
 21
2.605680
 12
3.614160
 22
1.861200
 13
3.608880
 23
2.605680
  0
POLYLINE
  8
0
  6
CONTINUOUS
 66
     1
 40
0.000000
 41
0.000000
  0
VERTEX
  8
0
  6
CONTINUOUS
 10
3.156120
 20
1.861200
  0
VERTEX
  8
0
  6
CONTINUOUS
 10
3.150400
 20
2.605680
  0
VERTEX
  8
0
  6
CONTINUOUS
 10
3.608880
 20
2.605680
  0
VERTEX
  8
0
  6
CONTINUOUS
 10
3.614160
 20
1.861200
  0
VERTEX
  8
0
  6
CONTINUOUS
 10
3.156120
 20
1.861200
  0
SEQEND
  8
0
  0
SOLID
  8
0
 62
    15
 10
4.221360
 20
1.625360
 11
4.216080
 21
2.370280
 12
4.268440
 22
1.616120
 13
4.262720
 23
2.361040
  0
POLYLINE
  8
0
  6
CONTINUOUS
 66
     1
 40
0.000000
 41
0.000000
  0
VERTEX
  8
0
  6
CONTINUOUS
 10
4.221360
 20
1.625360
  0
VERTEX
  8
0
  6
CONTINUOUS
 10
4.216080
 20
2.370280
  0
VERTEX
  8
0
  6
CONTINUOUS
 10
4.262720
 20
2.361040
  0
VERTEX
  8
0
  6
CONTINUOUS
 10
4.268440
 20
1.616120
  0
VERTEX
  8
0
  6
CONTINUOUS
 10
4.221360
 20
1.625360
  0
SEQEND
  8
0
  0
SOLID
  8
0
 62
    15
 10
4.268440
 20
1.616120
 11
4.262720
 21
2.361040
 12
4.308920
 22
1.610840
 13
4.303640
 23
2.355320
  0
POLYLINE
  8
0
  6
CONTINUOUS
 66
     1
 40
0.000000
 41
0.000000
  0
VERTEX
  8
0
  6
CONTINUOUS
 10
4.268440
 20
1.616120
  0
VERTEX
  8
0
  6
CONTINUOUS
 10
4.262720
 20
2.361040
  0
VERTEX
  8
0
  6
CONTINUOUS
 10
4.303640
 20
2.355320
  0
VERTEX
  8
0
  6
CONTINUOUS
 10
4.308920
 20
1.610840
  0
VERTEX
  8
0
  6
CONTINUOUS
 10
4.268440
 20
1.616120
  0
SEQEND
  8
0
  0
SOLID
  8
0
 62
    15
 10
4.308920
 20
1.610840
 11
4.303640
 21
2.355320
 12
4.341040
 22
1.608640
 13
4.335760
 23
2.353120
  0
POLYLINE
  8
0
  6
CONTINUOUS
 66
     1
 40
0.000000
 41
0.000000
  0
VERTEX
  8
0
  6
CONTINUOUS
 10
4.308920
 20
1.610840
  0
VERTEX
  8
0
  6
CONTINUOUS
 10
4.303640
 20
2.355320
  0
VERTEX
  8
0
  6
CONTINUOUS
 10
4.335760
 20
2.353120
  0
VERTEX
  8
0
  6
CONTINUOUS
 10
4.341040
 20
1.608640
  0
VERTEX
  8
0
  6
CONTINUOUS
 10
4.308920
 20
1.610840
  0
SEQEND
  8
0
  0
SOLID
  8
0
 62
    15
 10
4.341040
 20
1.608640
 11
4.335760
 21
2.353120
 12
4.362160
 22
1.609080
 13
4.356880
 23
2.354000
  0
POLYLINE
  8
0
  6
CONTINUOUS
 66
     1
 40
0.000000
 41
0.000000
  0
VERTEX
  8
0
  6
CONTINUOUS
 10
4.341040
 20
1.608640
  0
VERTEX
  8
0
  6
CONTINUOUS
 10
4.335760
 20
2.353120
  0
VERTEX
  8
0
  6
CONTINUOUS
 10
4.356880
 20
2.354000
  0
VERTEX
  8
0
  6
CONTINUOUS
 10
4.362160
 20
1.609080
  0
VERTEX
  8
0
  6
CONTINUOUS
 10
4.341040
 20
1.608640
  0
SEQEND
  8
0
  0
SOLID
  8
0
 62
    15
 10
6.789200
 20
1.275560
 11
6.783920
 21
2.020480
 12
6.895680
 22
1.275560
 13
6.889960
 23
2.020480
  0
POLYLINE
  8
0
  6
CONTINUOUS
 66
     1
 40
0.000000
 41
0.000000
  0
VERTEX
  8
0
  6
CONTINUOUS
 10
6.789200
 20
1.275560
  0
VERTEX
  8
0
  6
CONTINUOUS
 10
6.783920
 20
2.020480
  0
VERTEX
  8
0
  6
CONTINUOUS
 10
6.889960
 20
2.020480
  0
VERTEX
  8
0
  6
CONTINUOUS
 10
6.895680
 20
1.275560
  0
VERTEX
  8
0
  6
CONTINUOUS
 10
6.789200
 20
1.275560
  0
SEQEND
  8
0
  0
SOLID
  8
0
 62
    15
 10
5.558080
 20
1.379840
 11
5.552800
 21
2.124760
 12
6.789200
 22
1.379840
 13
6.783920
 23
2.124760
  0
POLYLINE
  8
0
  6
CONTINUOUS
 66
     1
 40
0.000000
 41
0.000000
  0
VERTEX
  8
0
  6
CONTINUOUS
 10
5.558080
 20
1.379840
  0
VERTEX
  8
0
  6
CONTINUOUS
 10
5.552800
 20
2.124760
  0
VERTEX
  8
0
  6
CONTINUOUS
 10
6.783920
 20
2.124760
  0
VERTEX
  8
0
  6
CONTINUOUS
 10
6.789200
 20
1.379840
  0
VERTEX
  8
0
  6
CONTINUOUS
 10
5.558080
 20
1.379840
  0
SEQEND
  8
0
  0
SOLID
  8
0
 62
    15
 10
4.364360
 20
1.527680
 11
4.358640
 21
2.272600
 12
5.558080
 22
1.527680
 13
5.552800
 23
2.272600
  0
POLYLINE
  8
0
  6
CONTINUOUS
 66
     1
 40
0.000000
 41
0.000000
  0
VERTEX
  8
0
  6
CONTINUOUS
 10
4.364360
 20
1.527680
  0
VERTEX
  8
0
  6
CONTINUOUS
 10
4.358640
 20
2.272600
  0
VERTEX
  8
0
  6
CONTINUOUS
 10
5.552800
 20
2.272600
  0
VERTEX
  8
0
  6
CONTINUOUS
 10
5.558080
 20
1.527680
  0
VERTEX
  8
0
  6
CONTINUOUS
 10
4.364360
 20
1.527680
  0
SEQEND
  8
0
  0
SOLID
  8
0
 62
    15
 10
4.362160
 20
1.609080
 11
4.356880
 21
2.354000
 12
4.364360
 22
1.609080
 13
4.358640
 23
2.353560
  0
POLYLINE
  8
0
  6
CONTINUOUS
 66
     1
 40
0.000000
 41
0.000000
  0
VERTEX
  8
0
  6
CONTINUOUS
 10
4.362160
 20
1.609080
  0
VERTEX
  8
0
  6
CONTINUOUS
 10
4.356880
 20
2.354000
  0
VERTEX
  8
0
  6
CONTINUOUS
 10
4.358640
 20
2.353560
  0
VERTEX
  8
0
  6
CONTINUOUS
 10
4.364360
 20
1.609080
  0
VERTEX
  8
0
  6
CONTINUOUS
 10
4.362160
 20
1.609080
  0
SEQEND
  8
0
  0
SOLID
  8
0
 62
    15
 10
6.895680
 20
1.275560
 11
6.889960
 21
2.020480
 12
6.895680
 22
1.277760
 13
6.889960
 23
2.022680
  0
POLYLINE
  8
0
  6
CONTINUOUS
 66
     1
 40
0.000000
 41
0.000000
  0
VERTEX
  8
0
  6
CONTINUOUS
 10
6.895680
 20
1.275560
  0
VERTEX
  8
0
  6
CONTINUOUS
 10
6.889960
 20
2.020480
  0
VERTEX
  8
0
  6
CONTINUOUS
 10
6.889960
 20
2.022680
  0
VERTEX
  8
0
  6
CONTINUOUS
 10
6.895680
 20
1.277760
  0
VERTEX
  8
0
  6
CONTINUOUS
 10
6.895680
 20
1.275560
  0
SEQEND
  8
0
  0
SOLID
  8
0
 62
    15
 10
6.895680
 20
1.277760
 11
6.889960
 21
2.022680
 12
6.901840
 22
1.297560
 13
6.896560
 23
2.042480
  0
POLYLINE
  8
0
  6
CONTINUOUS
 66
     1
 40
0.000000
 41
0.000000
  0
VERTEX
  8
0
  6
CONTINUOUS
 10
6.895680
 20
1.277760
  0
VERTEX
  8
0
  6
CONTINUOUS
 10
6.889960
 20
2.022680
  0
VERTEX
  8
0
  6
CONTINUOUS
 10
6.896560
 20
2.042480
  0
VERTEX
  8
0
  6
CONTINUOUS
 10
6.901840
 20
1.297560
  0
VERTEX
  8
0
  6
CONTINUOUS
 10
6.895680
 20
1.277760
  0
SEQEND
  8
0
  0
SOLID
  8
0
 62
    15
 10
6.901840
 20
1.297560
 11
6.896560
 21
2.042480
 12
6.911960
 22
1.315160
 13
6.906680
 23
2.060080
  0
POLYLINE
  8
0
  6
CONTINUOUS
 66
     1
 40
0.000000
 41
0.000000
  0
VERTEX
  8
0
  6
CONTINUOUS
 10
6.901840
 20
1.297560
  0
VERTEX
  8
0
  6
CONTINUOUS
 10
6.896560
 20
2.042480
  0
VERTEX
  8
0
  6
CONTINUOUS
 10
6.906680
 20
2.060080
  0
VERTEX
  8
0
  6
CONTINUOUS
 10
6.911960
 20
1.315160
  0
VERTEX
  8
0
  6
CONTINUOUS
 10
6.901840
 20
1.297560
  0
SEQEND
  8
0
  0
SOLID
  8
0
 62
    15
 10
6.911960
 20
1.315160
 11
6.906680
 21
2.060080
 12
6.941440
 22
1.342880
 13
6.936160
 23
2.087360
  0
POLYLINE
  8
0
  6
CONTINUOUS
 66
     1
 40
0.000000
 41
0.000000
  0
VERTEX
  8
0
  6
CONTINUOUS
 10
6.911960
 20
1.315160
  0
VERTEX
  8
0
  6
CONTINUOUS
 10
6.906680
 20
2.060080
  0
VERTEX
  8
0
  6
CONTINUOUS
 10
6.936160
 20
2.087360
  0
VERTEX
  8
0
  6
CONTINUOUS
 10
6.941440
 20
1.342880
  0
VERTEX
  8
0
  6
CONTINUOUS
 10
6.911960
 20
1.315160
  0
SEQEND
  8
0
  0
SOLID
  8
0
 62
    15
 10
6.941440
 20
1.342880
 11
6.936160
 21
2.087360
 12
6.979280
 22
1.359160
 13
6.973560
 23
2.104080
  0
POLYLINE
  8
0
  6
CONTINUOUS
 66
     1
 40
0.000000
 41
0.000000
  0
VERTEX
  8
0
  6
CONTINUOUS
 10
6.941440
 20
1.342880
  0
VERTEX
  8
0
  6
CONTINUOUS
 10
6.936160
 20
2.087360
  0
VERTEX
  8
0
  6
CONTINUOUS
 10
6.973560
 20
2.104080
  0
VERTEX
  8
0
  6
CONTINUOUS
 10
6.979280
 20
1.359160
  0
VERTEX
  8
0
  6
CONTINUOUS
 10
6.941440
 20
1.342880
  0
SEQEND
  8
0
  0
SOLID
  8
0
 62
    15
 10
6.979280
 20
1.359160
 11
6.973560
 21
2.104080
 12
7.020640
 22
1.363120
 13
7.015360
 23
2.108040
  0
POLYLINE
  8
0
  6
CONTINUOUS
 66
     1
 40
0.000000
 41
0.000000
  0
VERTEX
  8
0
  6
CONTINUOUS
 10
6.979280
 20
1.359160
  0
VERTEX
  8
0
  6
CONTINUOUS
 10
6.973560
 20
2.104080
  0
VERTEX
  8
0
  6
CONTINUOUS
 10
7.015360
 20
2.108040
  0
VERTEX
  8
0
  6
CONTINUOUS
 10
7.020640
 20
1.363120
  0
VERTEX
  8
0
  6
CONTINUOUS
 10
6.979280
 20
1.359160
  0
SEQEND
  8
0
  0
SOLID
  8
0
 62
    15
 10
7.020640
 20
1.363120
 11
7.015360
 21
2.108040
 12
7.061560
 22
1.353880
 13
7.056280
 23
2.098800
  0
POLYLINE
  8
0
  6
CONTINUOUS
 66
     1
 40
0.000000
 41
0.000000
  0
VERTEX
  8
0
  6
CONTINUOUS
 10
7.020640
 20
1.363120
  0
VERTEX
  8
0
  6
CONTINUOUS
 10
7.015360
 20
2.108040
  0
VERTEX
  8
0
  6
CONTINUOUS
 10
7.056280
 20
2.098800
  0
VERTEX
  8
0
  6
CONTINUOUS
 10
7.061560
 20
1.353880
  0
VERTEX
  8
0
  6
CONTINUOUS
 10
7.020640
 20
1.363120
  0
SEQEND
  8
0
  0
SOLID
  8
0
 62
    15
 10
7.061560
 20
1.353880
 11
7.056280
 21
2.098800
 12
7.080480
 22
1.344200
 13
7.074760
 23
2.089120
  0
POLYLINE
  8
0
  6
CONTINUOUS
 66
     1
 40
0.000000
 41
0.000000
  0
VERTEX
  8
0
  6
CONTINUOUS
 10
7.061560
 20
1.353880
  0
VERTEX
  8
0
  6
CONTINUOUS
 10
7.056280
 20
2.098800
  0
VERTEX
  8
0
  6
CONTINUOUS
 10
7.074760
 20
2.089120
  0
VERTEX
  8
0
  6
CONTINUOUS
 10
7.080480
 20
1.344200
  0
VERTEX
  8
0
  6
CONTINUOUS
 10
7.061560
 20
1.353880
  0
SEQEND
  8
0
  0
SOLID
  8
0
 62
    15
 10
7.080480
 20
1.344200
 11
7.074760
 21
2.089120
 12
7.097200
 22
1.330560
 13
7.091920
 23
2.075480
  0
POLYLINE
  8
0
  6
CONTINUOUS
 66
     1
 40
0.000000
 41
0.000000
  0
VERTEX
  8
0
  6
CONTINUOUS
 10
7.080480
 20
1.344200
  0
VERTEX
  8
0
  6
CONTINUOUS
 10
7.074760
 20
2.089120
  0
VERTEX
  8
0
  6
CONTINUOUS
 10
7.091920
 20
2.075480
  0
VERTEX
  8
0
  6
CONTINUOUS
 10
7.097200
 20
1.330560
  0
VERTEX
  8
0
  6
CONTINUOUS
 10
7.080480
 20
1.344200
  0
SEQEND
  8
0
  0
SOLID
  8
0
 62
    15
 10
7.097200
 20
1.330560
 11
7.091920
 21
2.075480
 12
7.111720
 22
1.312960
 13
7.106440
 23
2.057880
  0
POLYLINE
  8
0
  6
CONTINUOUS
 66
     1
 40
0.000000
 41
0.000000
  0
VERTEX
  8
0
  6
CONTINUOUS
 10
7.097200
 20
1.330560
  0
VERTEX
  8
0
  6
CONTINUOUS
 10
7.091920
 20
2.075480
  0
VERTEX
  8
0
  6
CONTINUOUS
 10
7.106440
 20
2.057880
  0
VERTEX
  8
0
  6
CONTINUOUS
 10
7.111720
 20
1.312960
  0
VERTEX
  8
0
  6
CONTINUOUS
 10
7.097200
 20
1.330560
  0
SEQEND
  8
0
  0
SOLID
  8
0
 62
    15
 10
7.123160
 20
1.291400
 11
7.117880
 21
2.036320
 12
7.131080
 22
1.265880
 13
7.125800
 23
2.010800
  0
POLYLINE
  8
0
  6
CONTINUOUS
 66
     1
 40
0.000000
 41
0.000000
  0
VERTEX
  8
0
  6
CONTINUOUS
 10
7.123160
 20
1.291400
  0
VERTEX
  8
0
  6
CONTINUOUS
 10
7.117880
 20
2.036320
  0
VERTEX
  8
0
  6
CONTINUOUS
 10
7.125800
 20
2.010800
  0
VERTEX
  8
0
  6
CONTINUOUS
 10
7.131080
 20
1.265880
  0
VERTEX
  8
0
  6
CONTINUOUS
 10
7.123160
 20
1.291400
  0
SEQEND
  8
0
  0
SOLID
  8
0
 62
    15
 10
7.111720
 20
1.312960
 11
7.106440
 21
2.057880
 12
7.123160
 22
1.291400
 13
7.117880
 23
2.036320
  0
POLYLINE
  8
0
  6
CONTINUOUS
 66
     1
 40
0.000000
 41
0.000000
  0
VERTEX
  8
0
  6
CONTINUOUS
 10
7.111720
 20
1.312960
  0
VERTEX
  8
0
  6
CONTINUOUS
 10
7.106440
 20
2.057880
  0
VERTEX
  8
0
  6
CONTINUOUS
 10
7.117880
 20
2.036320
  0
VERTEX
  8
0
  6
CONTINUOUS
 10
7.123160
 20
1.291400
  0
VERTEX
  8
0
  6
CONTINUOUS
 10
7.111720
 20
1.312960
  0
SEQEND
  8
0
  0
SOLID
  8
0
 62
    15
 10
7.131080
 20
1.265880
 11
7.125800
 21
2.010800
 12
7.135040
 22
1.235960
 13
7.129760
 23
1.980880
  0
POLYLINE
  8
0
  6
CONTINUOUS
 66
     1
 40
0.000000
 41
0.000000
  0
VERTEX
  8
0
  6
CONTINUOUS
 10
7.131080
 20
1.265880
  0
VERTEX
  8
0
  6
CONTINUOUS
 10
7.125800
 20
2.010800
  0
VERTEX
  8
0
  6
CONTINUOUS
 10
7.129760
 20
1.980880
  0
VERTEX
  8
0
  6
CONTINUOUS
 10
7.135040
 20
1.235960
  0
VERTEX
  8
0
  6
CONTINUOUS
 10
7.131080
 20
1.265880
  0
SEQEND
  8
0
  0
POLYLINE
  8
0
  6
CONTINUOUS
 66
     1
 40
0.000000
 41
0.000000
  0
VERTEX
  8
0
  6
CONTINUOUS
 10
3.156120
 20
0.996600
  0
VERTEX
  8
0
  6
CONTINUOUS
 10
3.156120
 20
1.861200
  0
VERTEX
  8
0
  6
CONTINUOUS
 10
3.614160
 20
1.861200
  0
VERTEX
  8
0
  6
CONTINUOUS
 10
3.614160
 20
1.815000
  0
VERTEX
  8
0
  6
CONTINUOUS
 10
3.615920
 20
1.790800
  0
VERTEX
  8
0
  6
CONTINUOUS
 10
3.622960
 20
1.771880
  0
VERTEX
  8
0
  6
CONTINUOUS
 10
3.630000
 20
1.765280
  0
VERTEX
  8
0
  6
CONTINUOUS
 10
3.641000
 20
1.760880
  0
VERTEX
  8
0
  6
CONTINUOUS
 10
3.655960
 20
1.759560
  0
VERTEX
  8
0
  6
CONTINUOUS
 10
3.676640
 20
1.760880
  0
VERTEX
  8
0
  6
CONTINUOUS
 10
3.674440
 20
1.760880
  0
VERTEX
  8
0
  6
CONTINUOUS
 10
3.705240
 20
1.785080
  0
VERTEX
  8
0
  6
CONTINUOUS
 10
3.733400
 20
1.803560
  0
VERTEX
  8
0
  6
CONTINUOUS
 10
3.759360
 20
1.817200
  0
VERTEX
  8
0
  6
CONTINUOUS
 10
3.783560
 20
1.826440
  0
VERTEX
  8
0
  6
CONTINUOUS
 10
3.805560
 20
1.831280
  0
VERTEX
  8
0
  6
CONTINUOUS
 10
3.826240
 20
1.832600
  0
VERTEX
  8
0
  6
CONTINUOUS
 10
3.864960
 20
1.824680
  0
VERTEX
  8
0
  6
CONTINUOUS
 10
3.901040
 20
1.806640
  0
VERTEX
  8
0
  6
CONTINUOUS
 10
3.936680
 20
1.780240
  0
VERTEX
  8
0
  6
CONTINUOUS
 10
4.016320
 20
1.715120
  0
VERTEX
  8
0
  6
CONTINUOUS
 10
4.065600
 20
1.683440
  0
VERTEX
  8
0
  6
CONTINUOUS
 10
4.117520
 20
1.658360
  0
VERTEX
  8
0
  6
CONTINUOUS
 10
4.170320
 20
1.639440
  0
VERTEX
  8
0
  6
CONTINUOUS
 10
4.221360
 20
1.625360
  0
VERTEX
  8
0
  6
CONTINUOUS
 10
4.268440
 20
1.616120
  0
VERTEX
  8
0
  6
CONTINUOUS
 10
4.308920
 20
1.610840
  0
VERTEX
  8
0
  6
CONTINUOUS
 10
4.341040
 20
1.608640
  0
VERTEX
  8
0
  6
CONTINUOUS
 10
4.364360
 20
1.609080
  0
VERTEX
  8
0
  6
CONTINUOUS
 10
4.364360
 20
1.527680
  0
VERTEX
  8
0
  6
CONTINUOUS
 10
5.558080
 20
1.527680
  0
VERTEX
  8
0
  6
CONTINUOUS
 10
5.558080
 20
1.379840
  0
VERTEX
  8
0
  6
CONTINUOUS
 10
6.789200
 20
1.379840
  0
VERTEX
  8
0
  6
CONTINUOUS
 10
6.789200
 20
1.275560
  0
VERTEX
  8
0
  6
CONTINUOUS
 10
6.895680
 20
1.275560
  0
VERTEX
  8
0
  6
CONTINUOUS
 10
6.901840
 20
1.297560
  0
VERTEX
  8
0
  6
CONTINUOUS
 10
6.911960
 20
1.315160
  0
VERTEX
  8
0
  6
CONTINUOUS
 10
6.941440
 20
1.342880
  0
VERTEX
  8
0
  6
CONTINUOUS
 10
6.979280
 20
1.359160
  0
VERTEX
  8
0
  6
CONTINUOUS
 10
7.020640
 20
1.363120
  0
VERTEX
  8
0
  6
CONTINUOUS
 10
7.061560
 20
1.353880
  0
VERTEX
  8
0
  6
CONTINUOUS
 10
7.080480
 20
1.344200
  0
VERTEX
  8
0
  6
CONTINUOUS
 10
7.097200
 20
1.330560
  0
VERTEX
  8
0
  6
CONTINUOUS
 10
7.111720
 20
1.312960
  0
VERTEX
  8
0
  6
CONTINUOUS
 10
7.123160
 20
1.291400
  0
VERTEX
  8
0
  6
CONTINUOUS
 10
7.131080
 20
1.265880
  0
VERTEX
  8
0
  6
CONTINUOUS
 10
7.135040
 20
1.235960
  0
VERTEX
  8
0
  6
CONTINUOUS
 10
7.135040
 20
0.996600
  0
VERTEX
  8
0
  6
CONTINUOUS
 10
3.156120
 20
0.996600
  0
SEQEND
  8
0
  0
TEXT
  8
0
 10
4.848360
 20
0.762520
 40
0.138009
  1
BA  314
 41
1.000000
  7
SN0
 71
     0
 72
     5
 11
5.437651
 21
0.762520
  0
TEXT
  8
0
 10
4.835600
 20
0.571120
 40
0.138009
  1
7/8" x 4"
 41
1.000000
  7
SN0
 71
     0
 72
     5
 11
5.449878
 21
0.571120
  0
ENDSEC
  0
EOF
