  0
SECTION
  2
HEADER
  9
$ACADVER
  1
AC1006
  9
$EXTMIN
 10
1.682120
 20
3.218600
  9
$EXTMAX
 10
6.817800
 20
7.780960
  9
$LTSCALE
 40
0.044000
  9
$PDMODE
 70
    35
  9
$PDSIZE
 40
0.035200
  0
ENDSEC
  0
SECTION
  2
TABLES
  0
TABLE
  2
LTYPE
 70
     9
  0
LTYPE
  2
CONTINUOUS
 70
    64
  3
Solid line
 72
    65
 73
     0
 40
0.000000
  0
LTYPE
  2
DASHED
 70
    64
  3
__ __ __ __ __ __ __ __ __ __ __ __ __ __ __
 72
    65
 73
     2
 40
0.000330
 49
0.000220
 49
-0.000110
  0
LTYPE
  2
HIDDEN
 70
    64
  3
 _ _ _ _ _ _ _ _ _ _ _ _ _ _ _ _ _ _ _ _ _ _
 72
    65
 73
     2
 40
0.000165
 49
0.000110
 49
-0.000055
  0
LTYPE
  2
CENTER
 70
    64
  3
____ _ ____ _ ____ _ ____ _ ____ _ ____ _ ____
 72
    65
 73
     4
 40
0.000880
 49
0.000550
 49
-0.000110
 49
0.000110
 49
-0.000110
  0
LTYPE
  2
PHANTOM
 70
    64
  3
_____ _ _ _____ _ _ _____ _ _ _____ _ _ ____
 72
    65
 73
     6
 40
0.001100
 49
0.000550
 49
-0.000110
 49
0.000110
 49
-0.000110
 49
0.000110
 49
-0.000110
  0
LTYPE
  2
DOT
 70
    64
  3
...............................................
 72
    65
 73
     2
 40
0.000110
 49
0.000000
 49
-0.000110
  0
LTYPE
  2
DASHDOT
 70
    64
  3
__ . __ . __ . __ . __ . __ . __ . __ . __ . __
 72
    65
 73
     4
 40
0.000440
 49
0.000220
 49
-0.000110
 49
0.000000
 49
-0.000110
  0
LTYPE
  2
BORDER
 70
    64
  3
__ __ . __ __ . __ __ . __ __ . __ __ . __ __
 72
    65
 73
     6
 40
0.000770
 49
0.000220
 49
-0.000110
 49
0.000220
 49
-0.000110
 49
0.000000
 49
-0.000110
  0
LTYPE
  2
DIVIDE
 70
    64
  3
__ . . __ . . __ . . __ . . __ . . __ . . __
 72
    65
 73
     6
 40
0.000550
 49
0.000220
 49
-0.000110
 49
0.000000
 49
-0.000110
 49
0.000000
 49
-0.000110
  0
LTYPE
  2
DOTDOT
 70
    64
  3
 . .  . .  . .  . .  . .  . . 
 72
    65
 73
     5
 40
0.000242
 49
-0.000110
 49
0.000000
 49
-0.000110
 49
0.000000
 49
-0.000110
  0
ENDTAB
  0
TABLE
  2
STYLE
 70
     2
  0
STYLE
 70
     0
  2
SN0
 40
0.000000
 41
0.000440
 50
0.000000
 71
     0
 42
0.000000
  3
ROMAND
  0
STYLE
 70
    68
  2
SV0
 40
0.000000
 41
0.000440
 50
0.000000
 71
     0
 42
0.000000
  3
ROMAND
  0
ENDTAB
  0
TABLE
  2
LAYER
 70
     3
  0
LAYER
  2
FOREGROUND
 70
    64
 62
     7
  6
CONTINUOUS
  0
LAYER
  2
BACKGROUND
 70
    65
 62
    -7
  6
CONTINUOUS
  0
LAYER
  2
0
 70
    64
 62
     7
  6
CONTINUOUS
  0
ENDTAB
  0
ENDSEC
  0
SECTION
  2
ENTITIES
  0
POLYLINE
  8
FOREGROUND
  6
CONTINUOUS
 66
     1
 40
0.000000
 41
0.000000
  0
VERTEX
  8
FOREGROUND
  6
CONTINUOUS
 10
0.000000
 20
10.999560
  0
VERTEX
  8
FOREGROUND
  6
CONTINUOUS
 10
8.499920
 20
10.999560
  0
VERTEX
  8
FOREGROUND
  6
CONTINUOUS
 10
8.499920
 20
-0.000440
  0
VERTEX
  8
FOREGROUND
  6
CONTINUOUS
 10
0.000000
 20
-0.000440
  0
VERTEX
  8
FOREGROUND
  6
CONTINUOUS
 10
0.000000
 20
10.999560
  0
SEQEND
  8
0
  0
POLYLINE
  8
FOREGROUND
  6
CONTINUOUS
 66
     1
 40
0.000000
 41
0.000000
  0
VERTEX
  8
FOREGROUND
  6
CONTINUOUS
 10
0.000000
 20
10.999560
  0
VERTEX
  8
FOREGROUND
  6
CONTINUOUS
 10
8.499920
 20
10.999560
  0
VERTEX
  8
FOREGROUND
  6
CONTINUOUS
 10
8.499920
 20
-0.000440
  0
VERTEX
  8
FOREGROUND
  6
CONTINUOUS
 10
0.000000
 20
-0.000440
  0
VERTEX
  8
FOREGROUND
  6
CONTINUOUS
 10
0.000000
 20
10.999560
  0
SEQEND
  8
0
  0
POLYLINE
  8
0
  6
CONTINUOUS
 66
     1
 40
0.014080
 41
0.014080
  0
VERTEX
  8
0
  6
CONTINUOUS
 10
2.335520
 20
7.238000
  0
VERTEX
  8
0
  6
CONTINUOUS
 10
3.206280
 20
7.238000
  0
VERTEX
  8
0
  6
CONTINUOUS
 10
3.206720
 20
7.207640
  0
VERTEX
  8
0
  6
CONTINUOUS
 10
3.211560
 20
7.169800
  0
VERTEX
  8
0
  6
CONTINUOUS
 10
3.219480
 20
7.140320
  0
VERTEX
  8
0
  6
CONTINUOUS
 10
3.230040
 20
7.118760
  0
VERTEX
  8
0
  6
CONTINUOUS
 10
3.242800
 20
7.103800
  0
VERTEX
  8
0
  6
CONTINUOUS
 10
3.252040
 20
7.097200
  0
VERTEX
  8
0
  6
CONTINUOUS
 10
3.261720
 20
7.093240
  0
VERTEX
  8
0
  6
CONTINUOUS
 10
3.270960
 20
7.091480
  0
VERTEX
  8
0
  6
CONTINUOUS
 10
3.289440
 20
7.093680
  0
VERTEX
  8
0
  6
CONTINUOUS
 10
3.305280
 20
7.102040
  0
VERTEX
  8
0
  6
CONTINUOUS
 10
3.316720
 20
7.114800
  0
VERTEX
  8
0
  6
CONTINUOUS
 10
3.341800
 20
7.147800
  0
VERTEX
  8
0
  6
CONTINUOUS
 10
3.366000
 20
7.170680
  0
VERTEX
  8
0
  6
CONTINUOUS
 10
3.380520
 20
7.181240
  0
VERTEX
  8
0
  6
CONTINUOUS
 10
3.403840
 20
7.193560
  0
VERTEX
  8
0
  6
CONTINUOUS
 10
3.412200
 20
7.197080
  0
VERTEX
  8
0
  6
CONTINUOUS
 10
3.429800
 20
7.201480
  0
VERTEX
  8
0
  6
CONTINUOUS
 10
3.448720
 20
7.202800
  0
VERTEX
  8
0
  6
CONTINUOUS
 10
3.468080
 20
7.200600
  0
VERTEX
  8
0
  6
CONTINUOUS
 10
3.488320
 20
7.194880
  0
VERTEX
  8
0
  6
CONTINUOUS
 10
3.509000
 20
7.184320
  0
VERTEX
  8
0
  6
CONTINUOUS
 10
3.530560
 20
7.168920
  0
VERTEX
  8
0
  6
CONTINUOUS
 10
3.552560
 20
7.147800
  0
VERTEX
  8
0
  6
CONTINUOUS
 10
3.587320
 20
7.106440
  0
VERTEX
  8
0
  6
CONTINUOUS
 10
3.611960
 20
7.086200
  0
VERTEX
  8
0
  6
CONTINUOUS
 10
3.643200
 20
7.068600
  0
VERTEX
  8
0
  6
CONTINUOUS
 10
3.681040
 20
7.053640
  0
VERTEX
  8
0
  6
CONTINUOUS
 10
3.725480
 20
7.042640
  0
VERTEX
  8
0
  6
CONTINUOUS
 10
3.760680
 20
7.037800
  0
VERTEX
  8
0
  6
CONTINUOUS
 10
3.766400
 20
7.055400
  0
VERTEX
  8
0
  6
CONTINUOUS
 10
3.779600
 20
7.077840
  0
VERTEX
  8
0
  6
CONTINUOUS
 10
3.797640
 20
7.095440
  0
VERTEX
  8
0
  6
CONTINUOUS
 10
3.818760
 20
7.107760
  0
VERTEX
  8
0
  6
CONTINUOUS
 10
3.842080
 20
7.113920
  0
VERTEX
  8
0
  6
CONTINUOUS
 10
3.857480
 20
7.114800
  0
VERTEX
  8
0
  6
CONTINUOUS
 10
3.880800
 20
7.109960
  0
VERTEX
  8
0
  6
CONTINUOUS
 10
3.902360
 20
7.097640
  0
VERTEX
  8
0
  6
CONTINUOUS
 10
3.920400
 20
7.077400
  0
VERTEX
  8
0
  6
CONTINUOUS
 10
3.930520
 20
7.058920
  0
VERTEX
  8
0
  6
CONTINUOUS
 10
3.938000
 20
7.036920
  0
VERTEX
  8
0
  6
CONTINUOUS
 10
3.942400
 20
7.010520
  0
VERTEX
  8
0
  6
CONTINUOUS
 10
3.943720
 20
6.994240
  0
VERTEX
  8
0
  6
CONTINUOUS
 10
4.683360
 20
6.994240
  0
VERTEX
  8
0
  6
CONTINUOUS
 10
4.683360
 20
6.887760
  0
VERTEX
  8
0
  6
CONTINUOUS
 10
4.752000
 20
6.887760
  0
VERTEX
  8
0
  6
CONTINUOUS
 10
4.780160
 20
6.924720
  0
VERTEX
  8
0
  6
CONTINUOUS
 10
4.807880
 20
6.951120
  0
VERTEX
  8
0
  6
CONTINUOUS
 10
4.821520
 20
6.960360
  0
VERTEX
  8
0
  6
CONTINUOUS
 10
4.848360
 20
6.970920
  0
VERTEX
  8
0
  6
CONTINUOUS
 10
4.862000
 20
6.972680
  0
VERTEX
  8
0
  6
CONTINUOUS
 10
4.875200
 20
6.972240
  0
VERTEX
  8
0
  6
CONTINUOUS
 10
4.902920
 20
6.964320
  0
VERTEX
  8
0
  6
CONTINUOUS
 10
4.931080
 20
6.948480
  0
VERTEX
  8
0
  6
CONTINUOUS
 10
4.960120
 20
6.925160
  0
VERTEX
  8
0
  6
CONTINUOUS
 10
5.028320
 20
6.860040
  0
VERTEX
  8
0
  6
CONTINUOUS
 10
5.070560
 20
6.828360
  0
VERTEX
  8
0
  6
CONTINUOUS
 10
5.099600
 20
6.813840
  0
VERTEX
  8
0
  6
CONTINUOUS
 10
5.119400
 20
6.807680
  0
VERTEX
  8
0
  6
CONTINUOUS
 10
5.154160
 20
6.802400
  0
VERTEX
  8
0
  6
CONTINUOUS
 10
5.163840
 20
6.825280
  0
VERTEX
  8
0
  6
CONTINUOUS
 10
5.181000
 20
6.853000
  0
VERTEX
  8
0
  6
CONTINUOUS
 10
5.194640
 20
6.866640
  0
VERTEX
  8
0
  6
CONTINUOUS
 10
5.216200
 20
6.881160
  0
VERTEX
  8
0
  6
CONTINUOUS
 10
5.238640
 20
6.888640
  0
VERTEX
  8
0
  6
CONTINUOUS
 10
5.254040
 20
6.889960
  0
VERTEX
  8
0
  6
CONTINUOUS
 10
5.276040
 20
6.886440
  0
VERTEX
  8
0
  6
CONTINUOUS
 10
5.289680
 20
6.881160
  0
VERTEX
  8
0
  6
CONTINUOUS
 10
5.308160
 20
6.868400
  0
VERTEX
  8
0
  6
CONTINUOUS
 10
5.323120
 20
6.851240
  0
VERTEX
  8
0
  6
CONTINUOUS
 10
5.333240
 20
6.829680
  0
VERTEX
  8
0
  6
CONTINUOUS
 10
5.336760
 20
6.813400
  0
VERTEX
  8
0
  6
CONTINUOUS
 10
5.337640
 20
6.802400
  0
VERTEX
  8
0
  6
CONTINUOUS
 10
6.125240
 20
6.802400
  0
VERTEX
  8
0
  6
CONTINUOUS
 10
6.125240
 20
6.681400
  0
VERTEX
  8
0
  6
CONTINUOUS
 10
6.197840
 20
6.681400
  0
VERTEX
  8
0
  6
CONTINUOUS
 10
6.211480
 20
6.717920
  0
VERTEX
  8
0
  6
CONTINUOUS
 10
6.226880
 20
6.745200
  0
VERTEX
  8
0
  6
CONTINUOUS
 10
6.243600
 20
6.764560
  0
VERTEX
  8
0
  6
CONTINUOUS
 10
6.261640
 20
6.776880
  0
VERTEX
  8
0
  6
CONTINUOUS
 10
6.281000
 20
6.781720
  0
VERTEX
  8
0
  6
CONTINUOUS
 10
6.301240
 20
6.781280
  0
VERTEX
  8
0
  6
CONTINUOUS
 10
6.315320
 20
6.777760
  0
VERTEX
  8
0
  6
CONTINUOUS
 10
6.329400
 20
6.772040
  0
VERTEX
  8
0
  6
CONTINUOUS
 10
6.358880
 20
6.754880
  0
VERTEX
  8
0
  6
CONTINUOUS
 10
6.388800
 20
6.732000
  0
VERTEX
  8
0
  6
CONTINUOUS
 10
6.483840
 20
6.645760
  0
VERTEX
  8
0
  6
CONTINUOUS
 10
6.506280
 20
6.629040
  0
VERTEX
  8
0
  6
CONTINUOUS
 10
6.530480
 20
6.615840
  0
VERTEX
  8
0
  6
CONTINUOUS
 10
6.556880
 20
6.606160
  0
VERTEX
  8
0
  6
CONTINUOUS
 10
6.587680
 20
6.601320
  0
VERTEX
  8
0
  6
CONTINUOUS
 10
6.604400
 20
6.600440
  0
VERTEX
  8
0
  6
CONTINUOUS
 10
6.639600
 20
6.602200
  0
VERTEX
  8
0
  6
CONTINUOUS
 10
6.641360
 20
6.622880
  0
VERTEX
  8
0
  6
CONTINUOUS
 10
6.650600
 20
6.649280
  0
VERTEX
  8
0
  6
CONTINUOUS
 10
6.666440
 20
6.669960
  0
VERTEX
  8
0
  6
CONTINUOUS
 10
6.686240
 20
6.684920
  0
VERTEX
  8
0
  6
CONTINUOUS
 10
6.709120
 20
6.694600
  0
VERTEX
  8
0
  6
CONTINUOUS
 10
6.732880
 20
6.698120
  0
VERTEX
  8
0
  6
CONTINUOUS
 10
6.748720
 20
6.697240
  0
VERTEX
  8
0
  6
CONTINUOUS
 10
6.770720
 20
6.691080
  0
VERTEX
  8
0
  6
CONTINUOUS
 10
6.783480
 20
6.683600
  0
VERTEX
  8
0
  6
CONTINUOUS
 10
6.794480
 20
6.673480
  0
VERTEX
  8
0
  6
CONTINUOUS
 10
6.799320
 20
6.667760
  0
VERTEX
  8
0
  6
CONTINUOUS
 10
6.808560
 20
6.645320
  0
VERTEX
  8
0
  6
CONTINUOUS
 10
6.810320
 20
6.625080
  0
VERTEX
  8
0
  6
CONTINUOUS
 10
6.810320
 20
6.318840
  0
VERTEX
  8
0
  6
CONTINUOUS
 10
2.335520
 20
6.318840
  0
VERTEX
  8
0
  6
CONTINUOUS
 10
2.333320
 20
6.321040
  0
VERTEX
  8
0
  6
CONTINUOUS
 10
2.333320
 20
7.238000
  0
VERTEX
  8
0
  6
CONTINUOUS
 10
2.335520
 20
7.238000
  0
VERTEX
  8
0
  6
CONTINUOUS
 10
1.718640
 20
7.773040
  0
VERTEX
  8
0
  6
CONTINUOUS
 10
2.285360
 20
7.773040
  0
VERTEX
  8
0
  6
CONTINUOUS
 10
2.285360
 20
7.769080
  0
VERTEX
  8
0
  6
CONTINUOUS
 10
2.285360
 20
7.598360
  0
VERTEX
  8
0
  6
CONTINUOUS
 10
2.393600
 20
7.598360
  0
VERTEX
  8
0
  6
CONTINUOUS
 10
2.394040
 20
7.593960
  0
VERTEX
  8
0
  6
CONTINUOUS
 10
2.394920
 20
7.574600
  0
VERTEX
  8
0
  6
CONTINUOUS
 10
2.396240
 20
7.556120
  0
VERTEX
  8
0
  6
CONTINUOUS
 10
2.398880
 20
7.538520
  0
VERTEX
  8
0
  6
CONTINUOUS
 10
2.401960
 20
7.522240
  0
VERTEX
  8
0
  6
CONTINUOUS
 10
2.405480
 20
7.506400
  0
VERTEX
  8
0
  6
CONTINUOUS
 10
2.409880
 20
7.491440
  0
VERTEX
  8
0
  6
CONTINUOUS
 10
2.415160
 20
7.477800
  0
VERTEX
  8
0
  6
CONTINUOUS
 10
2.420880
 20
7.464600
  0
VERTEX
  8
0
  6
CONTINUOUS
 10
2.427040
 20
7.452280
  0
VERTEX
  8
0
  6
CONTINUOUS
 10
2.433640
 20
7.440400
  0
VERTEX
  8
0
  6
CONTINUOUS
 10
2.448600
 20
7.419280
  0
VERTEX
  8
0
  6
CONTINUOUS
 10
2.456960
 20
7.410040
  0
VERTEX
  8
0
  6
CONTINUOUS
 10
2.465320
 20
7.401240
  0
VERTEX
  8
0
  6
CONTINUOUS
 10
2.474560
 20
7.392880
  0
VERTEX
  8
0
  6
CONTINUOUS
 10
2.483800
 20
7.384960
  0
VERTEX
  8
0
  6
CONTINUOUS
 10
2.503160
 20
7.371320
  0
VERTEX
  8
0
  6
CONTINUOUS
 10
2.523400
 20
7.359440
  0
VERTEX
  8
0
  6
CONTINUOUS
 10
2.544520
 20
7.349320
  0
VERTEX
  8
0
  6
CONTINUOUS
 10
2.565640
 20
7.340960
  0
VERTEX
  8
0
  6
CONTINUOUS
 10
2.587200
 20
7.333480
  0
VERTEX
  8
0
  6
CONTINUOUS
 10
2.608760
 20
7.327320
  0
VERTEX
  8
0
  6
CONTINUOUS
 10
2.629880
 20
7.321600
  0
VERTEX
  8
0
  6
CONTINUOUS
 10
2.650120
 20
7.316760
  0
VERTEX
  8
0
  6
CONTINUOUS
 10
2.650120
 20
7.312800
  0
VERTEX
  8
0
  6
CONTINUOUS
 10
2.650120
 20
7.235800
  0
VERTEX
  8
0
  6
CONTINUOUS
 10
2.335520
 20
7.235800
  0
VERTEX
  8
0
  6
CONTINUOUS
 10
2.335520
 20
6.317080
  0
VERTEX
  8
0
  6
CONTINUOUS
 10
1.712480
 20
6.317080
  0
VERTEX
  8
0
  6
CONTINUOUS
 10
1.712480
 20
7.773040
  0
VERTEX
  8
0
  6
CONTINUOUS
 10
1.718640
 20
7.773040
  0
VERTEX
  8
0
  6
CONTINUOUS
 10
2.335520
 20
7.238000
  0
SEQEND
  8
0
  0
SOLID
  8
0
 62
    15
 10
4.909080
 20
4.338400
 11
4.900720
 21
5.077160
 12
4.938560
 22
4.311120
 13
4.930640
 23
5.049880
  0
POLYLINE
  8
0
  6
CONTINUOUS
 66
     1
 40
0.000000
 41
0.000000
  0
VERTEX
  8
0
  6
CONTINUOUS
 10
4.909080
 20
4.338400
  0
VERTEX
  8
0
  6
CONTINUOUS
 10
4.900720
 20
5.077160
  0
VERTEX
  8
0
  6
CONTINUOUS
 10
4.930640
 20
5.049880
  0
VERTEX
  8
0
  6
CONTINUOUS
 10
4.938560
 20
4.311120
  0
VERTEX
  8
0
  6
CONTINUOUS
 10
4.909080
 20
4.338400
  0
SEQEND
  8
0
  0
SOLID
  8
0
 62
    15
 10
3.169760
 20
4.638480
 11
3.161840
 21
5.377240
 12
3.170640
 22
4.608120
 13
3.162280
 23
5.346880
  0
POLYLINE
  8
0
  6
CONTINUOUS
 66
     1
 40
0.000000
 41
0.000000
  0
VERTEX
  8
0
  6
CONTINUOUS
 10
3.169760
 20
4.638480
  0
VERTEX
  8
0
  6
CONTINUOUS
 10
3.161840
 20
5.377240
  0
VERTEX
  8
0
  6
CONTINUOUS
 10
3.162280
 20
5.346880
  0
VERTEX
  8
0
  6
CONTINUOUS
 10
3.170640
 20
4.608120
  0
VERTEX
  8
0
  6
CONTINUOUS
 10
3.169760
 20
4.638480
  0
SEQEND
  8
0
  0
SOLID
  8
0
 62
    15
 10
3.170640
 20
4.608120
 11
3.162280
 21
5.346880
 12
3.173280
 22
4.582160
 13
3.164920
 23
5.320920
  0
POLYLINE
  8
0
  6
CONTINUOUS
 66
     1
 40
0.000000
 41
0.000000
  0
VERTEX
  8
0
  6
CONTINUOUS
 10
3.170640
 20
4.608120
  0
VERTEX
  8
0
  6
CONTINUOUS
 10
3.162280
 20
5.346880
  0
VERTEX
  8
0
  6
CONTINUOUS
 10
3.164920
 20
5.320920
  0
VERTEX
  8
0
  6
CONTINUOUS
 10
3.173280
 20
4.582160
  0
VERTEX
  8
0
  6
CONTINUOUS
 10
3.170640
 20
4.608120
  0
SEQEND
  8
0
  0
SOLID
  8
0
 62
    15
 10
3.173280
 20
4.582160
 11
3.164920
 21
5.320920
 12
3.182960
 22
4.540800
 13
3.175040
 23
5.280000
  0
POLYLINE
  8
0
  6
CONTINUOUS
 66
     1
 40
0.000000
 41
0.000000
  0
VERTEX
  8
0
  6
CONTINUOUS
 10
3.173280
 20
4.582160
  0
VERTEX
  8
0
  6
CONTINUOUS
 10
3.164920
 20
5.320920
  0
VERTEX
  8
0
  6
CONTINUOUS
 10
3.175040
 20
5.280000
  0
VERTEX
  8
0
  6
CONTINUOUS
 10
3.182960
 20
4.540800
  0
VERTEX
  8
0
  6
CONTINUOUS
 10
3.173280
 20
4.582160
  0
SEQEND
  8
0
  0
SOLID
  8
0
 62
    15
 10
3.182960
 20
4.540800
 11
3.175040
 21
5.280000
 12
3.197920
 22
4.513520
 13
3.189560
 23
5.252280
  0
POLYLINE
  8
0
  6
CONTINUOUS
 66
     1
 40
0.000000
 41
0.000000
  0
VERTEX
  8
0
  6
CONTINUOUS
 10
3.182960
 20
4.540800
  0
VERTEX
  8
0
  6
CONTINUOUS
 10
3.175040
 20
5.280000
  0
VERTEX
  8
0
  6
CONTINUOUS
 10
3.189560
 20
5.252280
  0
VERTEX
  8
0
  6
CONTINUOUS
 10
3.197920
 20
4.513520
  0
VERTEX
  8
0
  6
CONTINUOUS
 10
3.182960
 20
4.540800
  0
SEQEND
  8
0
  0
SOLID
  8
0
 62
    15
 10
3.197920
 20
4.513520
 11
3.189560
 21
5.252280
 12
3.215960
 22
4.498120
 13
3.207600
 23
5.236880
  0
POLYLINE
  8
0
  6
CONTINUOUS
 66
     1
 40
0.000000
 41
0.000000
  0
VERTEX
  8
0
  6
CONTINUOUS
 10
3.197920
 20
4.513520
  0
VERTEX
  8
0
  6
CONTINUOUS
 10
3.189560
 20
5.252280
  0
VERTEX
  8
0
  6
CONTINUOUS
 10
3.207600
 20
5.236880
  0
VERTEX
  8
0
  6
CONTINUOUS
 10
3.215960
 20
4.498120
  0
VERTEX
  8
0
  6
CONTINUOUS
 10
3.197920
 20
4.513520
  0
SEQEND
  8
0
  0
SOLID
  8
0
 62
    15
 10
3.215960
 20
4.498120
 11
3.207600
 21
5.236880
 12
3.234880
 22
4.492400
 13
3.226520
 23
5.231160
  0
POLYLINE
  8
0
  6
CONTINUOUS
 66
     1
 40
0.000000
 41
0.000000
  0
VERTEX
  8
0
  6
CONTINUOUS
 10
3.215960
 20
4.498120
  0
VERTEX
  8
0
  6
CONTINUOUS
 10
3.207600
 20
5.236880
  0
VERTEX
  8
0
  6
CONTINUOUS
 10
3.226520
 20
5.231160
  0
VERTEX
  8
0
  6
CONTINUOUS
 10
3.234880
 20
4.492400
  0
VERTEX
  8
0
  6
CONTINUOUS
 10
3.215960
 20
4.498120
  0
SEQEND
  8
0
  0
SOLID
  8
0
 62
    15
 10
3.234880
 20
4.492400
 11
3.226520
 21
5.231160
 12
3.252920
 22
4.494600
 13
3.245000
 23
5.233360
  0
POLYLINE
  8
0
  6
CONTINUOUS
 66
     1
 40
0.000000
 41
0.000000
  0
VERTEX
  8
0
  6
CONTINUOUS
 10
3.234880
 20
4.492400
  0
VERTEX
  8
0
  6
CONTINUOUS
 10
3.226520
 20
5.231160
  0
VERTEX
  8
0
  6
CONTINUOUS
 10
3.245000
 20
5.233360
  0
VERTEX
  8
0
  6
CONTINUOUS
 10
3.252920
 20
4.494600
  0
VERTEX
  8
0
  6
CONTINUOUS
 10
3.234880
 20
4.492400
  0
SEQEND
  8
0
  0
SOLID
  8
0
 62
    15
 10
3.252920
 20
4.494600
 11
3.245000
 21
5.233360
 12
3.268760
 22
4.502960
 13
3.260840
 23
5.241720
  0
POLYLINE
  8
0
  6
CONTINUOUS
 66
     1
 40
0.000000
 41
0.000000
  0
VERTEX
  8
0
  6
CONTINUOUS
 10
3.252920
 20
4.494600
  0
VERTEX
  8
0
  6
CONTINUOUS
 10
3.245000
 20
5.233360
  0
VERTEX
  8
0
  6
CONTINUOUS
 10
3.260840
 20
5.241720
  0
VERTEX
  8
0
  6
CONTINUOUS
 10
3.268760
 20
4.502960
  0
VERTEX
  8
0
  6
CONTINUOUS
 10
3.252920
 20
4.494600
  0
SEQEND
  8
0
  0
SOLID
  8
0
 62
    15
 10
3.268760
 20
4.502960
 11
3.260840
 21
5.241720
 12
3.280200
 22
4.515280
 13
3.272280
 23
5.254040
  0
POLYLINE
  8
0
  6
CONTINUOUS
 66
     1
 40
0.000000
 41
0.000000
  0
VERTEX
  8
0
  6
CONTINUOUS
 10
3.268760
 20
4.502960
  0
VERTEX
  8
0
  6
CONTINUOUS
 10
3.260840
 20
5.241720
  0
VERTEX
  8
0
  6
CONTINUOUS
 10
3.272280
 20
5.254040
  0
VERTEX
  8
0
  6
CONTINUOUS
 10
3.280200
 20
4.515280
  0
VERTEX
  8
0
  6
CONTINUOUS
 10
3.268760
 20
4.502960
  0
SEQEND
  8
0
  0
SOLID
  8
0
 62
    15
 10
3.280200
 20
4.515280
 11
3.272280
 21
5.254040
 12
3.295600
 22
4.536840
 13
3.287240
 23
5.275600
  0
POLYLINE
  8
0
  6
CONTINUOUS
 66
     1
 40
0.000000
 41
0.000000
  0
VERTEX
  8
0
  6
CONTINUOUS
 10
3.280200
 20
4.515280
  0
VERTEX
  8
0
  6
CONTINUOUS
 10
3.272280
 20
5.254040
  0
VERTEX
  8
0
  6
CONTINUOUS
 10
3.287240
 20
5.275600
  0
VERTEX
  8
0
  6
CONTINUOUS
 10
3.295600
 20
4.536840
  0
VERTEX
  8
0
  6
CONTINUOUS
 10
3.280200
 20
4.515280
  0
SEQEND
  8
0
  0
SOLID
  8
0
 62
    15
 10
3.295600
 20
4.536840
 11
3.287240
 21
5.275600
 12
3.316720
 22
4.560160
 13
3.308800
 23
5.298920
  0
POLYLINE
  8
0
  6
CONTINUOUS
 66
     1
 40
0.000000
 41
0.000000
  0
VERTEX
  8
0
  6
CONTINUOUS
 10
3.295600
 20
4.536840
  0
VERTEX
  8
0
  6
CONTINUOUS
 10
3.287240
 20
5.275600
  0
VERTEX
  8
0
  6
CONTINUOUS
 10
3.308800
 20
5.298920
  0
VERTEX
  8
0
  6
CONTINUOUS
 10
3.316720
 20
4.560160
  0
VERTEX
  8
0
  6
CONTINUOUS
 10
3.295600
 20
4.536840
  0
SEQEND
  8
0
  0
SOLID
  8
0
 62
    15
 10
3.316720
 20
4.560160
 11
3.308800
 21
5.298920
 12
3.344000
 22
4.581720
 13
3.335640
 23
5.320480
  0
POLYLINE
  8
0
  6
CONTINUOUS
 66
     1
 40
0.000000
 41
0.000000
  0
VERTEX
  8
0
  6
CONTINUOUS
 10
3.316720
 20
4.560160
  0
VERTEX
  8
0
  6
CONTINUOUS
 10
3.308800
 20
5.298920
  0
VERTEX
  8
0
  6
CONTINUOUS
 10
3.335640
 20
5.320480
  0
VERTEX
  8
0
  6
CONTINUOUS
 10
3.344000
 20
4.581720
  0
VERTEX
  8
0
  6
CONTINUOUS
 10
3.316720
 20
4.560160
  0
SEQEND
  8
0
  0
SOLID
  8
0
 62
    15
 10
3.344000
 20
4.581720
 11
3.335640
 21
5.320480
 12
3.376120
 22
4.597560
 13
3.367760
 23
5.336320
  0
POLYLINE
  8
0
  6
CONTINUOUS
 66
     1
 40
0.000000
 41
0.000000
  0
VERTEX
  8
0
  6
CONTINUOUS
 10
3.344000
 20
4.581720
  0
VERTEX
  8
0
  6
CONTINUOUS
 10
3.335640
 20
5.320480
  0
VERTEX
  8
0
  6
CONTINUOUS
 10
3.367760
 20
5.336320
  0
VERTEX
  8
0
  6
CONTINUOUS
 10
3.376120
 20
4.597560
  0
VERTEX
  8
0
  6
CONTINUOUS
 10
3.344000
 20
4.581720
  0
SEQEND
  8
0
  0
SOLID
  8
0
 62
    15
 10
3.376120
 20
4.597560
 11
3.367760
 21
5.336320
 12
3.412200
 22
4.603280
 13
3.403840
 23
5.342040
  0
POLYLINE
  8
0
  6
CONTINUOUS
 66
     1
 40
0.000000
 41
0.000000
  0
VERTEX
  8
0
  6
CONTINUOUS
 10
3.376120
 20
4.597560
  0
VERTEX
  8
0
  6
CONTINUOUS
 10
3.367760
 20
5.336320
  0
VERTEX
  8
0
  6
CONTINUOUS
 10
3.403840
 20
5.342040
  0
VERTEX
  8
0
  6
CONTINUOUS
 10
3.412200
 20
4.603280
  0
VERTEX
  8
0
  6
CONTINUOUS
 10
3.376120
 20
4.597560
  0
SEQEND
  8
0
  0
SOLID
  8
0
 62
    15
 10
3.412200
 20
4.603280
 11
3.403840
 21
5.342040
 12
3.451800
 22
4.595360
 13
3.443440
 23
5.334120
  0
POLYLINE
  8
0
  6
CONTINUOUS
 66
     1
 40
0.000000
 41
0.000000
  0
VERTEX
  8
0
  6
CONTINUOUS
 10
3.412200
 20
4.603280
  0
VERTEX
  8
0
  6
CONTINUOUS
 10
3.403840
 20
5.342040
  0
VERTEX
  8
0
  6
CONTINUOUS
 10
3.443440
 20
5.334120
  0
VERTEX
  8
0
  6
CONTINUOUS
 10
3.451800
 20
4.595360
  0
VERTEX
  8
0
  6
CONTINUOUS
 10
3.412200
 20
4.603280
  0
SEQEND
  8
0
  0
SOLID
  8
0
 62
    15
 10
3.451800
 20
4.595360
 11
3.443440
 21
5.334120
 12
3.472480
 22
4.584800
 13
3.464560
 23
5.323560
  0
POLYLINE
  8
0
  6
CONTINUOUS
 66
     1
 40
0.000000
 41
0.000000
  0
VERTEX
  8
0
  6
CONTINUOUS
 10
3.451800
 20
4.595360
  0
VERTEX
  8
0
  6
CONTINUOUS
 10
3.443440
 20
5.334120
  0
VERTEX
  8
0
  6
CONTINUOUS
 10
3.464560
 20
5.323560
  0
VERTEX
  8
0
  6
CONTINUOUS
 10
3.472480
 20
4.584800
  0
VERTEX
  8
0
  6
CONTINUOUS
 10
3.451800
 20
4.595360
  0
SEQEND
  8
0
  0
SOLID
  8
0
 62
    15
 10
3.472480
 20
4.584800
 11
3.464560
 21
5.323560
 12
3.494040
 22
4.569400
 13
3.486120
 23
5.308160
  0
POLYLINE
  8
0
  6
CONTINUOUS
 66
     1
 40
0.000000
 41
0.000000
  0
VERTEX
  8
0
  6
CONTINUOUS
 10
3.472480
 20
4.584800
  0
VERTEX
  8
0
  6
CONTINUOUS
 10
3.464560
 20
5.323560
  0
VERTEX
  8
0
  6
CONTINUOUS
 10
3.486120
 20
5.308160
  0
VERTEX
  8
0
  6
CONTINUOUS
 10
3.494040
 20
4.569400
  0
VERTEX
  8
0
  6
CONTINUOUS
 10
3.472480
 20
4.584800
  0
SEQEND
  8
0
  0
SOLID
  8
0
 62
    15
 10
3.494040
 20
4.569400
 11
3.486120
 21
5.308160
 12
3.516040
 22
4.548720
 13
3.508120
 23
5.287480
  0
POLYLINE
  8
0
  6
CONTINUOUS
 66
     1
 40
0.000000
 41
0.000000
  0
VERTEX
  8
0
  6
CONTINUOUS
 10
3.494040
 20
4.569400
  0
VERTEX
  8
0
  6
CONTINUOUS
 10
3.486120
 20
5.308160
  0
VERTEX
  8
0
  6
CONTINUOUS
 10
3.508120
 20
5.287480
  0
VERTEX
  8
0
  6
CONTINUOUS
 10
3.516040
 20
4.548720
  0
VERTEX
  8
0
  6
CONTINUOUS
 10
3.494040
 20
4.569400
  0
SEQEND
  8
0
  0
SOLID
  8
0
 62
    15
 10
3.516040
 20
4.548720
 11
3.508120
 21
5.287480
 12
3.538480
 22
4.521880
 13
3.530560
 23
5.260640
  0
POLYLINE
  8
0
  6
CONTINUOUS
 66
     1
 40
0.000000
 41
0.000000
  0
VERTEX
  8
0
  6
CONTINUOUS
 10
3.516040
 20
4.548720
  0
VERTEX
  8
0
  6
CONTINUOUS
 10
3.508120
 20
5.287480
  0
VERTEX
  8
0
  6
CONTINUOUS
 10
3.530560
 20
5.260640
  0
VERTEX
  8
0
  6
CONTINUOUS
 10
3.538480
 20
4.521880
  0
VERTEX
  8
0
  6
CONTINUOUS
 10
3.516040
 20
4.548720
  0
SEQEND
  8
0
  0
SOLID
  8
0
 62
    15
 10
3.538480
 20
4.521880
 11
3.530560
 21
5.260640
 12
3.566640
 22
4.493280
 13
3.558720
 23
5.232480
  0
POLYLINE
  8
0
  6
CONTINUOUS
 66
     1
 40
0.000000
 41
0.000000
  0
VERTEX
  8
0
  6
CONTINUOUS
 10
3.538480
 20
4.521880
  0
VERTEX
  8
0
  6
CONTINUOUS
 10
3.530560
 20
5.260640
  0
VERTEX
  8
0
  6
CONTINUOUS
 10
3.558720
 20
5.232480
  0
VERTEX
  8
0
  6
CONTINUOUS
 10
3.566640
 20
4.493280
  0
VERTEX
  8
0
  6
CONTINUOUS
 10
3.538480
 20
4.521880
  0
SEQEND
  8
0
  0
SOLID
  8
0
 62
    15
 10
3.566640
 20
4.493280
 11
3.558720
 21
5.232480
 12
3.606680
 22
4.469080
 13
3.598760
 23
5.207840
  0
POLYLINE
  8
0
  6
CONTINUOUS
 66
     1
 40
0.000000
 41
0.000000
  0
VERTEX
  8
0
  6
CONTINUOUS
 10
3.566640
 20
4.493280
  0
VERTEX
  8
0
  6
CONTINUOUS
 10
3.558720
 20
5.232480
  0
VERTEX
  8
0
  6
CONTINUOUS
 10
3.598760
 20
5.207840
  0
VERTEX
  8
0
  6
CONTINUOUS
 10
3.606680
 20
4.469080
  0
VERTEX
  8
0
  6
CONTINUOUS
 10
3.566640
 20
4.493280
  0
SEQEND
  8
0
  0
SOLID
  8
0
 62
    15
 10
3.606680
 20
4.469080
 11
3.598760
 21
5.207840
 12
3.658600
 22
4.450160
 13
3.650680
 23
5.188920
  0
POLYLINE
  8
0
  6
CONTINUOUS
 66
     1
 40
0.000000
 41
0.000000
  0
VERTEX
  8
0
  6
CONTINUOUS
 10
3.606680
 20
4.469080
  0
VERTEX
  8
0
  6
CONTINUOUS
 10
3.598760
 20
5.207840
  0
VERTEX
  8
0
  6
CONTINUOUS
 10
3.650680
 20
5.188920
  0
VERTEX
  8
0
  6
CONTINUOUS
 10
3.658600
 20
4.450160
  0
VERTEX
  8
0
  6
CONTINUOUS
 10
3.606680
 20
4.469080
  0
SEQEND
  8
0
  0
SOLID
  8
0
 62
    15
 10
3.658600
 20
4.450160
 11
3.650680
 21
5.188920
 12
3.721960
 22
4.438280
 13
3.713600
 23
5.177040
  0
POLYLINE
  8
0
  6
CONTINUOUS
 66
     1
 40
0.000000
 41
0.000000
  0
VERTEX
  8
0
  6
CONTINUOUS
 10
3.658600
 20
4.450160
  0
VERTEX
  8
0
  6
CONTINUOUS
 10
3.650680
 20
5.188920
  0
VERTEX
  8
0
  6
CONTINUOUS
 10
3.713600
 20
5.177040
  0
VERTEX
  8
0
  6
CONTINUOUS
 10
3.721960
 20
4.438280
  0
VERTEX
  8
0
  6
CONTINUOUS
 10
3.658600
 20
4.450160
  0
SEQEND
  8
0
  0
SOLID
  8
0
 62
    15
 10
3.721960
 20
4.438280
 11
3.713600
 21
5.177040
 12
3.724160
 22
4.438280
 13
3.715800
 23
5.177040
  0
POLYLINE
  8
0
  6
CONTINUOUS
 66
     1
 40
0.000000
 41
0.000000
  0
VERTEX
  8
0
  6
CONTINUOUS
 10
3.721960
 20
4.438280
  0
VERTEX
  8
0
  6
CONTINUOUS
 10
3.713600
 20
5.177040
  0
VERTEX
  8
0
  6
CONTINUOUS
 10
3.715800
 20
5.177040
  0
VERTEX
  8
0
  6
CONTINUOUS
 10
3.724160
 20
4.438280
  0
VERTEX
  8
0
  6
CONTINUOUS
 10
3.721960
 20
4.438280
  0
SEQEND
  8
0
  0
SOLID
  8
0
 62
    15
 10
3.724160
 20
4.438280
 11
3.715800
 21
5.177040
 12
3.738240
 22
4.471280
 13
3.729880
 23
5.210040
  0
POLYLINE
  8
0
  6
CONTINUOUS
 66
     1
 40
0.000000
 41
0.000000
  0
VERTEX
  8
0
  6
CONTINUOUS
 10
3.724160
 20
4.438280
  0
VERTEX
  8
0
  6
CONTINUOUS
 10
3.715800
 20
5.177040
  0
VERTEX
  8
0
  6
CONTINUOUS
 10
3.729880
 20
5.210040
  0
VERTEX
  8
0
  6
CONTINUOUS
 10
3.738240
 20
4.471280
  0
VERTEX
  8
0
  6
CONTINUOUS
 10
3.724160
 20
4.438280
  0
SEQEND
  8
0
  0
SOLID
  8
0
 62
    15
 10
3.738240
 20
4.471280
 11
3.729880
 21
5.210040
 12
3.761120
 22
4.495920
 13
3.753200
 23
5.234680
  0
POLYLINE
  8
0
  6
CONTINUOUS
 66
     1
 40
0.000000
 41
0.000000
  0
VERTEX
  8
0
  6
CONTINUOUS
 10
3.738240
 20
4.471280
  0
VERTEX
  8
0
  6
CONTINUOUS
 10
3.729880
 20
5.210040
  0
VERTEX
  8
0
  6
CONTINUOUS
 10
3.753200
 20
5.234680
  0
VERTEX
  8
0
  6
CONTINUOUS
 10
3.761120
 20
4.495920
  0
VERTEX
  8
0
  6
CONTINUOUS
 10
3.738240
 20
4.471280
  0
SEQEND
  8
0
  0
SOLID
  8
0
 62
    15
 10
3.761120
 20
4.495920
 11
3.753200
 21
5.234680
 12
3.790160
 22
4.510880
 13
3.781800
 23
5.250080
  0
POLYLINE
  8
0
  6
CONTINUOUS
 66
     1
 40
0.000000
 41
0.000000
  0
VERTEX
  8
0
  6
CONTINUOUS
 10
3.761120
 20
4.495920
  0
VERTEX
  8
0
  6
CONTINUOUS
 10
3.753200
 20
5.234680
  0
VERTEX
  8
0
  6
CONTINUOUS
 10
3.781800
 20
5.250080
  0
VERTEX
  8
0
  6
CONTINUOUS
 10
3.790160
 20
4.510880
  0
VERTEX
  8
0
  6
CONTINUOUS
 10
3.761120
 20
4.495920
  0
SEQEND
  8
0
  0
SOLID
  8
0
 62
    15
 10
3.790160
 20
4.510880
 11
3.781800
 21
5.250080
 12
3.821400
 22
4.515280
 13
3.813040
 23
5.254040
  0
POLYLINE
  8
0
  6
CONTINUOUS
 66
     1
 40
0.000000
 41
0.000000
  0
VERTEX
  8
0
  6
CONTINUOUS
 10
3.790160
 20
4.510880
  0
VERTEX
  8
0
  6
CONTINUOUS
 10
3.781800
 20
5.250080
  0
VERTEX
  8
0
  6
CONTINUOUS
 10
3.813040
 20
5.254040
  0
VERTEX
  8
0
  6
CONTINUOUS
 10
3.821400
 20
4.515280
  0
VERTEX
  8
0
  6
CONTINUOUS
 10
3.790160
 20
4.510880
  0
SEQEND
  8
0
  0
SOLID
  8
0
 62
    15
 10
3.821400
 20
4.515280
 11
3.813040
 21
5.254040
 12
3.851760
 22
4.506920
 13
3.843840
 23
5.246120
  0
POLYLINE
  8
0
  6
CONTINUOUS
 66
     1
 40
0.000000
 41
0.000000
  0
VERTEX
  8
0
  6
CONTINUOUS
 10
3.821400
 20
4.515280
  0
VERTEX
  8
0
  6
CONTINUOUS
 10
3.813040
 20
5.254040
  0
VERTEX
  8
0
  6
CONTINUOUS
 10
3.843840
 20
5.246120
  0
VERTEX
  8
0
  6
CONTINUOUS
 10
3.851760
 20
4.506920
  0
VERTEX
  8
0
  6
CONTINUOUS
 10
3.821400
 20
4.515280
  0
SEQEND
  8
0
  0
SOLID
  8
0
 62
    15
 10
3.851760
 20
4.506920
 11
3.843840
 21
5.246120
 12
3.878600
 22
4.485360
 13
3.870240
 23
5.224560
  0
POLYLINE
  8
0
  6
CONTINUOUS
 66
     1
 40
0.000000
 41
0.000000
  0
VERTEX
  8
0
  6
CONTINUOUS
 10
3.851760
 20
4.506920
  0
VERTEX
  8
0
  6
CONTINUOUS
 10
3.843840
 20
5.246120
  0
VERTEX
  8
0
  6
CONTINUOUS
 10
3.870240
 20
5.224560
  0
VERTEX
  8
0
  6
CONTINUOUS
 10
3.878600
 20
4.485360
  0
VERTEX
  8
0
  6
CONTINUOUS
 10
3.851760
 20
4.506920
  0
SEQEND
  8
0
  0
SOLID
  8
0
 62
    15
 10
3.878600
 20
4.485360
 11
3.870240
 21
5.224560
 12
3.889160
 22
4.469080
 13
3.881240
 23
5.208280
  0
POLYLINE
  8
0
  6
CONTINUOUS
 66
     1
 40
0.000000
 41
0.000000
  0
VERTEX
  8
0
  6
CONTINUOUS
 10
3.878600
 20
4.485360
  0
VERTEX
  8
0
  6
CONTINUOUS
 10
3.870240
 20
5.224560
  0
VERTEX
  8
0
  6
CONTINUOUS
 10
3.881240
 20
5.208280
  0
VERTEX
  8
0
  6
CONTINUOUS
 10
3.889160
 20
4.469080
  0
VERTEX
  8
0
  6
CONTINUOUS
 10
3.878600
 20
4.485360
  0
SEQEND
  8
0
  0
SOLID
  8
0
 62
    15
 10
3.889160
 20
4.469080
 11
3.881240
 21
5.208280
 12
3.897960
 22
4.449280
 13
3.890040
 23
5.188040
  0
POLYLINE
  8
0
  6
CONTINUOUS
 66
     1
 40
0.000000
 41
0.000000
  0
VERTEX
  8
0
  6
CONTINUOUS
 10
3.889160
 20
4.469080
  0
VERTEX
  8
0
  6
CONTINUOUS
 10
3.881240
 20
5.208280
  0
VERTEX
  8
0
  6
CONTINUOUS
 10
3.890040
 20
5.188040
  0
VERTEX
  8
0
  6
CONTINUOUS
 10
3.897960
 20
4.449280
  0
VERTEX
  8
0
  6
CONTINUOUS
 10
3.889160
 20
4.469080
  0
SEQEND
  8
0
  0
SOLID
  8
0
 62
    15
 10
3.897960
 20
4.449280
 11
3.890040
 21
5.188040
 12
3.904120
 22
4.425080
 13
3.896200
 23
5.163840
  0
POLYLINE
  8
0
  6
CONTINUOUS
 66
     1
 40
0.000000
 41
0.000000
  0
VERTEX
  8
0
  6
CONTINUOUS
 10
3.897960
 20
4.449280
  0
VERTEX
  8
0
  6
CONTINUOUS
 10
3.890040
 20
5.188040
  0
VERTEX
  8
0
  6
CONTINUOUS
 10
3.896200
 20
5.163840
  0
VERTEX
  8
0
  6
CONTINUOUS
 10
3.904120
 20
4.425080
  0
VERTEX
  8
0
  6
CONTINUOUS
 10
3.897960
 20
4.449280
  0
SEQEND
  8
0
  0
SOLID
  8
0
 62
    15
 10
3.904120
 20
4.425080
 11
3.896200
 21
5.163840
 12
3.907200
 22
4.396920
 13
3.899280
 23
5.135680
  0
POLYLINE
  8
0
  6
CONTINUOUS
 66
     1
 40
0.000000
 41
0.000000
  0
VERTEX
  8
0
  6
CONTINUOUS
 10
3.904120
 20
4.425080
  0
VERTEX
  8
0
  6
CONTINUOUS
 10
3.896200
 20
5.163840
  0
VERTEX
  8
0
  6
CONTINUOUS
 10
3.899280
 20
5.135680
  0
VERTEX
  8
0
  6
CONTINUOUS
 10
3.907200
 20
4.396920
  0
VERTEX
  8
0
  6
CONTINUOUS
 10
3.904120
 20
4.425080
  0
SEQEND
  8
0
  0
SOLID
  8
0
 62
    15
 10
3.907200
 20
4.396920
 11
3.899280
 21
5.135680
 12
3.907640
 22
4.394720
 13
3.899280
 23
5.133480
  0
POLYLINE
  8
0
  6
CONTINUOUS
 66
     1
 40
0.000000
 41
0.000000
  0
VERTEX
  8
0
  6
CONTINUOUS
 10
3.907200
 20
4.396920
  0
VERTEX
  8
0
  6
CONTINUOUS
 10
3.899280
 20
5.135680
  0
VERTEX
  8
0
  6
CONTINUOUS
 10
3.899280
 20
5.133480
  0
VERTEX
  8
0
  6
CONTINUOUS
 10
3.907640
 20
4.394720
  0
VERTEX
  8
0
  6
CONTINUOUS
 10
3.907200
 20
4.396920
  0
SEQEND
  8
0
  0
SOLID
  8
0
 62
    15
 10
4.646840
 20
4.288240
 11
4.638920
 21
5.027000
 12
4.715920
 22
4.288240
 13
4.707560
 23
5.027000
  0
POLYLINE
  8
0
  6
CONTINUOUS
 66
     1
 40
0.000000
 41
0.000000
  0
VERTEX
  8
0
  6
CONTINUOUS
 10
4.646840
 20
4.288240
  0
VERTEX
  8
0
  6
CONTINUOUS
 10
4.638920
 20
5.027000
  0
VERTEX
  8
0
  6
CONTINUOUS
 10
4.707560
 20
5.027000
  0
VERTEX
  8
0
  6
CONTINUOUS
 10
4.715920
 20
4.288240
  0
VERTEX
  8
0
  6
CONTINUOUS
 10
4.646840
 20
4.288240
  0
SEQEND
  8
0
  0
SOLID
  8
0
 62
    15
 10
3.907640
 20
4.394720
 11
3.899280
 21
5.133480
 12
4.646840
 22
4.394720
 13
4.638920
 23
5.133480
  0
POLYLINE
  8
0
  6
CONTINUOUS
 66
     1
 40
0.000000
 41
0.000000
  0
VERTEX
  8
0
  6
CONTINUOUS
 10
3.907640
 20
4.394720
  0
VERTEX
  8
0
  6
CONTINUOUS
 10
3.899280
 20
5.133480
  0
VERTEX
  8
0
  6
CONTINUOUS
 10
4.638920
 20
5.133480
  0
VERTEX
  8
0
  6
CONTINUOUS
 10
4.646840
 20
4.394720
  0
VERTEX
  8
0
  6
CONTINUOUS
 10
3.907640
 20
4.394720
  0
SEQEND
  8
0
  0
SOLID
  8
0
 62
    15
 10
4.715920
 20
4.288240
 11
4.707560
 21
5.027000
 12
4.744080
 22
4.325640
 13
4.736160
 23
5.064400
  0
POLYLINE
  8
0
  6
CONTINUOUS
 66
     1
 40
0.000000
 41
0.000000
  0
VERTEX
  8
0
  6
CONTINUOUS
 10
4.715920
 20
4.288240
  0
VERTEX
  8
0
  6
CONTINUOUS
 10
4.707560
 20
5.027000
  0
VERTEX
  8
0
  6
CONTINUOUS
 10
4.736160
 20
5.064400
  0
VERTEX
  8
0
  6
CONTINUOUS
 10
4.744080
 20
4.325640
  0
VERTEX
  8
0
  6
CONTINUOUS
 10
4.715920
 20
4.288240
  0
SEQEND
  8
0
  0
SOLID
  8
0
 62
    15
 10
4.744080
 20
4.325640
 11
4.736160
 21
5.064400
 12
4.771800
 22
4.351600
 13
4.763440
 23
5.090360
  0
POLYLINE
  8
0
  6
CONTINUOUS
 66
     1
 40
0.000000
 41
0.000000
  0
VERTEX
  8
0
  6
CONTINUOUS
 10
4.744080
 20
4.325640
  0
VERTEX
  8
0
  6
CONTINUOUS
 10
4.736160
 20
5.064400
  0
VERTEX
  8
0
  6
CONTINUOUS
 10
4.763440
 20
5.090360
  0
VERTEX
  8
0
  6
CONTINUOUS
 10
4.771800
 20
4.351600
  0
VERTEX
  8
0
  6
CONTINUOUS
 10
4.744080
 20
4.325640
  0
SEQEND
  8
0
  0
SOLID
  8
0
 62
    15
 10
4.771800
 20
4.351600
 11
4.763440
 21
5.090360
 12
4.798640
 22
4.367440
 13
4.790720
 23
5.106200
  0
POLYLINE
  8
0
  6
CONTINUOUS
 66
     1
 40
0.000000
 41
0.000000
  0
VERTEX
  8
0
  6
CONTINUOUS
 10
4.771800
 20
4.351600
  0
VERTEX
  8
0
  6
CONTINUOUS
 10
4.763440
 20
5.090360
  0
VERTEX
  8
0
  6
CONTINUOUS
 10
4.790720
 20
5.106200
  0
VERTEX
  8
0
  6
CONTINUOUS
 10
4.798640
 20
4.367440
  0
VERTEX
  8
0
  6
CONTINUOUS
 10
4.771800
 20
4.351600
  0
SEQEND
  8
0
  0
SOLID
  8
0
 62
    15
 10
4.798640
 20
4.367440
 11
4.790720
 21
5.106200
 12
4.825480
 22
4.373160
 13
4.817560
 23
5.111920
  0
POLYLINE
  8
0
  6
CONTINUOUS
 66
     1
 40
0.000000
 41
0.000000
  0
VERTEX
  8
0
  6
CONTINUOUS
 10
4.798640
 20
4.367440
  0
VERTEX
  8
0
  6
CONTINUOUS
 10
4.790720
 20
5.106200
  0
VERTEX
  8
0
  6
CONTINUOUS
 10
4.817560
 20
5.111920
  0
VERTEX
  8
0
  6
CONTINUOUS
 10
4.825480
 20
4.373160
  0
VERTEX
  8
0
  6
CONTINUOUS
 10
4.798640
 20
4.367440
  0
SEQEND
  8
0
  0
SOLID
  8
0
 62
    15
 10
4.825480
 20
4.373160
 11
4.817560
 21
5.111920
 12
4.852760
 22
4.370080
 13
4.844400
 23
5.108840
  0
POLYLINE
  8
0
  6
CONTINUOUS
 66
     1
 40
0.000000
 41
0.000000
  0
VERTEX
  8
0
  6
CONTINUOUS
 10
4.825480
 20
4.373160
  0
VERTEX
  8
0
  6
CONTINUOUS
 10
4.817560
 20
5.111920
  0
VERTEX
  8
0
  6
CONTINUOUS
 10
4.844400
 20
5.108840
  0
VERTEX
  8
0
  6
CONTINUOUS
 10
4.852760
 20
4.370080
  0
VERTEX
  8
0
  6
CONTINUOUS
 10
4.825480
 20
4.373160
  0
SEQEND
  8
0
  0
SOLID
  8
0
 62
    15
 10
4.852760
 20
4.370080
 11
4.844400
 21
5.108840
 12
4.880480
 22
4.358200
 13
4.872120
 23
5.096960
  0
POLYLINE
  8
0
  6
CONTINUOUS
 66
     1
 40
0.000000
 41
0.000000
  0
VERTEX
  8
0
  6
CONTINUOUS
 10
4.852760
 20
4.370080
  0
VERTEX
  8
0
  6
CONTINUOUS
 10
4.844400
 20
5.108840
  0
VERTEX
  8
0
  6
CONTINUOUS
 10
4.872120
 20
5.096960
  0
VERTEX
  8
0
  6
CONTINUOUS
 10
4.880480
 20
4.358200
  0
VERTEX
  8
0
  6
CONTINUOUS
 10
4.852760
 20
4.370080
  0
SEQEND
  8
0
  0
SOLID
  8
0
 62
    15
 10
4.880480
 20
4.358200
 11
4.872120
 21
5.096960
 12
4.909080
 22
4.338400
 13
4.900720
 23
5.077160
  0
POLYLINE
  8
0
  6
CONTINUOUS
 66
     1
 40
0.000000
 41
0.000000
  0
VERTEX
  8
0
  6
CONTINUOUS
 10
4.880480
 20
4.358200
  0
VERTEX
  8
0
  6
CONTINUOUS
 10
4.872120
 20
5.096960
  0
VERTEX
  8
0
  6
CONTINUOUS
 10
4.900720
 20
5.077160
  0
VERTEX
  8
0
  6
CONTINUOUS
 10
4.909080
 20
4.338400
  0
VERTEX
  8
0
  6
CONTINUOUS
 10
4.880480
 20
4.358200
  0
SEQEND
  8
0
  0
SOLID
  8
0
 62
    15
 10
2.299000
 20
4.638480
 11
2.291080
 21
5.377240
 12
3.169760
 22
4.638480
 13
3.161840
 23
5.377240
  0
POLYLINE
  8
0
  6
CONTINUOUS
 66
     1
 40
0.000000
 41
0.000000
  0
VERTEX
  8
0
  6
CONTINUOUS
 10
2.299000
 20
4.638480
  0
VERTEX
  8
0
  6
CONTINUOUS
 10
2.291080
 20
5.377240
  0
VERTEX
  8
0
  6
CONTINUOUS
 10
3.161840
 20
5.377240
  0
VERTEX
  8
0
  6
CONTINUOUS
 10
3.169760
 20
4.638480
  0
VERTEX
  8
0
  6
CONTINUOUS
 10
2.299000
 20
4.638480
  0
SEQEND
  8
0
  0
SOLID
  8
0
 62
    15
 10
4.938560
 20
4.311120
 11
4.930640
 21
5.049880
 12
4.967160
 22
4.283400
 13
4.958800
 23
5.022160
  0
POLYLINE
  8
0
  6
CONTINUOUS
 66
     1
 40
0.000000
 41
0.000000
  0
VERTEX
  8
0
  6
CONTINUOUS
 10
4.938560
 20
4.311120
  0
VERTEX
  8
0
  6
CONTINUOUS
 10
4.930640
 20
5.049880
  0
VERTEX
  8
0
  6
CONTINUOUS
 10
4.958800
 20
5.022160
  0
VERTEX
  8
0
  6
CONTINUOUS
 10
4.967160
 20
4.283400
  0
VERTEX
  8
0
  6
CONTINUOUS
 10
4.938560
 20
4.311120
  0
SEQEND
  8
0
  0
SOLID
  8
0
 62
    15
 10
4.967160
 20
4.283400
 11
4.958800
 21
5.022160
 12
4.991800
 22
4.260960
 13
4.983880
 23
4.999720
  0
POLYLINE
  8
0
  6
CONTINUOUS
 66
     1
 40
0.000000
 41
0.000000
  0
VERTEX
  8
0
  6
CONTINUOUS
 10
4.967160
 20
4.283400
  0
VERTEX
  8
0
  6
CONTINUOUS
 10
4.958800
 20
5.022160
  0
VERTEX
  8
0
  6
CONTINUOUS
 10
4.983880
 20
4.999720
  0
VERTEX
  8
0
  6
CONTINUOUS
 10
4.991800
 20
4.260960
  0
VERTEX
  8
0
  6
CONTINUOUS
 10
4.967160
 20
4.283400
  0
SEQEND
  8
0
  0
SOLID
  8
0
 62
    15
 10
4.991800
 20
4.260960
 11
4.983880
 21
4.999720
 12
5.013800
 22
4.242920
 13
5.005880
 23
4.981680
  0
POLYLINE
  8
0
  6
CONTINUOUS
 66
     1
 40
0.000000
 41
0.000000
  0
VERTEX
  8
0
  6
CONTINUOUS
 10
4.991800
 20
4.260960
  0
VERTEX
  8
0
  6
CONTINUOUS
 10
4.983880
 20
4.999720
  0
VERTEX
  8
0
  6
CONTINUOUS
 10
5.005880
 20
4.981680
  0
VERTEX
  8
0
  6
CONTINUOUS
 10
5.013800
 20
4.242920
  0
VERTEX
  8
0
  6
CONTINUOUS
 10
4.991800
 20
4.260960
  0
SEQEND
  8
0
  0
SOLID
  8
0
 62
    15
 10
5.013800
 20
4.242920
 11
5.005880
 21
4.981680
 12
5.034040
 22
4.228840
 13
5.026120
 23
4.967600
  0
POLYLINE
  8
0
  6
CONTINUOUS
 66
     1
 40
0.000000
 41
0.000000
  0
VERTEX
  8
0
  6
CONTINUOUS
 10
5.013800
 20
4.242920
  0
VERTEX
  8
0
  6
CONTINUOUS
 10
5.005880
 20
4.981680
  0
VERTEX
  8
0
  6
CONTINUOUS
 10
5.026120
 20
4.967600
  0
VERTEX
  8
0
  6
CONTINUOUS
 10
5.034040
 20
4.228840
  0
VERTEX
  8
0
  6
CONTINUOUS
 10
5.013800
 20
4.242920
  0
SEQEND
  8
0
  0
SOLID
  8
0
 62
    15
 10
5.034040
 20
4.228840
 11
5.026120
 21
4.967600
 12
5.073200
 22
4.211240
 13
5.064840
 23
4.950000
  0
POLYLINE
  8
0
  6
CONTINUOUS
 66
     1
 40
0.000000
 41
0.000000
  0
VERTEX
  8
0
  6
CONTINUOUS
 10
5.034040
 20
4.228840
  0
VERTEX
  8
0
  6
CONTINUOUS
 10
5.026120
 20
4.967600
  0
VERTEX
  8
0
  6
CONTINUOUS
 10
5.064840
 20
4.950000
  0
VERTEX
  8
0
  6
CONTINUOUS
 10
5.073200
 20
4.211240
  0
VERTEX
  8
0
  6
CONTINUOUS
 10
5.034040
 20
4.228840
  0
SEQEND
  8
0
  0
SOLID
  8
0
 62
    15
 10
5.073200
 20
4.211240
 11
5.064840
 21
4.950000
 12
5.115880
 22
4.202880
 13
5.107520
 23
4.941640
  0
POLYLINE
  8
0
  6
CONTINUOUS
 66
     1
 40
0.000000
 41
0.000000
  0
VERTEX
  8
0
  6
CONTINUOUS
 10
5.073200
 20
4.211240
  0
VERTEX
  8
0
  6
CONTINUOUS
 10
5.064840
 20
4.950000
  0
VERTEX
  8
0
  6
CONTINUOUS
 10
5.107520
 20
4.941640
  0
VERTEX
  8
0
  6
CONTINUOUS
 10
5.115880
 20
4.202880
  0
VERTEX
  8
0
  6
CONTINUOUS
 10
5.073200
 20
4.211240
  0
SEQEND
  8
0
  0
SOLID
  8
0
 62
    15
 10
5.115880
 20
4.202880
 11
5.107520
 21
4.941640
 12
5.117640
 22
4.202880
 13
5.109720
 23
4.941640
  0
POLYLINE
  8
0
  6
CONTINUOUS
 66
     1
 40
0.000000
 41
0.000000
  0
VERTEX
  8
0
  6
CONTINUOUS
 10
5.115880
 20
4.202880
  0
VERTEX
  8
0
  6
CONTINUOUS
 10
5.107520
 20
4.941640
  0
VERTEX
  8
0
  6
CONTINUOUS
 10
5.109720
 20
4.941640
  0
VERTEX
  8
0
  6
CONTINUOUS
 10
5.117640
 20
4.202880
  0
VERTEX
  8
0
  6
CONTINUOUS
 10
5.115880
 20
4.202880
  0
SEQEND
  8
0
  0
SOLID
  8
0
 62
    15
 10
5.117640
 20
4.202880
 11
5.109720
 21
4.941640
 12
5.127320
 22
4.225760
 13
5.119400
 23
4.964960
  0
POLYLINE
  8
0
  6
CONTINUOUS
 66
     1
 40
0.000000
 41
0.000000
  0
VERTEX
  8
0
  6
CONTINUOUS
 10
5.117640
 20
4.202880
  0
VERTEX
  8
0
  6
CONTINUOUS
 10
5.109720
 20
4.941640
  0
VERTEX
  8
0
  6
CONTINUOUS
 10
5.119400
 20
4.964960
  0
VERTEX
  8
0
  6
CONTINUOUS
 10
5.127320
 20
4.225760
  0
VERTEX
  8
0
  6
CONTINUOUS
 10
5.117640
 20
4.202880
  0
SEQEND
  8
0
  0
SOLID
  8
0
 62
    15
 10
5.127320
 20
4.225760
 11
5.119400
 21
4.964960
 12
5.138760
 22
4.245120
 13
5.130400
 23
4.983880
  0
POLYLINE
  8
0
  6
CONTINUOUS
 66
     1
 40
0.000000
 41
0.000000
  0
VERTEX
  8
0
  6
CONTINUOUS
 10
5.127320
 20
4.225760
  0
VERTEX
  8
0
  6
CONTINUOUS
 10
5.119400
 20
4.964960
  0
VERTEX
  8
0
  6
CONTINUOUS
 10
5.130400
 20
4.983880
  0
VERTEX
  8
0
  6
CONTINUOUS
 10
5.138760
 20
4.245120
  0
VERTEX
  8
0
  6
CONTINUOUS
 10
5.127320
 20
4.225760
  0
SEQEND
  8
0
  0
SOLID
  8
0
 62
    15
 10
5.138760
 20
4.245120
 11
5.130400
 21
4.983880
 12
5.165160
 22
4.272840
 13
5.157240
 23
5.011600
  0
POLYLINE
  8
0
  6
CONTINUOUS
 66
     1
 40
0.000000
 41
0.000000
  0
VERTEX
  8
0
  6
CONTINUOUS
 10
5.138760
 20
4.245120
  0
VERTEX
  8
0
  6
CONTINUOUS
 10
5.130400
 20
4.983880
  0
VERTEX
  8
0
  6
CONTINUOUS
 10
5.157240
 20
5.011600
  0
VERTEX
  8
0
  6
CONTINUOUS
 10
5.165160
 20
4.272840
  0
VERTEX
  8
0
  6
CONTINUOUS
 10
5.138760
 20
4.245120
  0
SEQEND
  8
0
  0
SOLID
  8
0
 62
    15
 10
5.165160
 20
4.272840
 11
5.157240
 21
5.011600
 12
5.195080
 22
4.287360
 13
5.186720
 23
5.026120
  0
POLYLINE
  8
0
  6
CONTINUOUS
 66
     1
 40
0.000000
 41
0.000000
  0
VERTEX
  8
0
  6
CONTINUOUS
 10
5.165160
 20
4.272840
  0
VERTEX
  8
0
  6
CONTINUOUS
 10
5.157240
 20
5.011600
  0
VERTEX
  8
0
  6
CONTINUOUS
 10
5.186720
 20
5.026120
  0
VERTEX
  8
0
  6
CONTINUOUS
 10
5.195080
 20
4.287360
  0
VERTEX
  8
0
  6
CONTINUOUS
 10
5.165160
 20
4.272840
  0
SEQEND
  8
0
  0
SOLID
  8
0
 62
    15
 10
5.195080
 20
4.287360
 11
5.186720
 21
5.026120
 12
5.225000
 22
4.290000
 13
5.217080
 23
5.028760
  0
POLYLINE
  8
0
  6
CONTINUOUS
 66
     1
 40
0.000000
 41
0.000000
  0
VERTEX
  8
0
  6
CONTINUOUS
 10
5.195080
 20
4.287360
  0
VERTEX
  8
0
  6
CONTINUOUS
 10
5.186720
 20
5.026120
  0
VERTEX
  8
0
  6
CONTINUOUS
 10
5.217080
 20
5.028760
  0
VERTEX
  8
0
  6
CONTINUOUS
 10
5.225000
 20
4.290000
  0
VERTEX
  8
0
  6
CONTINUOUS
 10
5.195080
 20
4.287360
  0
SEQEND
  8
0
  0
SOLID
  8
0
 62
    15
 10
5.225000
 20
4.290000
 11
5.217080
 21
5.028760
 12
5.253600
 22
4.281640
 13
5.245240
 23
5.020400
  0
POLYLINE
  8
0
  6
CONTINUOUS
 66
     1
 40
0.000000
 41
0.000000
  0
VERTEX
  8
0
  6
CONTINUOUS
 10
5.225000
 20
4.290000
  0
VERTEX
  8
0
  6
CONTINUOUS
 10
5.217080
 20
5.028760
  0
VERTEX
  8
0
  6
CONTINUOUS
 10
5.245240
 20
5.020400
  0
VERTEX
  8
0
  6
CONTINUOUS
 10
5.253600
 20
4.281640
  0
VERTEX
  8
0
  6
CONTINUOUS
 10
5.225000
 20
4.290000
  0
SEQEND
  8
0
  0
SOLID
  8
0
 62
    15
 10
5.253600
 20
4.281640
 11
5.245240
 21
5.020400
 12
5.277360
 22
4.264040
 13
5.269000
 23
5.002800
  0
POLYLINE
  8
0
  6
CONTINUOUS
 66
     1
 40
0.000000
 41
0.000000
  0
VERTEX
  8
0
  6
CONTINUOUS
 10
5.253600
 20
4.281640
  0
VERTEX
  8
0
  6
CONTINUOUS
 10
5.245240
 20
5.020400
  0
VERTEX
  8
0
  6
CONTINUOUS
 10
5.269000
 20
5.002800
  0
VERTEX
  8
0
  6
CONTINUOUS
 10
5.277360
 20
4.264040
  0
VERTEX
  8
0
  6
CONTINUOUS
 10
5.253600
 20
4.281640
  0
SEQEND
  8
0
  0
SOLID
  8
0
 62
    15
 10
5.277360
 20
4.264040
 11
5.269000
 21
5.002800
 12
5.294080
 22
4.238080
 13
5.285720
 23
4.976840
  0
POLYLINE
  8
0
  6
CONTINUOUS
 66
     1
 40
0.000000
 41
0.000000
  0
VERTEX
  8
0
  6
CONTINUOUS
 10
5.277360
 20
4.264040
  0
VERTEX
  8
0
  6
CONTINUOUS
 10
5.269000
 20
5.002800
  0
VERTEX
  8
0
  6
CONTINUOUS
 10
5.285720
 20
4.976840
  0
VERTEX
  8
0
  6
CONTINUOUS
 10
5.294080
 20
4.238080
  0
VERTEX
  8
0
  6
CONTINUOUS
 10
5.277360
 20
4.264040
  0
SEQEND
  8
0
  0
SOLID
  8
0
 62
    15
 10
6.088720
 20
4.082320
 11
6.080360
 21
4.821080
 12
6.161760
 22
4.081880
 13
6.153400
 23
4.821080
  0
POLYLINE
  8
0
  6
CONTINUOUS
 66
     1
 40
0.000000
 41
0.000000
  0
VERTEX
  8
0
  6
CONTINUOUS
 10
6.088720
 20
4.082320
  0
VERTEX
  8
0
  6
CONTINUOUS
 10
6.080360
 20
4.821080
  0
VERTEX
  8
0
  6
CONTINUOUS
 10
6.153400
 20
4.821080
  0
VERTEX
  8
0
  6
CONTINUOUS
 10
6.161760
 20
4.081880
  0
VERTEX
  8
0
  6
CONTINUOUS
 10
6.088720
 20
4.082320
  0
SEQEND
  8
0
  0
SOLID
  8
0
 62
    15
 10
5.301120
 20
4.202880
 11
5.293200
 21
4.941640
 12
6.088720
 22
4.202880
 13
6.080360
 23
4.941640
  0
POLYLINE
  8
0
  6
CONTINUOUS
 66
     1
 40
0.000000
 41
0.000000
  0
VERTEX
  8
0
  6
CONTINUOUS
 10
5.301120
 20
4.202880
  0
VERTEX
  8
0
  6
CONTINUOUS
 10
5.293200
 20
4.941640
  0
VERTEX
  8
0
  6
CONTINUOUS
 10
6.080360
 20
4.941640
  0
VERTEX
  8
0
  6
CONTINUOUS
 10
6.088720
 20
4.202880
  0
VERTEX
  8
0
  6
CONTINUOUS
 10
5.301120
 20
4.202880
  0
SEQEND
  8
0
  0
SOLID
  8
0
 62
    15
 10
5.301120
 20
4.205080
 11
5.293200
 21
4.943840
 12
5.301120
 22
4.202880
 13
5.293200
 23
4.941640
  0
POLYLINE
  8
0
  6
CONTINUOUS
 66
     1
 40
0.000000
 41
0.000000
  0
VERTEX
  8
0
  6
CONTINUOUS
 10
5.301120
 20
4.205080
  0
VERTEX
  8
0
  6
CONTINUOUS
 10
5.293200
 20
4.943840
  0
VERTEX
  8
0
  6
CONTINUOUS
 10
5.293200
 20
4.941640
  0
VERTEX
  8
0
  6
CONTINUOUS
 10
5.301120
 20
4.202880
  0
VERTEX
  8
0
  6
CONTINUOUS
 10
5.301120
 20
4.205080
  0
SEQEND
  8
0
  0
SOLID
  8
0
 62
    15
 10
5.294080
 20
4.238080
 11
5.285720
 21
4.976840
 12
5.301120
 22
4.205080
 13
5.293200
 23
4.943840
  0
POLYLINE
  8
0
  6
CONTINUOUS
 66
     1
 40
0.000000
 41
0.000000
  0
VERTEX
  8
0
  6
CONTINUOUS
 10
5.294080
 20
4.238080
  0
VERTEX
  8
0
  6
CONTINUOUS
 10
5.285720
 20
4.976840
  0
VERTEX
  8
0
  6
CONTINUOUS
 10
5.293200
 20
4.943840
  0
VERTEX
  8
0
  6
CONTINUOUS
 10
5.301120
 20
4.205080
  0
VERTEX
  8
0
  6
CONTINUOUS
 10
5.294080
 20
4.238080
  0
SEQEND
  8
0
  0
SOLID
  8
0
 62
    15
 10
6.161760
 20
4.081880
 11
6.153400
 21
4.821080
 12
6.180240
 22
4.128520
 13
6.171880
 23
4.867280
  0
POLYLINE
  8
0
  6
CONTINUOUS
 66
     1
 40
0.000000
 41
0.000000
  0
VERTEX
  8
0
  6
CONTINUOUS
 10
6.161760
 20
4.081880
  0
VERTEX
  8
0
  6
CONTINUOUS
 10
6.153400
 20
4.821080
  0
VERTEX
  8
0
  6
CONTINUOUS
 10
6.171880
 20
4.867280
  0
VERTEX
  8
0
  6
CONTINUOUS
 10
6.180240
 20
4.128520
  0
VERTEX
  8
0
  6
CONTINUOUS
 10
6.161760
 20
4.081880
  0
SEQEND
  8
0
  0
SOLID
  8
0
 62
    15
 10
6.180240
 20
4.128520
 11
6.171880
 21
4.867280
 12
6.201800
 22
4.159760
 13
6.193440
 23
4.898520
  0
POLYLINE
  8
0
  6
CONTINUOUS
 66
     1
 40
0.000000
 41
0.000000
  0
VERTEX
  8
0
  6
CONTINUOUS
 10
6.180240
 20
4.128520
  0
VERTEX
  8
0
  6
CONTINUOUS
 10
6.171880
 20
4.867280
  0
VERTEX
  8
0
  6
CONTINUOUS
 10
6.193440
 20
4.898520
  0
VERTEX
  8
0
  6
CONTINUOUS
 10
6.201800
 20
4.159760
  0
VERTEX
  8
0
  6
CONTINUOUS
 10
6.180240
 20
4.128520
  0
SEQEND
  8
0
  0
SOLID
  8
0
 62
    15
 10
6.201800
 20
4.159760
 11
6.193440
 21
4.898520
 12
6.225560
 22
4.177360
 13
6.217200
 23
4.916120
  0
POLYLINE
  8
0
  6
CONTINUOUS
 66
     1
 40
0.000000
 41
0.000000
  0
VERTEX
  8
0
  6
CONTINUOUS
 10
6.201800
 20
4.159760
  0
VERTEX
  8
0
  6
CONTINUOUS
 10
6.193440
 20
4.898520
  0
VERTEX
  8
0
  6
CONTINUOUS
 10
6.217200
 20
4.916120
  0
VERTEX
  8
0
  6
CONTINUOUS
 10
6.225560
 20
4.177360
  0
VERTEX
  8
0
  6
CONTINUOUS
 10
6.201800
 20
4.159760
  0
SEQEND
  8
0
  0
SOLID
  8
0
 62
    15
 10
6.225560
 20
4.177360
 11
6.217200
 21
4.916120
 12
6.251520
 22
4.183080
 13
6.243160
 23
4.921840
  0
POLYLINE
  8
0
  6
CONTINUOUS
 66
     1
 40
0.000000
 41
0.000000
  0
VERTEX
  8
0
  6
CONTINUOUS
 10
6.225560
 20
4.177360
  0
VERTEX
  8
0
  6
CONTINUOUS
 10
6.217200
 20
4.916120
  0
VERTEX
  8
0
  6
CONTINUOUS
 10
6.243160
 20
4.921840
  0
VERTEX
  8
0
  6
CONTINUOUS
 10
6.251520
 20
4.183080
  0
VERTEX
  8
0
  6
CONTINUOUS
 10
6.225560
 20
4.177360
  0
SEQEND
  8
0
  0
SOLID
  8
0
 62
    15
 10
6.251520
 20
4.183080
 11
6.243160
 21
4.921840
 12
6.278800
 22
4.178240
 13
6.270880
 23
4.917000
  0
POLYLINE
  8
0
  6
CONTINUOUS
 66
     1
 40
0.000000
 41
0.000000
  0
VERTEX
  8
0
  6
CONTINUOUS
 10
6.251520
 20
4.183080
  0
VERTEX
  8
0
  6
CONTINUOUS
 10
6.243160
 20
4.921840
  0
VERTEX
  8
0
  6
CONTINUOUS
 10
6.270880
 20
4.917000
  0
VERTEX
  8
0
  6
CONTINUOUS
 10
6.278800
 20
4.178240
  0
VERTEX
  8
0
  6
CONTINUOUS
 10
6.251520
 20
4.183080
  0
SEQEND
  8
0
  0
SOLID
  8
0
 62
    15
 10
6.278800
 20
4.178240
 11
6.270880
 21
4.917000
 12
6.307840
 22
4.165040
 13
6.299480
 23
4.903800
  0
POLYLINE
  8
0
  6
CONTINUOUS
 66
     1
 40
0.000000
 41
0.000000
  0
VERTEX
  8
0
  6
CONTINUOUS
 10
6.278800
 20
4.178240
  0
VERTEX
  8
0
  6
CONTINUOUS
 10
6.270880
 20
4.917000
  0
VERTEX
  8
0
  6
CONTINUOUS
 10
6.299480
 20
4.903800
  0
VERTEX
  8
0
  6
CONTINUOUS
 10
6.307840
 20
4.165040
  0
VERTEX
  8
0
  6
CONTINUOUS
 10
6.278800
 20
4.178240
  0
SEQEND
  8
0
  0
SOLID
  8
0
 62
    15
 10
6.307840
 20
4.165040
 11
6.299480
 21
4.903800
 12
6.337320
 22
4.144800
 13
6.329400
 23
4.883560
  0
POLYLINE
  8
0
  6
CONTINUOUS
 66
     1
 40
0.000000
 41
0.000000
  0
VERTEX
  8
0
  6
CONTINUOUS
 10
6.307840
 20
4.165040
  0
VERTEX
  8
0
  6
CONTINUOUS
 10
6.299480
 20
4.903800
  0
VERTEX
  8
0
  6
CONTINUOUS
 10
6.329400
 20
4.883560
  0
VERTEX
  8
0
  6
CONTINUOUS
 10
6.337320
 20
4.144800
  0
VERTEX
  8
0
  6
CONTINUOUS
 10
6.307840
 20
4.165040
  0
SEQEND
  8
0
  0
SOLID
  8
0
 62
    15
 10
6.337320
 20
4.144800
 11
6.329400
 21
4.883560
 12
6.367680
 22
4.119720
 13
6.359760
 23
4.858480
  0
POLYLINE
  8
0
  6
CONTINUOUS
 66
     1
 40
0.000000
 41
0.000000
  0
VERTEX
  8
0
  6
CONTINUOUS
 10
6.337320
 20
4.144800
  0
VERTEX
  8
0
  6
CONTINUOUS
 10
6.329400
 20
4.883560
  0
VERTEX
  8
0
  6
CONTINUOUS
 10
6.359760
 20
4.858480
  0
VERTEX
  8
0
  6
CONTINUOUS
 10
6.367680
 20
4.119720
  0
VERTEX
  8
0
  6
CONTINUOUS
 10
6.337320
 20
4.144800
  0
SEQEND
  8
0
  0
SOLID
  8
0
 62
    15
 10
6.367680
 20
4.119720
 11
6.359760
 21
4.858480
 12
6.414760
 22
4.075720
 13
6.406840
 23
4.814480
  0
POLYLINE
  8
0
  6
CONTINUOUS
 66
     1
 40
0.000000
 41
0.000000
  0
VERTEX
  8
0
  6
CONTINUOUS
 10
6.367680
 20
4.119720
  0
VERTEX
  8
0
  6
CONTINUOUS
 10
6.359760
 20
4.858480
  0
VERTEX
  8
0
  6
CONTINUOUS
 10
6.406840
 20
4.814480
  0
VERTEX
  8
0
  6
CONTINUOUS
 10
6.414760
 20
4.075720
  0
VERTEX
  8
0
  6
CONTINUOUS
 10
6.367680
 20
4.119720
  0
SEQEND
  8
0
  0
SOLID
  8
0
 62
    15
 10
6.414760
 20
4.075720
 11
6.406840
 21
4.814480
 12
6.458320
 22
4.037440
 13
6.450400
 23
4.776200
  0
POLYLINE
  8
0
  6
CONTINUOUS
 66
     1
 40
0.000000
 41
0.000000
  0
VERTEX
  8
0
  6
CONTINUOUS
 10
6.414760
 20
4.075720
  0
VERTEX
  8
0
  6
CONTINUOUS
 10
6.406840
 20
4.814480
  0
VERTEX
  8
0
  6
CONTINUOUS
 10
6.450400
 20
4.776200
  0
VERTEX
  8
0
  6
CONTINUOUS
 10
6.458320
 20
4.037440
  0
VERTEX
  8
0
  6
CONTINUOUS
 10
6.414760
 20
4.075720
  0
SEQEND
  8
0
  0
SOLID
  8
0
 62
    15
 10
6.458320
 20
4.037440
 11
6.450400
 21
4.776200
 12
6.506720
 22
4.011040
 13
6.498360
 23
4.749800
  0
POLYLINE
  8
0
  6
CONTINUOUS
 66
     1
 40
0.000000
 41
0.000000
  0
VERTEX
  8
0
  6
CONTINUOUS
 10
6.458320
 20
4.037440
  0
VERTEX
  8
0
  6
CONTINUOUS
 10
6.450400
 20
4.776200
  0
VERTEX
  8
0
  6
CONTINUOUS
 10
6.498360
 20
4.749800
  0
VERTEX
  8
0
  6
CONTINUOUS
 10
6.506720
 20
4.011040
  0
VERTEX
  8
0
  6
CONTINUOUS
 10
6.458320
 20
4.037440
  0
SEQEND
  8
0
  0
SOLID
  8
0
 62
    15
 10
6.506720
 20
4.011040
 11
6.498360
 21
4.749800
 12
6.534880
 22
4.003560
 13
6.526960
 23
4.742320
  0
POLYLINE
  8
0
  6
CONTINUOUS
 66
     1
 40
0.000000
 41
0.000000
  0
VERTEX
  8
0
  6
CONTINUOUS
 10
6.506720
 20
4.011040
  0
VERTEX
  8
0
  6
CONTINUOUS
 10
6.498360
 20
4.749800
  0
VERTEX
  8
0
  6
CONTINUOUS
 10
6.526960
 20
4.742320
  0
VERTEX
  8
0
  6
CONTINUOUS
 10
6.534880
 20
4.003560
  0
VERTEX
  8
0
  6
CONTINUOUS
 10
6.506720
 20
4.011040
  0
SEQEND
  8
0
  0
SOLID
  8
0
 62
    15
 10
6.534880
 20
4.003560
 11
6.526960
 21
4.742320
 12
6.567880
 22
4.000920
 13
6.559520
 23
4.739680
  0
POLYLINE
  8
0
  6
CONTINUOUS
 66
     1
 40
0.000000
 41
0.000000
  0
VERTEX
  8
0
  6
CONTINUOUS
 10
6.534880
 20
4.003560
  0
VERTEX
  8
0
  6
CONTINUOUS
 10
6.526960
 20
4.742320
  0
VERTEX
  8
0
  6
CONTINUOUS
 10
6.559520
 20
4.739680
  0
VERTEX
  8
0
  6
CONTINUOUS
 10
6.567880
 20
4.000920
  0
VERTEX
  8
0
  6
CONTINUOUS
 10
6.534880
 20
4.003560
  0
SEQEND
  8
0
  0
SOLID
  8
0
 62
    15
 10
6.567880
 20
4.000920
 11
6.559520
 21
4.739680
 12
6.603080
 22
4.003120
 13
6.595160
 23
4.741880
  0
POLYLINE
  8
0
  6
CONTINUOUS
 66
     1
 40
0.000000
 41
0.000000
  0
VERTEX
  8
0
  6
CONTINUOUS
 10
6.567880
 20
4.000920
  0
VERTEX
  8
0
  6
CONTINUOUS
 10
6.559520
 20
4.739680
  0
VERTEX
  8
0
  6
CONTINUOUS
 10
6.595160
 20
4.741880
  0
VERTEX
  8
0
  6
CONTINUOUS
 10
6.603080
 20
4.003120
  0
VERTEX
  8
0
  6
CONTINUOUS
 10
6.567880
 20
4.000920
  0
SEQEND
  8
0
  0
SOLID
  8
0
 62
    15
 10
6.603080
 20
4.003120
 11
6.595160
 21
4.741880
 12
6.605280
 22
4.023800
 13
6.596920
 23
4.762560
  0
POLYLINE
  8
0
  6
CONTINUOUS
 66
     1
 40
0.000000
 41
0.000000
  0
VERTEX
  8
0
  6
CONTINUOUS
 10
6.603080
 20
4.003120
  0
VERTEX
  8
0
  6
CONTINUOUS
 10
6.595160
 20
4.741880
  0
VERTEX
  8
0
  6
CONTINUOUS
 10
6.596920
 20
4.762560
  0
VERTEX
  8
0
  6
CONTINUOUS
 10
6.605280
 20
4.023800
  0
VERTEX
  8
0
  6
CONTINUOUS
 10
6.603080
 20
4.003120
  0
SEQEND
  8
0
  0
SOLID
  8
0
 62
    15
 10
6.605280
 20
4.023800
 11
6.596920
 21
4.762560
 12
6.610560
 22
4.041840
 13
6.602200
 23
4.780600
  0
POLYLINE
  8
0
  6
CONTINUOUS
 66
     1
 40
0.000000
 41
0.000000
  0
VERTEX
  8
0
  6
CONTINUOUS
 10
6.605280
 20
4.023800
  0
VERTEX
  8
0
  6
CONTINUOUS
 10
6.596920
 20
4.762560
  0
VERTEX
  8
0
  6
CONTINUOUS
 10
6.602200
 20
4.780600
  0
VERTEX
  8
0
  6
CONTINUOUS
 10
6.610560
 20
4.041840
  0
VERTEX
  8
0
  6
CONTINUOUS
 10
6.605280
 20
4.023800
  0
SEQEND
  8
0
  0
SOLID
  8
0
 62
    15
 10
6.610560
 20
4.041840
 11
6.602200
 21
4.780600
 12
6.629920
 22
4.070880
 13
6.621560
 23
4.809640
  0
POLYLINE
  8
0
  6
CONTINUOUS
 66
     1
 40
0.000000
 41
0.000000
  0
VERTEX
  8
0
  6
CONTINUOUS
 10
6.610560
 20
4.041840
  0
VERTEX
  8
0
  6
CONTINUOUS
 10
6.602200
 20
4.780600
  0
VERTEX
  8
0
  6
CONTINUOUS
 10
6.621560
 20
4.809640
  0
VERTEX
  8
0
  6
CONTINUOUS
 10
6.629920
 20
4.070880
  0
VERTEX
  8
0
  6
CONTINUOUS
 10
6.610560
 20
4.041840
  0
SEQEND
  8
0
  0
SOLID
  8
0
 62
    15
 10
6.629920
 20
4.070880
 11
6.621560
 21
4.809640
 12
6.657200
 22
4.089800
 13
6.649280
 23
4.828560
  0
POLYLINE
  8
0
  6
CONTINUOUS
 66
     1
 40
0.000000
 41
0.000000
  0
VERTEX
  8
0
  6
CONTINUOUS
 10
6.629920
 20
4.070880
  0
VERTEX
  8
0
  6
CONTINUOUS
 10
6.621560
 20
4.809640
  0
VERTEX
  8
0
  6
CONTINUOUS
 10
6.649280
 20
4.828560
  0
VERTEX
  8
0
  6
CONTINUOUS
 10
6.657200
 20
4.089800
  0
VERTEX
  8
0
  6
CONTINUOUS
 10
6.629920
 20
4.070880
  0
SEQEND
  8
0
  0
SOLID
  8
0
 62
    15
 10
6.657200
 20
4.089800
 11
6.649280
 21
4.828560
 12
6.688880
 22
4.098160
 13
6.680520
 23
4.836920
  0
POLYLINE
  8
0
  6
CONTINUOUS
 66
     1
 40
0.000000
 41
0.000000
  0
VERTEX
  8
0
  6
CONTINUOUS
 10
6.657200
 20
4.089800
  0
VERTEX
  8
0
  6
CONTINUOUS
 10
6.649280
 20
4.828560
  0
VERTEX
  8
0
  6
CONTINUOUS
 10
6.680520
 20
4.836920
  0
VERTEX
  8
0
  6
CONTINUOUS
 10
6.688880
 20
4.098160
  0
VERTEX
  8
0
  6
CONTINUOUS
 10
6.657200
 20
4.089800
  0
SEQEND
  8
0
  0
SOLID
  8
0
 62
    15
 10
6.688880
 20
4.098160
 11
6.680520
 21
4.836920
 12
6.720120
 22
4.096400
 13
6.711760
 23
4.835600
  0
POLYLINE
  8
0
  6
CONTINUOUS
 66
     1
 40
0.000000
 41
0.000000
  0
VERTEX
  8
0
  6
CONTINUOUS
 10
6.688880
 20
4.098160
  0
VERTEX
  8
0
  6
CONTINUOUS
 10
6.680520
 20
4.836920
  0
VERTEX
  8
0
  6
CONTINUOUS
 10
6.711760
 20
4.835600
  0
VERTEX
  8
0
  6
CONTINUOUS
 10
6.720120
 20
4.096400
  0
VERTEX
  8
0
  6
CONTINUOUS
 10
6.688880
 20
4.098160
  0
SEQEND
  8
0
  0
SOLID
  8
0
 62
    15
 10
6.720120
 20
4.096400
 11
6.711760
 21
4.835600
 12
6.747400
 22
4.084520
 13
6.739040
 23
4.823280
  0
POLYLINE
  8
0
  6
CONTINUOUS
 66
     1
 40
0.000000
 41
0.000000
  0
VERTEX
  8
0
  6
CONTINUOUS
 10
6.720120
 20
4.096400
  0
VERTEX
  8
0
  6
CONTINUOUS
 10
6.711760
 20
4.835600
  0
VERTEX
  8
0
  6
CONTINUOUS
 10
6.739040
 20
4.823280
  0
VERTEX
  8
0
  6
CONTINUOUS
 10
6.747400
 20
4.084520
  0
VERTEX
  8
0
  6
CONTINUOUS
 10
6.720120
 20
4.096400
  0
SEQEND
  8
0
  0
SOLID
  8
0
 62
    15
 10
6.766760
 20
4.061640
 11
6.758400
 21
4.800400
 12
6.772040
 22
4.046240
 13
6.764120
 23
4.785000
  0
POLYLINE
  8
0
  6
CONTINUOUS
 66
     1
 40
0.000000
 41
0.000000
  0
VERTEX
  8
0
  6
CONTINUOUS
 10
6.766760
 20
4.061640
  0
VERTEX
  8
0
  6
CONTINUOUS
 10
6.758400
 20
4.800400
  0
VERTEX
  8
0
  6
CONTINUOUS
 10
6.764120
 20
4.785000
  0
VERTEX
  8
0
  6
CONTINUOUS
 10
6.772040
 20
4.046240
  0
VERTEX
  8
0
  6
CONTINUOUS
 10
6.766760
 20
4.061640
  0
SEQEND
  8
0
  0
SOLID
  8
0
 62
    15
 10
6.747400
 20
4.084520
 11
6.739040
 21
4.823280
 12
6.766760
 22
4.061640
 13
6.758400
 23
4.800400
  0
POLYLINE
  8
0
  6
CONTINUOUS
 66
     1
 40
0.000000
 41
0.000000
  0
VERTEX
  8
0
  6
CONTINUOUS
 10
6.747400
 20
4.084520
  0
VERTEX
  8
0
  6
CONTINUOUS
 10
6.739040
 20
4.823280
  0
VERTEX
  8
0
  6
CONTINUOUS
 10
6.758400
 20
4.800400
  0
VERTEX
  8
0
  6
CONTINUOUS
 10
6.766760
 20
4.061640
  0
VERTEX
  8
0
  6
CONTINUOUS
 10
6.747400
 20
4.084520
  0
SEQEND
  8
0
  0
SOLID
  8
0
 62
    15
 10
6.772040
 20
4.046240
 11
6.764120
 21
4.785000
 12
6.774240
 22
4.027760
 13
6.765880
 23
4.766960
  0
POLYLINE
  8
0
  6
CONTINUOUS
 66
     1
 40
0.000000
 41
0.000000
  0
VERTEX
  8
0
  6
CONTINUOUS
 10
6.772040
 20
4.046240
  0
VERTEX
  8
0
  6
CONTINUOUS
 10
6.764120
 20
4.785000
  0
VERTEX
  8
0
  6
CONTINUOUS
 10
6.765880
 20
4.766960
  0
VERTEX
  8
0
  6
CONTINUOUS
 10
6.774240
 20
4.027760
  0
VERTEX
  8
0
  6
CONTINUOUS
 10
6.772040
 20
4.046240
  0
SEQEND
  8
0
  0
SOLID
  8
0
 62
    15
 10
2.296800
 20
3.721520
 11
2.288880
 21
4.460720
 12
2.296800
 22
4.638480
 13
2.288880
 23
5.377240
  0
POLYLINE
  8
0
  6
CONTINUOUS
 66
     1
 40
0.000000
 41
0.000000
  0
VERTEX
  8
0
  6
CONTINUOUS
 10
2.296800
 20
3.721520
  0
VERTEX
  8
0
  6
CONTINUOUS
 10
2.288880
 20
4.460720
  0
VERTEX
  8
0
  6
CONTINUOUS
 10
2.288880
 20
5.377240
  0
VERTEX
  8
0
  6
CONTINUOUS
 10
2.296800
 20
4.638480
  0
VERTEX
  8
0
  6
CONTINUOUS
 10
2.296800
 20
3.721520
  0
SEQEND
  8
0
  0
SOLID
  8
0
 62
    15
 10
2.296800
 20
4.638480
 11
2.288880
 21
5.377240
 12
2.299000
 22
4.638480
 13
2.291080
 23
5.377240
  0
POLYLINE
  8
0
  6
CONTINUOUS
 66
     1
 40
0.000000
 41
0.000000
  0
VERTEX
  8
0
  6
CONTINUOUS
 10
2.296800
 20
4.638480
  0
VERTEX
  8
0
  6
CONTINUOUS
 10
2.288880
 20
5.377240
  0
VERTEX
  8
0
  6
CONTINUOUS
 10
2.291080
 20
5.377240
  0
VERTEX
  8
0
  6
CONTINUOUS
 10
2.299000
 20
4.638480
  0
VERTEX
  8
0
  6
CONTINUOUS
 10
2.296800
 20
4.638480
  0
SEQEND
  8
0
  0
POLYLINE
  8
0
  6
CONTINUOUS
 66
     1
 40
0.000000
 41
0.000000
  0
VERTEX
  8
0
  6
CONTINUOUS
 10
2.299000
 20
4.638480
  0
VERTEX
  8
0
  6
CONTINUOUS
 10
3.169760
 20
4.638480
  0
VERTEX
  8
0
  6
CONTINUOUS
 10
3.170640
 20
4.608120
  0
VERTEX
  8
0
  6
CONTINUOUS
 10
3.173280
 20
4.582160
  0
VERTEX
  8
0
  6
CONTINUOUS
 10
3.182960
 20
4.540800
  0
VERTEX
  8
0
  6
CONTINUOUS
 10
3.197920
 20
4.513520
  0
VERTEX
  8
0
  6
CONTINUOUS
 10
3.215960
 20
4.498120
  0
VERTEX
  8
0
  6
CONTINUOUS
 10
3.234880
 20
4.492400
  0
VERTEX
  8
0
  6
CONTINUOUS
 10
3.252920
 20
4.494600
  0
VERTEX
  8
0
  6
CONTINUOUS
 10
3.268760
 20
4.502960
  0
VERTEX
  8
0
  6
CONTINUOUS
 10
3.280200
 20
4.515280
  0
VERTEX
  8
0
  6
CONTINUOUS
 10
3.295600
 20
4.536840
  0
VERTEX
  8
0
  6
CONTINUOUS
 10
3.316720
 20
4.560160
  0
VERTEX
  8
0
  6
CONTINUOUS
 10
3.344000
 20
4.581720
  0
VERTEX
  8
0
  6
CONTINUOUS
 10
3.376120
 20
4.597560
  0
VERTEX
  8
0
  6
CONTINUOUS
 10
3.412200
 20
4.603280
  0
VERTEX
  8
0
  6
CONTINUOUS
 10
3.451800
 20
4.595360
  0
VERTEX
  8
0
  6
CONTINUOUS
 10
3.472480
 20
4.584800
  0
VERTEX
  8
0
  6
CONTINUOUS
 10
3.494040
 20
4.569400
  0
VERTEX
  8
0
  6
CONTINUOUS
 10
3.516040
 20
4.548720
  0
VERTEX
  8
0
  6
CONTINUOUS
 10
3.538480
 20
4.521880
  0
VERTEX
  8
0
  6
CONTINUOUS
 10
3.566640
 20
4.493280
  0
VERTEX
  8
0
  6
CONTINUOUS
 10
3.606680
 20
4.469080
  0
VERTEX
  8
0
  6
CONTINUOUS
 10
3.658600
 20
4.450160
  0
VERTEX
  8
0
  6
CONTINUOUS
 10
3.724160
 20
4.438280
  0
VERTEX
  8
0
  6
CONTINUOUS
 10
3.738240
 20
4.471280
  0
VERTEX
  8
0
  6
CONTINUOUS
 10
3.761120
 20
4.495920
  0
VERTEX
  8
0
  6
CONTINUOUS
 10
3.790160
 20
4.510880
  0
VERTEX
  8
0
  6
CONTINUOUS
 10
3.821400
 20
4.515280
  0
VERTEX
  8
0
  6
CONTINUOUS
 10
3.851760
 20
4.506920
  0
VERTEX
  8
0
  6
CONTINUOUS
 10
3.878600
 20
4.485360
  0
VERTEX
  8
0
  6
CONTINUOUS
 10
3.889160
 20
4.469080
  0
VERTEX
  8
0
  6
CONTINUOUS
 10
3.897960
 20
4.449280
  0
VERTEX
  8
0
  6
CONTINUOUS
 10
3.904120
 20
4.425080
  0
VERTEX
  8
0
  6
CONTINUOUS
 10
3.907640
 20
4.394720
  0
VERTEX
  8
0
  6
CONTINUOUS
 10
4.646840
 20
4.394720
  0
VERTEX
  8
0
  6
CONTINUOUS
 10
4.646840
 20
4.288240
  0
VERTEX
  8
0
  6
CONTINUOUS
 10
4.715920
 20
4.288240
  0
VERTEX
  8
0
  6
CONTINUOUS
 10
4.744080
 20
4.325640
  0
VERTEX
  8
0
  6
CONTINUOUS
 10
4.771800
 20
4.351600
  0
VERTEX
  8
0
  6
CONTINUOUS
 10
4.798640
 20
4.367440
  0
VERTEX
  8
0
  6
CONTINUOUS
 10
4.825480
 20
4.373160
  0
VERTEX
  8
0
  6
CONTINUOUS
 10
4.852760
 20
4.370080
  0
VERTEX
  8
0
  6
CONTINUOUS
 10
4.880480
 20
4.358200
  0
VERTEX
  8
0
  6
CONTINUOUS
 10
4.909080
 20
4.338400
  0
VERTEX
  8
0
  6
CONTINUOUS
 10
4.991800
 20
4.260960
  0
VERTEX
  8
0
  6
CONTINUOUS
 10
5.013800
 20
4.242920
  0
VERTEX
  8
0
  6
CONTINUOUS
 10
5.034040
 20
4.228840
  0
VERTEX
  8
0
  6
CONTINUOUS
 10
5.073200
 20
4.211240
  0
VERTEX
  8
0
  6
CONTINUOUS
 10
5.117640
 20
4.202880
  0
VERTEX
  8
0
  6
CONTINUOUS
 10
5.127320
 20
4.225760
  0
VERTEX
  8
0
  6
CONTINUOUS
 10
5.138760
 20
4.245120
  0
VERTEX
  8
0
  6
CONTINUOUS
 10
5.165160
 20
4.272840
  0
VERTEX
  8
0
  6
CONTINUOUS
 10
5.195080
 20
4.287360
  0
VERTEX
  8
0
  6
CONTINUOUS
 10
5.225000
 20
4.290000
  0
VERTEX
  8
0
  6
CONTINUOUS
 10
5.253600
 20
4.281640
  0
VERTEX
  8
0
  6
CONTINUOUS
 10
5.277360
 20
4.264040
  0
VERTEX
  8
0
  6
CONTINUOUS
 10
5.294080
 20
4.238080
  0
VERTEX
  8
0
  6
CONTINUOUS
 10
5.301120
 20
4.202880
  0
VERTEX
  8
0
  6
CONTINUOUS
 10
6.088720
 20
4.202880
  0
VERTEX
  8
0
  6
CONTINUOUS
 10
6.088720
 20
4.082320
  0
VERTEX
  8
0
  6
CONTINUOUS
 10
6.161760
 20
4.081880
  0
VERTEX
  8
0
  6
CONTINUOUS
 10
6.180240
 20
4.128520
  0
VERTEX
  8
0
  6
CONTINUOUS
 10
6.201800
 20
4.159760
  0
VERTEX
  8
0
  6
CONTINUOUS
 10
6.225560
 20
4.177360
  0
VERTEX
  8
0
  6
CONTINUOUS
 10
6.251520
 20
4.183080
  0
VERTEX
  8
0
  6
CONTINUOUS
 10
6.278800
 20
4.178240
  0
VERTEX
  8
0
  6
CONTINUOUS
 10
6.307840
 20
4.165040
  0
VERTEX
  8
0
  6
CONTINUOUS
 10
6.337320
 20
4.144800
  0
VERTEX
  8
0
  6
CONTINUOUS
 10
6.367680
 20
4.119720
  0
VERTEX
  8
0
  6
CONTINUOUS
 10
6.414760
 20
4.075720
  0
VERTEX
  8
0
  6
CONTINUOUS
 10
6.458320
 20
4.037440
  0
VERTEX
  8
0
  6
CONTINUOUS
 10
6.506720
 20
4.011040
  0
VERTEX
  8
0
  6
CONTINUOUS
 10
6.534880
 20
4.003560
  0
VERTEX
  8
0
  6
CONTINUOUS
 10
6.567880
 20
4.000920
  0
VERTEX
  8
0
  6
CONTINUOUS
 10
6.603080
 20
4.003120
  0
VERTEX
  8
0
  6
CONTINUOUS
 10
6.605280
 20
4.023800
  0
VERTEX
  8
0
  6
CONTINUOUS
 10
6.610560
 20
4.041840
  0
VERTEX
  8
0
  6
CONTINUOUS
 10
6.629920
 20
4.070880
  0
VERTEX
  8
0
  6
CONTINUOUS
 10
6.657200
 20
4.089800
  0
VERTEX
  8
0
  6
CONTINUOUS
 10
6.688880
 20
4.098160
  0
VERTEX
  8
0
  6
CONTINUOUS
 10
6.720120
 20
4.096400
  0
VERTEX
  8
0
  6
CONTINUOUS
 10
6.747400
 20
4.084520
  0
VERTEX
  8
0
  6
CONTINUOUS
 10
6.766760
 20
4.061640
  0
VERTEX
  8
0
  6
CONTINUOUS
 10
6.772040
 20
4.046240
  0
VERTEX
  8
0
  6
CONTINUOUS
 10
6.774240
 20
4.027760
  0
VERTEX
  8
0
  6
CONTINUOUS
 10
6.774240
 20
3.719760
  0
VERTEX
  8
0
  6
CONTINUOUS
 10
2.299000
 20
3.719760
  0
VERTEX
  8
0
  6
CONTINUOUS
 10
2.296800
 20
3.721520
  0
VERTEX
  8
0
  6
CONTINUOUS
 10
2.296800
 20
4.638480
  0
VERTEX
  8
0
  6
CONTINUOUS
 10
2.299000
 20
4.638480
  0
SEQEND
  8
0
  0
SOLID
  8
0
 62
    15
 10
2.418680
 20
4.824160
 11
2.423520
 21
5.581400
 12
2.453880
 22
4.789840
 13
2.458720
 23
5.546640
  0
POLYLINE
  8
0
  6
CONTINUOUS
 66
     1
 40
0.000000
 41
0.000000
  0
VERTEX
  8
0
  6
CONTINUOUS
 10
2.418680
 20
4.824160
  0
VERTEX
  8
0
  6
CONTINUOUS
 10
2.423520
 20
5.581400
  0
VERTEX
  8
0
  6
CONTINUOUS
 10
2.458720
 20
5.546640
  0
VERTEX
  8
0
  6
CONTINUOUS
 10
2.453880
 20
4.789840
  0
VERTEX
  8
0
  6
CONTINUOUS
 10
2.418680
 20
4.824160
  0
SEQEND
  8
0
  0
SOLID
  8
0
 62
    15
 10
2.255440
 20
5.178800
 11
2.260280
 21
5.935600
 12
2.255440
 22
5.003240
 13
2.260280
 23
5.760480
  0
POLYLINE
  8
0
  6
CONTINUOUS
 66
     1
 40
0.000000
 41
0.000000
  0
VERTEX
  8
0
  6
CONTINUOUS
 10
2.255440
 20
5.178800
  0
VERTEX
  8
0
  6
CONTINUOUS
 10
2.260280
 20
5.935600
  0
VERTEX
  8
0
  6
CONTINUOUS
 10
2.260280
 20
5.760480
  0
VERTEX
  8
0
  6
CONTINUOUS
 10
2.255440
 20
5.003240
  0
VERTEX
  8
0
  6
CONTINUOUS
 10
2.255440
 20
5.178800
  0
SEQEND
  8
0
  0
SOLID
  8
0
 62
    15
 10
2.305600
 20
4.639800
 11
2.310440
 21
5.397040
 12
2.305600
 22
3.719320
 13
2.310440
 23
4.476120
  0
POLYLINE
  8
0
  6
CONTINUOUS
 66
     1
 40
0.000000
 41
0.000000
  0
VERTEX
  8
0
  6
CONTINUOUS
 10
2.305600
 20
4.639800
  0
VERTEX
  8
0
  6
CONTINUOUS
 10
2.310440
 20
5.397040
  0
VERTEX
  8
0
  6
CONTINUOUS
 10
2.310440
 20
4.476120
  0
VERTEX
  8
0
  6
CONTINUOUS
 10
2.305600
 20
3.719320
  0
VERTEX
  8
0
  6
CONTINUOUS
 10
2.305600
 20
4.639800
  0
SEQEND
  8
0
  0
SOLID
  8
0
 62
    15
 10
2.363680
 20
5.003240
 11
2.368960
 21
5.760480
 12
2.363680
 22
4.998840
 13
2.368960
 23
5.756080
  0
POLYLINE
  8
0
  6
CONTINUOUS
 66
     1
 40
0.000000
 41
0.000000
  0
VERTEX
  8
0
  6
CONTINUOUS
 10
2.363680
 20
5.003240
  0
VERTEX
  8
0
  6
CONTINUOUS
 10
2.368960
 20
5.760480
  0
VERTEX
  8
0
  6
CONTINUOUS
 10
2.368960
 20
5.756080
  0
VERTEX
  8
0
  6
CONTINUOUS
 10
2.363680
 20
4.998840
  0
VERTEX
  8
0
  6
CONTINUOUS
 10
2.363680
 20
5.003240
  0
SEQEND
  8
0
  0
SOLID
  8
0
 62
    15
 10
2.363680
 20
4.998840
 11
2.368960
 21
5.756080
 12
2.366320
 22
4.961000
 13
2.371160
 23
5.718240
  0
POLYLINE
  8
0
  6
CONTINUOUS
 66
     1
 40
0.000000
 41
0.000000
  0
VERTEX
  8
0
  6
CONTINUOUS
 10
2.363680
 20
4.998840
  0
VERTEX
  8
0
  6
CONTINUOUS
 10
2.368960
 20
5.756080
  0
VERTEX
  8
0
  6
CONTINUOUS
 10
2.371160
 20
5.718240
  0
VERTEX
  8
0
  6
CONTINUOUS
 10
2.366320
 20
4.961000
  0
VERTEX
  8
0
  6
CONTINUOUS
 10
2.363680
 20
4.998840
  0
SEQEND
  8
0
  0
SOLID
  8
0
 62
    15
 10
2.366320
 20
4.961000
 11
2.371160
 21
5.718240
 12
2.371600
 22
4.927120
 13
2.376440
 23
5.683920
  0
POLYLINE
  8
0
  6
CONTINUOUS
 66
     1
 40
0.000000
 41
0.000000
  0
VERTEX
  8
0
  6
CONTINUOUS
 10
2.366320
 20
4.961000
  0
VERTEX
  8
0
  6
CONTINUOUS
 10
2.371160
 20
5.718240
  0
VERTEX
  8
0
  6
CONTINUOUS
 10
2.376440
 20
5.683920
  0
VERTEX
  8
0
  6
CONTINUOUS
 10
2.371600
 20
4.927120
  0
VERTEX
  8
0
  6
CONTINUOUS
 10
2.366320
 20
4.961000
  0
SEQEND
  8
0
  0
SOLID
  8
0
 62
    15
 10
2.371600
 20
4.927120
 11
2.376440
 21
5.683920
 12
2.390520
 22
4.869480
 13
2.395800
 23
5.626280
  0
POLYLINE
  8
0
  6
CONTINUOUS
 66
     1
 40
0.000000
 41
0.000000
  0
VERTEX
  8
0
  6
CONTINUOUS
 10
2.371600
 20
4.927120
  0
VERTEX
  8
0
  6
CONTINUOUS
 10
2.376440
 20
5.683920
  0
VERTEX
  8
0
  6
CONTINUOUS
 10
2.395800
 20
5.626280
  0
VERTEX
  8
0
  6
CONTINUOUS
 10
2.390520
 20
4.869480
  0
VERTEX
  8
0
  6
CONTINUOUS
 10
2.371600
 20
4.927120
  0
SEQEND
  8
0
  0
SOLID
  8
0
 62
    15
 10
2.390520
 20
4.869480
 11
2.395800
 21
5.626280
 12
2.418680
 22
4.824160
 13
2.423520
 23
5.581400
  0
POLYLINE
  8
0
  6
CONTINUOUS
 66
     1
 40
0.000000
 41
0.000000
  0
VERTEX
  8
0
  6
CONTINUOUS
 10
2.390520
 20
4.869480
  0
VERTEX
  8
0
  6
CONTINUOUS
 10
2.395800
 20
5.626280
  0
VERTEX
  8
0
  6
CONTINUOUS
 10
2.423520
 20
5.581400
  0
VERTEX
  8
0
  6
CONTINUOUS
 10
2.418680
 20
4.824160
  0
VERTEX
  8
0
  6
CONTINUOUS
 10
2.390520
 20
4.869480
  0
SEQEND
  8
0
  0
SOLID
  8
0
 62
    15
 10
1.688720
 20
5.178800
 11
1.694000
 21
5.935600
 12
2.255440
 22
5.178800
 13
2.260280
 23
5.935600
  0
POLYLINE
  8
0
  6
CONTINUOUS
 66
     1
 40
0.000000
 41
0.000000
  0
VERTEX
  8
0
  6
CONTINUOUS
 10
1.688720
 20
5.178800
  0
VERTEX
  8
0
  6
CONTINUOUS
 10
1.694000
 20
5.935600
  0
VERTEX
  8
0
  6
CONTINUOUS
 10
2.260280
 20
5.935600
  0
VERTEX
  8
0
  6
CONTINUOUS
 10
2.255440
 20
5.178800
  0
VERTEX
  8
0
  6
CONTINUOUS
 10
1.688720
 20
5.178800
  0
SEQEND
  8
0
  0
SOLID
  8
0
 62
     7
 10
2.453880
 20
4.789840
 11
2.458720
 21
5.546640
 12
2.493480
 22
4.763880
 13
2.498320
 23
5.521120
  0
POLYLINE
  8
0
  6
CONTINUOUS
 66
     1
 40
0.000000
 41
0.000000
  0
VERTEX
  8
0
  6
CONTINUOUS
 10
2.453880
 20
4.789840
  0
VERTEX
  8
0
  6
CONTINUOUS
 10
2.458720
 20
5.546640
  0
VERTEX
  8
0
  6
CONTINUOUS
 10
2.498320
 20
5.521120
  0
VERTEX
  8
0
  6
CONTINUOUS
 10
2.493480
 20
4.763880
  0
VERTEX
  8
0
  6
CONTINUOUS
 10
2.453880
 20
4.789840
  0
SEQEND
  8
0
  0
SOLID
  8
0
 62
     7
 10
2.493480
 20
4.763880
 11
2.498320
 21
5.521120
 12
2.535720
 22
4.745400
 13
2.541000
 23
5.502640
  0
POLYLINE
  8
0
  6
CONTINUOUS
 66
     1
 40
0.000000
 41
0.000000
  0
VERTEX
  8
0
  6
CONTINUOUS
 10
2.493480
 20
4.763880
  0
VERTEX
  8
0
  6
CONTINUOUS
 10
2.498320
 20
5.521120
  0
VERTEX
  8
0
  6
CONTINUOUS
 10
2.541000
 20
5.502640
  0
VERTEX
  8
0
  6
CONTINUOUS
 10
2.535720
 20
4.745400
  0
VERTEX
  8
0
  6
CONTINUOUS
 10
2.493480
 20
4.763880
  0
SEQEND
  8
0
  0
SOLID
  8
0
 62
    15
 10
2.620200
 20
4.721200
 11
2.625040
 21
5.478440
 12
2.620200
 22
4.717240
 13
2.625040
 23
5.474040
  0
POLYLINE
  8
0
  6
CONTINUOUS
 66
     1
 40
0.000000
 41
0.000000
  0
VERTEX
  8
0
  6
CONTINUOUS
 10
2.620200
 20
4.721200
  0
VERTEX
  8
0
  6
CONTINUOUS
 10
2.625040
 20
5.478440
  0
VERTEX
  8
0
  6
CONTINUOUS
 10
2.625040
 20
5.474040
  0
VERTEX
  8
0
  6
CONTINUOUS
 10
2.620200
 20
4.717240
  0
VERTEX
  8
0
  6
CONTINUOUS
 10
2.620200
 20
4.721200
  0
SEQEND
  8
0
  0
SOLID
  8
0
 62
    15
 10
2.535720
 20
4.745400
 11
2.541000
 21
5.502640
 12
2.620200
 22
4.721200
 13
2.625040
 23
5.478440
  0
POLYLINE
  8
0
  6
CONTINUOUS
 66
     1
 40
0.000000
 41
0.000000
  0
VERTEX
  8
0
  6
CONTINUOUS
 10
2.535720
 20
4.745400
  0
VERTEX
  8
0
  6
CONTINUOUS
 10
2.541000
 20
5.502640
  0
VERTEX
  8
0
  6
CONTINUOUS
 10
2.625040
 20
5.478440
  0
VERTEX
  8
0
  6
CONTINUOUS
 10
2.620200
 20
4.721200
  0
VERTEX
  8
0
  6
CONTINUOUS
 10
2.535720
 20
4.745400
  0
SEQEND
  8
0
  0
POLYLINE
  8
0
  6
CONTINUOUS
 66
     1
 40
0.000000
 41
0.000000
  0
VERTEX
  8
0
  6
CONTINUOUS
 10
2.620200
 20
4.639800
  0
VERTEX
  8
0
  6
CONTINUOUS
 10
2.625040
 20
5.397040
  0
VERTEX
  8
0
  6
CONTINUOUS
 10
2.620200
 20
4.639800
  0
SEQEND
  8
0
  0
SOLID
  8
0
 62
    15
 10
2.620200
 20
4.717240
 11
2.625040
 21
5.474040
 12
2.620200
 22
4.639800
 13
2.625040
 23
5.397040
  0
POLYLINE
  8
0
  6
CONTINUOUS
 66
     1
 40
0.000000
 41
0.000000
  0
VERTEX
  8
0
  6
CONTINUOUS
 10
2.620200
 20
4.717240
  0
VERTEX
  8
0
  6
CONTINUOUS
 10
2.625040
 20
5.474040
  0
VERTEX
  8
0
  6
CONTINUOUS
 10
2.625040
 20
5.397040
  0
VERTEX
  8
0
  6
CONTINUOUS
 10
2.620200
 20
4.639800
  0
VERTEX
  8
0
  6
CONTINUOUS
 10
2.620200
 20
4.717240
  0
SEQEND
  8
0
  0
SOLID
  8
0
 62
    15
 10
2.255440
 20
5.003240
 11
2.260280
 21
5.760480
 12
2.363680
 22
5.003240
 13
2.368960
 23
5.760480
  0
POLYLINE
  8
0
  6
CONTINUOUS
 66
     1
 40
0.000000
 41
0.000000
  0
VERTEX
  8
0
  6
CONTINUOUS
 10
2.255440
 20
5.003240
  0
VERTEX
  8
0
  6
CONTINUOUS
 10
2.260280
 20
5.760480
  0
VERTEX
  8
0
  6
CONTINUOUS
 10
2.368960
 20
5.760480
  0
VERTEX
  8
0
  6
CONTINUOUS
 10
2.363680
 20
5.003240
  0
VERTEX
  8
0
  6
CONTINUOUS
 10
2.255440
 20
5.003240
  0
SEQEND
  8
0
  0
SOLID
  8
0
 62
    15
 10
1.682560
 20
5.178360
 11
1.687400
 21
5.935600
 12
1.688720
 22
5.178800
 13
1.694000
 23
5.935600
  0
POLYLINE
  8
0
  6
CONTINUOUS
 66
     1
 40
0.000000
 41
0.000000
  0
VERTEX
  8
0
  6
CONTINUOUS
 10
1.682560
 20
5.178360
  0
VERTEX
  8
0
  6
CONTINUOUS
 10
1.687400
 20
5.935600
  0
VERTEX
  8
0
  6
CONTINUOUS
 10
1.694000
 20
5.935600
  0
VERTEX
  8
0
  6
CONTINUOUS
 10
1.688720
 20
5.178800
  0
VERTEX
  8
0
  6
CONTINUOUS
 10
1.682560
 20
5.178360
  0
SEQEND
  8
0
  0
POLYLINE
  8
0
  6
CONTINUOUS
 66
     1
 40
0.000000
 41
0.000000
  0
VERTEX
  8
0
  6
CONTINUOUS
 10
1.688720
 20
5.178800
  0
VERTEX
  8
0
  6
CONTINUOUS
 10
2.255440
 20
5.178800
  0
VERTEX
  8
0
  6
CONTINUOUS
 10
2.255440
 20
5.003240
  0
VERTEX
  8
0
  6
CONTINUOUS
 10
2.363680
 20
5.003240
  0
VERTEX
  8
0
  6
CONTINUOUS
 10
2.363680
 20
4.998840
  0
VERTEX
  8
0
  6
CONTINUOUS
 10
2.366320
 20
4.961000
  0
VERTEX
  8
0
  6
CONTINUOUS
 10
2.371600
 20
4.927120
  0
VERTEX
  8
0
  6
CONTINUOUS
 10
2.390520
 20
4.869480
  0
VERTEX
  8
0
  6
CONTINUOUS
 10
2.418680
 20
4.824160
  0
VERTEX
  8
0
  6
CONTINUOUS
 10
2.453880
 20
4.789840
  0
VERTEX
  8
0
  6
CONTINUOUS
 10
2.493480
 20
4.763880
  0
VERTEX
  8
0
  6
CONTINUOUS
 10
2.535720
 20
4.745400
  0
VERTEX
  8
0
  6
CONTINUOUS
 10
2.620200
 20
4.721200
  0
VERTEX
  8
0
  6
CONTINUOUS
 10
2.620200
 20
4.717240
  0
VERTEX
  8
0
  6
CONTINUOUS
 10
2.620200
 20
4.639800
  0
VERTEX
  8
0
  6
CONTINUOUS
 10
2.305600
 20
4.639800
  0
VERTEX
  8
0
  6
CONTINUOUS
 10
2.305600
 20
3.719320
  0
VERTEX
  8
0
  6
CONTINUOUS
 10
1.682560
 20
3.719320
  0
VERTEX
  8
0
  6
CONTINUOUS
 10
1.682560
 20
5.178360
  0
VERTEX
  8
0
  6
CONTINUOUS
 10
1.688720
 20
5.178800
  0
SEQEND
  8
0
  0
TEXT
  8
0
 10
3.485680
 20
3.453560
 40
0.138176
  1
BA  310 3/4" x 4-9/16"
 41
1.000000
  7
SN0
 71
     0
 72
     5
 11
5.114461
 21
3.453560
  0
TEXT
  8
0
 10
3.485680
 20
3.262160
 40
0.138176
  1
BA  312 15/16" x 1-7/16"
 41
1.000000
  7
SN0
 71
     0
 72
     5
 11
5.298832
 21
3.262160
  0
TEXT
  8
0
 10
1.776720
 20
3.805560
 40
0.138176
  1
312
 41
1.000000
  7
SN0
 71
     0
 72
     5
 11
2.053533
 21
3.805560
  0
TEXT
  8
0
 10
2.402840
 20
3.806000
 40
0.138176
  1
310
 41
1.000000
  7
SN0
 71
     0
 72
     5
 11
2.679653
 21
3.806000
  0
ENDSEC
  0
EOF
