  0
SECTION
  2
HEADER
  9
$ACADVER
  1
AC1006
  9
$EXTMIN
 10
1.785960
 20
0.718520
  9
$EXTMAX
 10
6.921640
 20
5.280440
  9
$LTSCALE
 40
0.044000
  9
$PDMODE
 70
    35
  9
$PDSIZE
 40
0.035200
  0
ENDSEC
  0
SECTION
  2
TABLES
  0
TABLE
  2
LTYPE
 70
     9
  0
LTYPE
  2
CONTINUOUS
 70
    64
  3
Solid line
 72
    65
 73
     0
 40
0.000000
  0
LTYPE
  2
DASHED
 70
    64
  3
__ __ __ __ __ __ __ __ __ __ __ __ __ __ __
 72
    65
 73
     2
 40
0.000330
 49
0.000220
 49
-0.000110
  0
LTYPE
  2
HIDDEN
 70
    64
  3
 _ _ _ _ _ _ _ _ _ _ _ _ _ _ _ _ _ _ _ _ _ _
 72
    65
 73
     2
 40
0.000165
 49
0.000110
 49
-0.000055
  0
LTYPE
  2
CENTER
 70
    64
  3
____ _ ____ _ ____ _ ____ _ ____ _ ____ _ ____
 72
    65
 73
     4
 40
0.000880
 49
0.000550
 49
-0.000110
 49
0.000110
 49
-0.000110
  0
LTYPE
  2
PHANTOM
 70
    64
  3
_____ _ _ _____ _ _ _____ _ _ _____ _ _ ____
 72
    65
 73
     6
 40
0.001100
 49
0.000550
 49
-0.000110
 49
0.000110
 49
-0.000110
 49
0.000110
 49
-0.000110
  0
LTYPE
  2
DOT
 70
    64
  3
...............................................
 72
    65
 73
     2
 40
0.000110
 49
0.000000
 49
-0.000110
  0
LTYPE
  2
DASHDOT
 70
    64
  3
__ . __ . __ . __ . __ . __ . __ . __ . __ . __
 72
    65
 73
     4
 40
0.000440
 49
0.000220
 49
-0.000110
 49
0.000000
 49
-0.000110
  0
LTYPE
  2
BORDER
 70
    64
  3
__ __ . __ __ . __ __ . __ __ . __ __ . __ __
 72
    65
 73
     6
 40
0.000770
 49
0.000220
 49
-0.000110
 49
0.000220
 49
-0.000110
 49
0.000000
 49
-0.000110
  0
LTYPE
  2
DIVIDE
 70
    64
  3
__ . . __ . . __ . . __ . . __ . . __ . . __
 72
    65
 73
     6
 40
0.000550
 49
0.000220
 49
-0.000110
 49
0.000000
 49
-0.000110
 49
0.000000
 49
-0.000110
  0
LTYPE
  2
DOTDOT
 70
    64
  3
 . .  . .  . .  . .  . .  . . 
 72
    65
 73
     5
 40
0.000242
 49
-0.000110
 49
0.000000
 49
-0.000110
 49
0.000000
 49
-0.000110
  0
ENDTAB
  0
TABLE
  2
STYLE
 70
     2
  0
STYLE
 70
     0
  2
SN0
 40
0.000000
 41
0.000440
 50
0.000000
 71
     0
 42
0.000000
  3
ROMAND
  0
STYLE
 70
    68
  2
SV0
 40
0.000000
 41
0.000440
 50
0.000000
 71
     0
 42
0.000000
  3
ROMAND
  0
ENDTAB
  0
TABLE
  2
LAYER
 70
     3
  0
LAYER
  2
FOREGROUND
 70
    64
 62
     7
  6
CONTINUOUS
  0
LAYER
  2
BACKGROUND
 70
    65
 62
    -7
  6
CONTINUOUS
  0
LAYER
  2
0
 70
    64
 62
     7
  6
CONTINUOUS
  0
ENDTAB
  0
ENDSEC
  0
SECTION
  2
ENTITIES
  0
POLYLINE
  8
FOREGROUND
  6
CONTINUOUS
 66
     1
 40
0.000000
 41
0.000000
  0
VERTEX
  8
FOREGROUND
  6
CONTINUOUS
 10
0.000000
 20
5.998960
  0
VERTEX
  8
FOREGROUND
  6
CONTINUOUS
 10
8.499920
 20
5.998960
  0
VERTEX
  8
FOREGROUND
  6
CONTINUOUS
 10
8.499920
 20
-5.001040
  0
VERTEX
  8
FOREGROUND
  6
CONTINUOUS
 10
0.000000
 20
-5.001040
  0
VERTEX
  8
FOREGROUND
  6
CONTINUOUS
 10
0.000000
 20
5.998960
  0
SEQEND
  8
0
  0
POLYLINE
  8
FOREGROUND
  6
CONTINUOUS
 66
     1
 40
0.000000
 41
0.000000
  0
VERTEX
  8
FOREGROUND
  6
CONTINUOUS
 10
0.000000
 20
5.998960
  0
VERTEX
  8
FOREGROUND
  6
CONTINUOUS
 10
8.499920
 20
5.998960
  0
VERTEX
  8
FOREGROUND
  6
CONTINUOUS
 10
8.499920
 20
-5.001040
  0
VERTEX
  8
FOREGROUND
  6
CONTINUOUS
 10
0.000000
 20
-5.001040
  0
VERTEX
  8
FOREGROUND
  6
CONTINUOUS
 10
0.000000
 20
5.998960
  0
SEQEND
  8
0
  0
POLYLINE
  8
0
  6
CONTINUOUS
 66
     1
 40
0.014080
 41
0.014080
  0
VERTEX
  8
0
  6
CONTINUOUS
 10
2.439360
 20
4.737480
  0
VERTEX
  8
0
  6
CONTINUOUS
 10
3.310560
 20
4.737480
  0
VERTEX
  8
0
  6
CONTINUOUS
 10
3.311000
 20
4.707120
  0
VERTEX
  8
0
  6
CONTINUOUS
 10
3.315840
 20
4.669280
  0
VERTEX
  8
0
  6
CONTINUOUS
 10
3.323760
 20
4.640240
  0
VERTEX
  8
0
  6
CONTINUOUS
 10
3.334320
 20
4.618240
  0
VERTEX
  8
0
  6
CONTINUOUS
 10
3.347080
 20
4.603720
  0
VERTEX
  8
0
  6
CONTINUOUS
 10
3.356320
 20
4.597120
  0
VERTEX
  8
0
  6
CONTINUOUS
 10
3.365560
 20
4.593160
  0
VERTEX
  8
0
  6
CONTINUOUS
 10
3.375240
 20
4.591400
  0
VERTEX
  8
0
  6
CONTINUOUS
 10
3.393720
 20
4.593600
  0
VERTEX
  8
0
  6
CONTINUOUS
 10
3.409560
 20
4.601960
  0
VERTEX
  8
0
  6
CONTINUOUS
 10
3.421000
 20
4.614720
  0
VERTEX
  8
0
  6
CONTINUOUS
 10
3.446080
 20
4.647720
  0
VERTEX
  8
0
  6
CONTINUOUS
 10
3.470280
 20
4.670600
  0
VERTEX
  8
0
  6
CONTINUOUS
 10
3.499760
 20
4.689960
  0
VERTEX
  8
0
  6
CONTINUOUS
 10
3.525280
 20
4.699200
  0
VERTEX
  8
0
  6
CONTINUOUS
 10
3.543320
 20
4.702280
  0
VERTEX
  8
0
  6
CONTINUOUS
 10
3.562240
 20
4.702280
  0
VERTEX
  8
0
  6
CONTINUOUS
 10
3.582040
 20
4.698320
  0
VERTEX
  8
0
  6
CONTINUOUS
 10
3.602720
 20
4.689960
  0
VERTEX
  8
0
  6
CONTINUOUS
 10
3.623840
 20
4.677200
  0
VERTEX
  8
0
  6
CONTINUOUS
 10
3.645840
 20
4.659160
  0
VERTEX
  8
0
  6
CONTINUOUS
 10
3.691600
 20
4.606360
  0
VERTEX
  8
0
  6
CONTINUOUS
 10
3.716240
 20
4.586120
  0
VERTEX
  8
0
  6
CONTINUOUS
 10
3.747480
 20
4.568080
  0
VERTEX
  8
0
  6
CONTINUOUS
 10
3.785320
 20
4.553560
  0
VERTEX
  8
0
  6
CONTINUOUS
 10
3.829320
 20
4.542560
  0
VERTEX
  8
0
  6
CONTINUOUS
 10
3.864520
 20
4.537720
  0
VERTEX
  8
0
  6
CONTINUOUS
 10
3.870240
 20
4.555320
  0
VERTEX
  8
0
  6
CONTINUOUS
 10
3.883880
 20
4.577760
  0
VERTEX
  8
0
  6
CONTINUOUS
 10
3.901480
 20
4.595360
  0
VERTEX
  8
0
  6
CONTINUOUS
 10
3.915560
 20
4.604160
  0
VERTEX
  8
0
  6
CONTINUOUS
 10
3.938000
 20
4.612520
  0
VERTEX
  8
0
  6
CONTINUOUS
 10
3.953840
 20
4.614280
  0
VERTEX
  8
0
  6
CONTINUOUS
 10
3.969680
 20
4.613400
  0
VERTEX
  8
0
  6
CONTINUOUS
 10
3.985080
 20
4.609440
  0
VERTEX
  8
0
  6
CONTINUOUS
 10
4.006200
 20
4.597120
  0
VERTEX
  8
0
  6
CONTINUOUS
 10
4.018960
 20
4.584800
  0
VERTEX
  8
0
  6
CONTINUOUS
 10
4.029960
 20
4.568520
  0
VERTEX
  8
0
  6
CONTINUOUS
 10
4.038760
 20
4.548280
  0
VERTEX
  8
0
  6
CONTINUOUS
 10
4.044920
 20
4.524080
  0
VERTEX
  8
0
  6
CONTINUOUS
 10
4.048000
 20
4.493720
  0
VERTEX
  8
0
  6
CONTINUOUS
 10
4.787640
 20
4.493720
  0
VERTEX
  8
0
  6
CONTINUOUS
 10
4.787640
 20
4.387680
  0
VERTEX
  8
0
  6
CONTINUOUS
 10
4.856280
 20
4.387680
  0
VERTEX
  8
0
  6
CONTINUOUS
 10
4.884440
 20
4.424640
  0
VERTEX
  8
0
  6
CONTINUOUS
 10
4.912160
 20
4.451040
  0
VERTEX
  8
0
  6
CONTINUOUS
 10
4.939000
 20
4.466440
  0
VERTEX
  8
0
  6
CONTINUOUS
 10
4.952640
 20
4.470840
  0
VERTEX
  8
0
  6
CONTINUOUS
 10
4.966280
 20
4.472160
  0
VERTEX
  8
0
  6
CONTINUOUS
 10
4.979480
 20
4.471720
  0
VERTEX
  8
0
  6
CONTINUOUS
 10
4.993120
 20
4.469080
  0
VERTEX
  8
0
  6
CONTINUOUS
 10
5.006760
 20
4.464240
  0
VERTEX
  8
0
  6
CONTINUOUS
 10
5.034920
 20
4.448400
  0
VERTEX
  8
0
  6
CONTINUOUS
 10
5.063960
 20
4.425080
  0
VERTEX
  8
0
  6
CONTINUOUS
 10
5.132160
 20
4.359960
  0
VERTEX
  8
0
  6
CONTINUOUS
 10
5.164720
 20
4.334880
  0
VERTEX
  8
0
  6
CONTINUOUS
 10
5.194200
 20
4.317720
  0
VERTEX
  8
0
  6
CONTINUOUS
 10
5.223680
 20
4.307600
  0
VERTEX
  8
0
  6
CONTINUOUS
 10
5.258440
 20
4.302320
  0
VERTEX
  8
0
  6
CONTINUOUS
 10
5.268120
 20
4.325200
  0
VERTEX
  8
0
  6
CONTINUOUS
 10
5.285280
 20
4.352920
  0
VERTEX
  8
0
  6
CONTINUOUS
 10
5.298920
 20
4.366560
  0
VERTEX
  8
0
  6
CONTINUOUS
 10
5.320480
 20
4.381080
  0
VERTEX
  8
0
  6
CONTINUOUS
 10
5.342920
 20
4.388560
  0
VERTEX
  8
0
  6
CONTINUOUS
 10
5.358320
 20
4.389440
  0
VERTEX
  8
0
  6
CONTINUOUS
 10
5.380320
 20
4.386360
  0
VERTEX
  8
0
  6
CONTINUOUS
 10
5.400560
 20
4.377120
  0
VERTEX
  8
0
  6
CONTINUOUS
 10
5.417720
 20
4.363040
  0
VERTEX
  8
0
  6
CONTINUOUS
 10
5.430920
 20
4.344120
  0
VERTEX
  8
0
  6
CONTINUOUS
 10
5.437080
 20
4.329160
  0
VERTEX
  8
0
  6
CONTINUOUS
 10
5.440600
 20
4.312880
  0
VERTEX
  8
0
  6
CONTINUOUS
 10
5.441480
 20
4.302320
  0
VERTEX
  8
0
  6
CONTINUOUS
 10
6.229080
 20
4.302320
  0
VERTEX
  8
0
  6
CONTINUOUS
 10
6.229080
 20
4.181320
  0
VERTEX
  8
0
  6
CONTINUOUS
 10
6.302120
 20
4.181320
  0
VERTEX
  8
0
  6
CONTINUOUS
 10
6.315760
 20
4.217840
  0
VERTEX
  8
0
  6
CONTINUOUS
 10
6.331160
 20
4.245120
  0
VERTEX
  8
0
  6
CONTINUOUS
 10
6.347880
 20
4.264480
  0
VERTEX
  8
0
  6
CONTINUOUS
 10
6.365920
 20
4.276360
  0
VERTEX
  8
0
  6
CONTINUOUS
 10
6.378680
 20
4.280760
  0
VERTEX
  8
0
  6
CONTINUOUS
 10
6.391880
 20
4.282080
  0
VERTEX
  8
0
  6
CONTINUOUS
 10
6.405520
 20
4.280760
  0
VERTEX
  8
0
  6
CONTINUOUS
 10
6.419600
 20
4.277240
  0
VERTEX
  8
0
  6
CONTINUOUS
 10
6.433680
 20
4.271960
  0
VERTEX
  8
0
  6
CONTINUOUS
 10
6.463160
 20
4.254800
  0
VERTEX
  8
0
  6
CONTINUOUS
 10
6.493080
 20
4.231920
  0
VERTEX
  8
0
  6
CONTINUOUS
 10
6.588120
 20
4.145240
  0
VERTEX
  8
0
  6
CONTINUOUS
 10
6.622000
 20
4.121480
  0
VERTEX
  8
0
  6
CONTINUOUS
 10
6.647080
 20
4.110040
  0
VERTEX
  8
0
  6
CONTINUOUS
 10
6.675680
 20
4.102560
  0
VERTEX
  8
0
  6
CONTINUOUS
 10
6.708240
 20
4.099920
  0
VERTEX
  8
0
  6
CONTINUOUS
 10
6.743880
 20
4.102120
  0
VERTEX
  8
0
  6
CONTINUOUS
 10
6.745640
 20
4.122800
  0
VERTEX
  8
0
  6
CONTINUOUS
 10
6.754880
 20
4.149200
  0
VERTEX
  8
0
  6
CONTINUOUS
 10
6.770720
 20
4.169880
  0
VERTEX
  8
0
  6
CONTINUOUS
 10
6.790520
 20
4.184840
  0
VERTEX
  8
0
  6
CONTINUOUS
 10
6.813400
 20
4.194520
  0
VERTEX
  8
0
  6
CONTINUOUS
 10
6.837160
 20
4.198040
  0
VERTEX
  8
0
  6
CONTINUOUS
 10
6.853000
 20
4.197160
  0
VERTEX
  8
0
  6
CONTINUOUS
 10
6.875000
 20
4.191000
  0
VERTEX
  8
0
  6
CONTINUOUS
 10
6.887760
 20
4.183520
  0
VERTEX
  8
0
  6
CONTINUOUS
 10
6.898760
 20
4.173400
  0
VERTEX
  8
0
  6
CONTINUOUS
 10
6.903600
 20
4.167680
  0
VERTEX
  8
0
  6
CONTINUOUS
 10
6.912840
 20
4.145240
  0
VERTEX
  8
0
  6
CONTINUOUS
 10
6.914600
 20
4.125000
  0
VERTEX
  8
0
  6
CONTINUOUS
 10
6.914600
 20
3.818760
  0
VERTEX
  8
0
  6
CONTINUOUS
 10
2.439360
 20
3.818760
  0
VERTEX
  8
0
  6
CONTINUOUS
 10
2.437600
 20
3.820960
  0
VERTEX
  8
0
  6
CONTINUOUS
 10
2.437600
 20
4.737480
  0
VERTEX
  8
0
  6
CONTINUOUS
 10
2.439360
 20
4.737480
  0
VERTEX
  8
0
  6
CONTINUOUS
 10
1.822920
 20
5.272960
  0
VERTEX
  8
0
  6
CONTINUOUS
 10
2.389640
 20
5.272960
  0
VERTEX
  8
0
  6
CONTINUOUS
 10
2.389640
 20
5.269000
  0
VERTEX
  8
0
  6
CONTINUOUS
 10
2.389640
 20
5.097840
  0
VERTEX
  8
0
  6
CONTINUOUS
 10
2.497880
 20
5.097840
  0
VERTEX
  8
0
  6
CONTINUOUS
 10
2.497880
 20
5.093880
  0
VERTEX
  8
0
  6
CONTINUOUS
 10
2.498760
 20
5.074520
  0
VERTEX
  8
0
  6
CONTINUOUS
 10
2.500080
 20
5.056040
  0
VERTEX
  8
0
  6
CONTINUOUS
 10
2.502720
 20
5.038440
  0
VERTEX
  8
0
  6
CONTINUOUS
 10
2.505800
 20
5.022160
  0
VERTEX
  8
0
  6
CONTINUOUS
 10
2.509320
 20
5.006320
  0
VERTEX
  8
0
  6
CONTINUOUS
 10
2.513720
 20
4.991360
  0
VERTEX
  8
0
  6
CONTINUOUS
 10
2.519000
 20
4.977720
  0
VERTEX
  8
0
  6
CONTINUOUS
 10
2.524720
 20
4.964520
  0
VERTEX
  8
0
  6
CONTINUOUS
 10
2.530880
 20
4.952200
  0
VERTEX
  8
0
  6
CONTINUOUS
 10
2.537480
 20
4.940320
  0
VERTEX
  8
0
  6
CONTINUOUS
 10
2.544960
 20
4.929760
  0
VERTEX
  8
0
  6
CONTINUOUS
 10
2.552880
 20
4.919200
  0
VERTEX
  8
0
  6
CONTINUOUS
 10
2.560800
 20
4.909960
  0
VERTEX
  8
0
  6
CONTINUOUS
 10
2.569600
 20
4.901160
  0
VERTEX
  8
0
  6
CONTINUOUS
 10
2.578400
 20
4.892800
  0
VERTEX
  8
0
  6
CONTINUOUS
 10
2.587640
 20
4.884880
  0
VERTEX
  8
0
  6
CONTINUOUS
 10
2.607000
 20
4.871240
  0
VERTEX
  8
0
  6
CONTINUOUS
 10
2.627240
 20
4.859360
  0
VERTEX
  8
0
  6
CONTINUOUS
 10
2.648360
 20
4.849240
  0
VERTEX
  8
0
  6
CONTINUOUS
 10
2.669920
 20
4.840880
  0
VERTEX
  8
0
  6
CONTINUOUS
 10
2.691480
 20
4.833400
  0
VERTEX
  8
0
  6
CONTINUOUS
 10
2.712600
 20
4.827240
  0
VERTEX
  8
0
  6
CONTINUOUS
 10
2.733720
 20
4.821520
  0
VERTEX
  8
0
  6
CONTINUOUS
 10
2.753960
 20
4.816680
  0
VERTEX
  8
0
  6
CONTINUOUS
 10
2.753960
 20
4.812720
  0
VERTEX
  8
0
  6
CONTINUOUS
 10
2.753960
 20
4.735720
  0
VERTEX
  8
0
  6
CONTINUOUS
 10
2.753960
 20
4.735280
  0
VERTEX
  8
0
  6
CONTINUOUS
 10
2.439800
 20
4.735720
  0
VERTEX
  8
0
  6
CONTINUOUS
 10
2.439360
 20
4.735280
  0
VERTEX
  8
0
  6
CONTINUOUS
 10
2.439360
 20
3.816560
  0
VERTEX
  8
0
  6
CONTINUOUS
 10
1.816760
 20
3.816560
  0
VERTEX
  8
0
  6
CONTINUOUS
 10
1.816760
 20
5.272960
  0
VERTEX
  8
0
  6
CONTINUOUS
 10
1.822920
 20
5.272960
  0
VERTEX
  8
0
  6
CONTINUOUS
 10
2.439360
 20
4.737480
  0
SEQEND
  8
0
  0
SOLID
  8
0
 62
    15
 10
5.012920
 20
1.837880
 11
5.005000
 21
2.577080
 12
5.042840
 22
1.811040
 13
5.034480
 23
2.549800
  0
POLYLINE
  8
0
  6
CONTINUOUS
 66
     1
 40
0.000000
 41
0.000000
  0
VERTEX
  8
0
  6
CONTINUOUS
 10
5.012920
 20
1.837880
  0
VERTEX
  8
0
  6
CONTINUOUS
 10
5.005000
 20
2.577080
  0
VERTEX
  8
0
  6
CONTINUOUS
 10
5.034480
 20
2.549800
  0
VERTEX
  8
0
  6
CONTINUOUS
 10
5.042840
 20
1.811040
  0
VERTEX
  8
0
  6
CONTINUOUS
 10
5.012920
 20
1.837880
  0
SEQEND
  8
0
  0
SOLID
  8
0
 62
    15
 10
3.274040
 20
2.137960
 11
3.265680
 21
2.877160
 12
3.274480
 22
2.108040
 13
3.266560
 23
2.846800
  0
POLYLINE
  8
0
  6
CONTINUOUS
 66
     1
 40
0.000000
 41
0.000000
  0
VERTEX
  8
0
  6
CONTINUOUS
 10
3.274040
 20
2.137960
  0
VERTEX
  8
0
  6
CONTINUOUS
 10
3.265680
 20
2.877160
  0
VERTEX
  8
0
  6
CONTINUOUS
 10
3.266560
 20
2.846800
  0
VERTEX
  8
0
  6
CONTINUOUS
 10
3.274480
 20
2.108040
  0
VERTEX
  8
0
  6
CONTINUOUS
 10
3.274040
 20
2.137960
  0
SEQEND
  8
0
  0
SOLID
  8
0
 62
    15
 10
3.274480
 20
2.108040
 11
3.266560
 21
2.846800
 12
3.277120
 22
2.081640
 13
3.269200
 23
2.820400
  0
POLYLINE
  8
0
  6
CONTINUOUS
 66
     1
 40
0.000000
 41
0.000000
  0
VERTEX
  8
0
  6
CONTINUOUS
 10
3.274480
 20
2.108040
  0
VERTEX
  8
0
  6
CONTINUOUS
 10
3.266560
 20
2.846800
  0
VERTEX
  8
0
  6
CONTINUOUS
 10
3.269200
 20
2.820400
  0
VERTEX
  8
0
  6
CONTINUOUS
 10
3.277120
 20
2.081640
  0
VERTEX
  8
0
  6
CONTINUOUS
 10
3.274480
 20
2.108040
  0
SEQEND
  8
0
  0
SOLID
  8
0
 62
    15
 10
3.277120
 20
2.081640
 11
3.269200
 21
2.820400
 12
3.287240
 22
2.040720
 13
3.278880
 23
2.779480
  0
POLYLINE
  8
0
  6
CONTINUOUS
 66
     1
 40
0.000000
 41
0.000000
  0
VERTEX
  8
0
  6
CONTINUOUS
 10
3.277120
 20
2.081640
  0
VERTEX
  8
0
  6
CONTINUOUS
 10
3.269200
 20
2.820400
  0
VERTEX
  8
0
  6
CONTINUOUS
 10
3.278880
 20
2.779480
  0
VERTEX
  8
0
  6
CONTINUOUS
 10
3.287240
 20
2.040720
  0
VERTEX
  8
0
  6
CONTINUOUS
 10
3.277120
 20
2.081640
  0
SEQEND
  8
0
  0
SOLID
  8
0
 62
    15
 10
3.287240
 20
2.040720
 11
3.278880
 21
2.779480
 12
3.301760
 22
2.013440
 13
3.293840
 23
2.752200
  0
POLYLINE
  8
0
  6
CONTINUOUS
 66
     1
 40
0.000000
 41
0.000000
  0
VERTEX
  8
0
  6
CONTINUOUS
 10
3.287240
 20
2.040720
  0
VERTEX
  8
0
  6
CONTINUOUS
 10
3.278880
 20
2.779480
  0
VERTEX
  8
0
  6
CONTINUOUS
 10
3.293840
 20
2.752200
  0
VERTEX
  8
0
  6
CONTINUOUS
 10
3.301760
 20
2.013440
  0
VERTEX
  8
0
  6
CONTINUOUS
 10
3.287240
 20
2.040720
  0
SEQEND
  8
0
  0
SOLID
  8
0
 62
    15
 10
3.301760
 20
2.013440
 11
3.293840
 21
2.752200
 12
3.319800
 22
1.997600
 13
3.311440
 23
2.736800
  0
POLYLINE
  8
0
  6
CONTINUOUS
 66
     1
 40
0.000000
 41
0.000000
  0
VERTEX
  8
0
  6
CONTINUOUS
 10
3.301760
 20
2.013440
  0
VERTEX
  8
0
  6
CONTINUOUS
 10
3.293840
 20
2.752200
  0
VERTEX
  8
0
  6
CONTINUOUS
 10
3.311440
 20
2.736800
  0
VERTEX
  8
0
  6
CONTINUOUS
 10
3.319800
 20
1.997600
  0
VERTEX
  8
0
  6
CONTINUOUS
 10
3.301760
 20
2.013440
  0
SEQEND
  8
0
  0
SOLID
  8
0
 62
    15
 10
3.319800
 20
1.997600
 11
3.311440
 21
2.736800
 12
3.338720
 22
1.992320
 13
3.330800
 23
2.731080
  0
POLYLINE
  8
0
  6
CONTINUOUS
 66
     1
 40
0.000000
 41
0.000000
  0
VERTEX
  8
0
  6
CONTINUOUS
 10
3.319800
 20
1.997600
  0
VERTEX
  8
0
  6
CONTINUOUS
 10
3.311440
 20
2.736800
  0
VERTEX
  8
0
  6
CONTINUOUS
 10
3.330800
 20
2.731080
  0
VERTEX
  8
0
  6
CONTINUOUS
 10
3.338720
 20
1.992320
  0
VERTEX
  8
0
  6
CONTINUOUS
 10
3.319800
 20
1.997600
  0
SEQEND
  8
0
  0
SOLID
  8
0
 62
    15
 10
3.338720
 20
1.992320
 11
3.330800
 21
2.731080
 12
3.357200
 22
1.994520
 13
3.348840
 23
2.733280
  0
POLYLINE
  8
0
  6
CONTINUOUS
 66
     1
 40
0.000000
 41
0.000000
  0
VERTEX
  8
0
  6
CONTINUOUS
 10
3.338720
 20
1.992320
  0
VERTEX
  8
0
  6
CONTINUOUS
 10
3.330800
 20
2.731080
  0
VERTEX
  8
0
  6
CONTINUOUS
 10
3.348840
 20
2.733280
  0
VERTEX
  8
0
  6
CONTINUOUS
 10
3.357200
 20
1.994520
  0
VERTEX
  8
0
  6
CONTINUOUS
 10
3.338720
 20
1.992320
  0
SEQEND
  8
0
  0
SOLID
  8
0
 62
    15
 10
3.357200
 20
1.994520
 11
3.348840
 21
2.733280
 12
3.373040
 22
2.002880
 13
3.364680
 23
2.741640
  0
POLYLINE
  8
0
  6
CONTINUOUS
 66
     1
 40
0.000000
 41
0.000000
  0
VERTEX
  8
0
  6
CONTINUOUS
 10
3.357200
 20
1.994520
  0
VERTEX
  8
0
  6
CONTINUOUS
 10
3.348840
 20
2.733280
  0
VERTEX
  8
0
  6
CONTINUOUS
 10
3.364680
 20
2.741640
  0
VERTEX
  8
0
  6
CONTINUOUS
 10
3.373040
 20
2.002880
  0
VERTEX
  8
0
  6
CONTINUOUS
 10
3.357200
 20
1.994520
  0
SEQEND
  8
0
  0
SOLID
  8
0
 62
    15
 10
3.373040
 20
2.002880
 11
3.364680
 21
2.741640
 12
3.384480
 22
2.015200
 13
3.376120
 23
2.753960
  0
POLYLINE
  8
0
  6
CONTINUOUS
 66
     1
 40
0.000000
 41
0.000000
  0
VERTEX
  8
0
  6
CONTINUOUS
 10
3.373040
 20
2.002880
  0
VERTEX
  8
0
  6
CONTINUOUS
 10
3.364680
 20
2.741640
  0
VERTEX
  8
0
  6
CONTINUOUS
 10
3.376120
 20
2.753960
  0
VERTEX
  8
0
  6
CONTINUOUS
 10
3.384480
 20
2.015200
  0
VERTEX
  8
0
  6
CONTINUOUS
 10
3.373040
 20
2.002880
  0
SEQEND
  8
0
  0
SOLID
  8
0
 62
    15
 10
3.384480
 20
2.015200
 11
3.376120
 21
2.753960
 12
3.399440
 22
2.036320
 13
3.391520
 23
2.775080
  0
POLYLINE
  8
0
  6
CONTINUOUS
 66
     1
 40
0.000000
 41
0.000000
  0
VERTEX
  8
0
  6
CONTINUOUS
 10
3.384480
 20
2.015200
  0
VERTEX
  8
0
  6
CONTINUOUS
 10
3.376120
 20
2.753960
  0
VERTEX
  8
0
  6
CONTINUOUS
 10
3.391520
 20
2.775080
  0
VERTEX
  8
0
  6
CONTINUOUS
 10
3.399440
 20
2.036320
  0
VERTEX
  8
0
  6
CONTINUOUS
 10
3.384480
 20
2.015200
  0
SEQEND
  8
0
  0
SOLID
  8
0
 62
    15
 10
3.399440
 20
2.036320
 11
3.391520
 21
2.775080
 12
3.421000
 22
2.060080
 13
3.412640
 23
2.798840
  0
POLYLINE
  8
0
  6
CONTINUOUS
 66
     1
 40
0.000000
 41
0.000000
  0
VERTEX
  8
0
  6
CONTINUOUS
 10
3.399440
 20
2.036320
  0
VERTEX
  8
0
  6
CONTINUOUS
 10
3.391520
 20
2.775080
  0
VERTEX
  8
0
  6
CONTINUOUS
 10
3.412640
 20
2.798840
  0
VERTEX
  8
0
  6
CONTINUOUS
 10
3.421000
 20
2.060080
  0
VERTEX
  8
0
  6
CONTINUOUS
 10
3.399440
 20
2.036320
  0
SEQEND
  8
0
  0
SOLID
  8
0
 62
    15
 10
3.421000
 20
2.060080
 11
3.412640
 21
2.798840
 12
3.447840
 22
2.081640
 13
3.439920
 23
2.820400
  0
POLYLINE
  8
0
  6
CONTINUOUS
 66
     1
 40
0.000000
 41
0.000000
  0
VERTEX
  8
0
  6
CONTINUOUS
 10
3.421000
 20
2.060080
  0
VERTEX
  8
0
  6
CONTINUOUS
 10
3.412640
 20
2.798840
  0
VERTEX
  8
0
  6
CONTINUOUS
 10
3.439920
 20
2.820400
  0
VERTEX
  8
0
  6
CONTINUOUS
 10
3.447840
 20
2.081640
  0
VERTEX
  8
0
  6
CONTINUOUS
 10
3.421000
 20
2.060080
  0
SEQEND
  8
0
  0
SOLID
  8
0
 62
    15
 10
3.447840
 20
2.081640
 11
3.439920
 21
2.820400
 12
3.479960
 22
2.097480
 13
3.471600
 23
2.836240
  0
POLYLINE
  8
0
  6
CONTINUOUS
 66
     1
 40
0.000000
 41
0.000000
  0
VERTEX
  8
0
  6
CONTINUOUS
 10
3.447840
 20
2.081640
  0
VERTEX
  8
0
  6
CONTINUOUS
 10
3.439920
 20
2.820400
  0
VERTEX
  8
0
  6
CONTINUOUS
 10
3.471600
 20
2.836240
  0
VERTEX
  8
0
  6
CONTINUOUS
 10
3.479960
 20
2.097480
  0
VERTEX
  8
0
  6
CONTINUOUS
 10
3.447840
 20
2.081640
  0
SEQEND
  8
0
  0
SOLID
  8
0
 62
    15
 10
3.479960
 20
2.097480
 11
3.471600
 21
2.836240
 12
3.516040
 22
2.103200
 13
3.508120
 23
2.841960
  0
POLYLINE
  8
0
  6
CONTINUOUS
 66
     1
 40
0.000000
 41
0.000000
  0
VERTEX
  8
0
  6
CONTINUOUS
 10
3.479960
 20
2.097480
  0
VERTEX
  8
0
  6
CONTINUOUS
 10
3.471600
 20
2.836240
  0
VERTEX
  8
0
  6
CONTINUOUS
 10
3.508120
 20
2.841960
  0
VERTEX
  8
0
  6
CONTINUOUS
 10
3.516040
 20
2.103200
  0
VERTEX
  8
0
  6
CONTINUOUS
 10
3.479960
 20
2.097480
  0
SEQEND
  8
0
  0
SOLID
  8
0
 62
    15
 10
3.516040
 20
2.103200
 11
3.508120
 21
2.841960
 12
3.555640
 22
2.095280
 13
3.547720
 23
2.834040
  0
POLYLINE
  8
0
  6
CONTINUOUS
 66
     1
 40
0.000000
 41
0.000000
  0
VERTEX
  8
0
  6
CONTINUOUS
 10
3.516040
 20
2.103200
  0
VERTEX
  8
0
  6
CONTINUOUS
 10
3.508120
 20
2.841960
  0
VERTEX
  8
0
  6
CONTINUOUS
 10
3.547720
 20
2.834040
  0
VERTEX
  8
0
  6
CONTINUOUS
 10
3.555640
 20
2.095280
  0
VERTEX
  8
0
  6
CONTINUOUS
 10
3.516040
 20
2.103200
  0
SEQEND
  8
0
  0
SOLID
  8
0
 62
    15
 10
3.555640
 20
2.095280
 11
3.547720
 21
2.834040
 12
3.576760
 22
2.084720
 13
3.568400
 23
2.823480
  0
POLYLINE
  8
0
  6
CONTINUOUS
 66
     1
 40
0.000000
 41
0.000000
  0
VERTEX
  8
0
  6
CONTINUOUS
 10
3.555640
 20
2.095280
  0
VERTEX
  8
0
  6
CONTINUOUS
 10
3.547720
 20
2.834040
  0
VERTEX
  8
0
  6
CONTINUOUS
 10
3.568400
 20
2.823480
  0
VERTEX
  8
0
  6
CONTINUOUS
 10
3.576760
 20
2.084720
  0
VERTEX
  8
0
  6
CONTINUOUS
 10
3.555640
 20
2.095280
  0
SEQEND
  8
0
  0
SOLID
  8
0
 62
    15
 10
3.576760
 20
2.084720
 11
3.568400
 21
2.823480
 12
3.598320
 22
2.069320
 13
3.589960
 23
2.808080
  0
POLYLINE
  8
0
  6
CONTINUOUS
 66
     1
 40
0.000000
 41
0.000000
  0
VERTEX
  8
0
  6
CONTINUOUS
 10
3.576760
 20
2.084720
  0
VERTEX
  8
0
  6
CONTINUOUS
 10
3.568400
 20
2.823480
  0
VERTEX
  8
0
  6
CONTINUOUS
 10
3.589960
 20
2.808080
  0
VERTEX
  8
0
  6
CONTINUOUS
 10
3.598320
 20
2.069320
  0
VERTEX
  8
0
  6
CONTINUOUS
 10
3.576760
 20
2.084720
  0
SEQEND
  8
0
  0
SOLID
  8
0
 62
    15
 10
3.598320
 20
2.069320
 11
3.589960
 21
2.808080
 12
3.620320
 22
2.048200
 13
3.611960
 23
2.787400
  0
POLYLINE
  8
0
  6
CONTINUOUS
 66
     1
 40
0.000000
 41
0.000000
  0
VERTEX
  8
0
  6
CONTINUOUS
 10
3.598320
 20
2.069320
  0
VERTEX
  8
0
  6
CONTINUOUS
 10
3.589960
 20
2.808080
  0
VERTEX
  8
0
  6
CONTINUOUS
 10
3.611960
 20
2.787400
  0
VERTEX
  8
0
  6
CONTINUOUS
 10
3.620320
 20
2.048200
  0
VERTEX
  8
0
  6
CONTINUOUS
 10
3.598320
 20
2.069320
  0
SEQEND
  8
0
  0
SOLID
  8
0
 62
    15
 10
3.620320
 20
2.048200
 11
3.611960
 21
2.787400
 12
3.642760
 22
2.021360
 13
3.634400
 23
2.760120
  0
POLYLINE
  8
0
  6
CONTINUOUS
 66
     1
 40
0.000000
 41
0.000000
  0
VERTEX
  8
0
  6
CONTINUOUS
 10
3.620320
 20
2.048200
  0
VERTEX
  8
0
  6
CONTINUOUS
 10
3.611960
 20
2.787400
  0
VERTEX
  8
0
  6
CONTINUOUS
 10
3.634400
 20
2.760120
  0
VERTEX
  8
0
  6
CONTINUOUS
 10
3.642760
 20
2.021360
  0
VERTEX
  8
0
  6
CONTINUOUS
 10
3.620320
 20
2.048200
  0
SEQEND
  8
0
  0
SOLID
  8
0
 62
    15
 10
3.642760
 20
2.021360
 11
3.634400
 21
2.760120
 12
3.670920
 22
1.993200
 13
3.662560
 23
2.731960
  0
POLYLINE
  8
0
  6
CONTINUOUS
 66
     1
 40
0.000000
 41
0.000000
  0
VERTEX
  8
0
  6
CONTINUOUS
 10
3.642760
 20
2.021360
  0
VERTEX
  8
0
  6
CONTINUOUS
 10
3.634400
 20
2.760120
  0
VERTEX
  8
0
  6
CONTINUOUS
 10
3.662560
 20
2.731960
  0
VERTEX
  8
0
  6
CONTINUOUS
 10
3.670920
 20
1.993200
  0
VERTEX
  8
0
  6
CONTINUOUS
 10
3.642760
 20
2.021360
  0
SEQEND
  8
0
  0
SOLID
  8
0
 62
    15
 10
3.670920
 20
1.993200
 11
3.662560
 21
2.731960
 12
3.710960
 22
1.969000
 13
3.702600
 23
2.707760
  0
POLYLINE
  8
0
  6
CONTINUOUS
 66
     1
 40
0.000000
 41
0.000000
  0
VERTEX
  8
0
  6
CONTINUOUS
 10
3.670920
 20
1.993200
  0
VERTEX
  8
0
  6
CONTINUOUS
 10
3.662560
 20
2.731960
  0
VERTEX
  8
0
  6
CONTINUOUS
 10
3.702600
 20
2.707760
  0
VERTEX
  8
0
  6
CONTINUOUS
 10
3.710960
 20
1.969000
  0
VERTEX
  8
0
  6
CONTINUOUS
 10
3.670920
 20
1.993200
  0
SEQEND
  8
0
  0
SOLID
  8
0
 62
    15
 10
3.710960
 20
1.969000
 11
3.702600
 21
2.707760
 12
3.762880
 22
1.950080
 13
3.754520
 23
2.688840
  0
POLYLINE
  8
0
  6
CONTINUOUS
 66
     1
 40
0.000000
 41
0.000000
  0
VERTEX
  8
0
  6
CONTINUOUS
 10
3.710960
 20
1.969000
  0
VERTEX
  8
0
  6
CONTINUOUS
 10
3.702600
 20
2.707760
  0
VERTEX
  8
0
  6
CONTINUOUS
 10
3.754520
 20
2.688840
  0
VERTEX
  8
0
  6
CONTINUOUS
 10
3.762880
 20
1.950080
  0
VERTEX
  8
0
  6
CONTINUOUS
 10
3.710960
 20
1.969000
  0
SEQEND
  8
0
  0
SOLID
  8
0
 62
    15
 10
3.762880
 20
1.950080
 11
3.754520
 21
2.688840
 12
3.826240
 22
1.938200
 13
3.817880
 23
2.676960
  0
POLYLINE
  8
0
  6
CONTINUOUS
 66
     1
 40
0.000000
 41
0.000000
  0
VERTEX
  8
0
  6
CONTINUOUS
 10
3.762880
 20
1.950080
  0
VERTEX
  8
0
  6
CONTINUOUS
 10
3.754520
 20
2.688840
  0
VERTEX
  8
0
  6
CONTINUOUS
 10
3.817880
 20
2.676960
  0
VERTEX
  8
0
  6
CONTINUOUS
 10
3.826240
 20
1.938200
  0
VERTEX
  8
0
  6
CONTINUOUS
 10
3.762880
 20
1.950080
  0
SEQEND
  8
0
  0
SOLID
  8
0
 62
    15
 10
3.826240
 20
1.938200
 11
3.817880
 21
2.676960
 12
3.828000
 22
1.938200
 13
3.820080
 23
2.676960
  0
POLYLINE
  8
0
  6
CONTINUOUS
 66
     1
 40
0.000000
 41
0.000000
  0
VERTEX
  8
0
  6
CONTINUOUS
 10
3.826240
 20
1.938200
  0
VERTEX
  8
0
  6
CONTINUOUS
 10
3.817880
 20
2.676960
  0
VERTEX
  8
0
  6
CONTINUOUS
 10
3.820080
 20
2.676960
  0
VERTEX
  8
0
  6
CONTINUOUS
 10
3.828000
 20
1.938200
  0
VERTEX
  8
0
  6
CONTINUOUS
 10
3.826240
 20
1.938200
  0
SEQEND
  8
0
  0
SOLID
  8
0
 62
    15
 10
3.828000
 20
1.938200
 11
3.820080
 21
2.676960
 12
3.842080
 22
1.971200
 13
3.834160
 23
2.709960
  0
POLYLINE
  8
0
  6
CONTINUOUS
 66
     1
 40
0.000000
 41
0.000000
  0
VERTEX
  8
0
  6
CONTINUOUS
 10
3.828000
 20
1.938200
  0
VERTEX
  8
0
  6
CONTINUOUS
 10
3.820080
 20
2.676960
  0
VERTEX
  8
0
  6
CONTINUOUS
 10
3.834160
 20
2.709960
  0
VERTEX
  8
0
  6
CONTINUOUS
 10
3.842080
 20
1.971200
  0
VERTEX
  8
0
  6
CONTINUOUS
 10
3.828000
 20
1.938200
  0
SEQEND
  8
0
  0
SOLID
  8
0
 62
    15
 10
3.842080
 20
1.971200
 11
3.834160
 21
2.709960
 12
3.865400
 22
1.995840
 13
3.857040
 23
2.734600
  0
POLYLINE
  8
0
  6
CONTINUOUS
 66
     1
 40
0.000000
 41
0.000000
  0
VERTEX
  8
0
  6
CONTINUOUS
 10
3.842080
 20
1.971200
  0
VERTEX
  8
0
  6
CONTINUOUS
 10
3.834160
 20
2.709960
  0
VERTEX
  8
0
  6
CONTINUOUS
 10
3.857040
 20
2.734600
  0
VERTEX
  8
0
  6
CONTINUOUS
 10
3.865400
 20
1.995840
  0
VERTEX
  8
0
  6
CONTINUOUS
 10
3.842080
 20
1.971200
  0
SEQEND
  8
0
  0
SOLID
  8
0
 62
    15
 10
3.865400
 20
1.995840
 11
3.857040
 21
2.734600
 12
3.894000
 22
2.010800
 13
3.886080
 23
2.749560
  0
POLYLINE
  8
0
  6
CONTINUOUS
 66
     1
 40
0.000000
 41
0.000000
  0
VERTEX
  8
0
  6
CONTINUOUS
 10
3.865400
 20
1.995840
  0
VERTEX
  8
0
  6
CONTINUOUS
 10
3.857040
 20
2.734600
  0
VERTEX
  8
0
  6
CONTINUOUS
 10
3.886080
 20
2.749560
  0
VERTEX
  8
0
  6
CONTINUOUS
 10
3.894000
 20
2.010800
  0
VERTEX
  8
0
  6
CONTINUOUS
 10
3.865400
 20
1.995840
  0
SEQEND
  8
0
  0
SOLID
  8
0
 62
    15
 10
3.894000
 20
2.010800
 11
3.886080
 21
2.749560
 12
3.925240
 22
2.015200
 13
3.917320
 23
2.753960
  0
POLYLINE
  8
0
  6
CONTINUOUS
 66
     1
 40
0.000000
 41
0.000000
  0
VERTEX
  8
0
  6
CONTINUOUS
 10
3.894000
 20
2.010800
  0
VERTEX
  8
0
  6
CONTINUOUS
 10
3.886080
 20
2.749560
  0
VERTEX
  8
0
  6
CONTINUOUS
 10
3.917320
 20
2.753960
  0
VERTEX
  8
0
  6
CONTINUOUS
 10
3.925240
 20
2.015200
  0
VERTEX
  8
0
  6
CONTINUOUS
 10
3.894000
 20
2.010800
  0
SEQEND
  8
0
  0
SOLID
  8
0
 62
    15
 10
3.925240
 20
2.015200
 11
3.917320
 21
2.753960
 12
3.956040
 22
2.006840
 13
3.947680
 23
2.745600
  0
POLYLINE
  8
0
  6
CONTINUOUS
 66
     1
 40
0.000000
 41
0.000000
  0
VERTEX
  8
0
  6
CONTINUOUS
 10
3.925240
 20
2.015200
  0
VERTEX
  8
0
  6
CONTINUOUS
 10
3.917320
 20
2.753960
  0
VERTEX
  8
0
  6
CONTINUOUS
 10
3.947680
 20
2.745600
  0
VERTEX
  8
0
  6
CONTINUOUS
 10
3.956040
 20
2.006840
  0
VERTEX
  8
0
  6
CONTINUOUS
 10
3.925240
 20
2.015200
  0
SEQEND
  8
0
  0
SOLID
  8
0
 62
    15
 10
3.956040
 20
2.006840
 11
3.947680
 21
2.745600
 12
3.982440
 22
1.985280
 13
3.974520
 23
2.724040
  0
POLYLINE
  8
0
  6
CONTINUOUS
 66
     1
 40
0.000000
 41
0.000000
  0
VERTEX
  8
0
  6
CONTINUOUS
 10
3.956040
 20
2.006840
  0
VERTEX
  8
0
  6
CONTINUOUS
 10
3.947680
 20
2.745600
  0
VERTEX
  8
0
  6
CONTINUOUS
 10
3.974520
 20
2.724040
  0
VERTEX
  8
0
  6
CONTINUOUS
 10
3.982440
 20
1.985280
  0
VERTEX
  8
0
  6
CONTINUOUS
 10
3.956040
 20
2.006840
  0
SEQEND
  8
0
  0
SOLID
  8
0
 62
    15
 10
3.982440
 20
1.985280
 11
3.974520
 21
2.724040
 12
3.993440
 22
1.969000
 13
3.985080
 23
2.707760
  0
POLYLINE
  8
0
  6
CONTINUOUS
 66
     1
 40
0.000000
 41
0.000000
  0
VERTEX
  8
0
  6
CONTINUOUS
 10
3.982440
 20
1.985280
  0
VERTEX
  8
0
  6
CONTINUOUS
 10
3.974520
 20
2.724040
  0
VERTEX
  8
0
  6
CONTINUOUS
 10
3.985080
 20
2.707760
  0
VERTEX
  8
0
  6
CONTINUOUS
 10
3.993440
 20
1.969000
  0
VERTEX
  8
0
  6
CONTINUOUS
 10
3.982440
 20
1.985280
  0
SEQEND
  8
0
  0
SOLID
  8
0
 62
    15
 10
3.993440
 20
1.969000
 11
3.985080
 21
2.707760
 12
4.002240
 22
1.948760
 13
3.993880
 23
2.687960
  0
POLYLINE
  8
0
  6
CONTINUOUS
 66
     1
 40
0.000000
 41
0.000000
  0
VERTEX
  8
0
  6
CONTINUOUS
 10
3.993440
 20
1.969000
  0
VERTEX
  8
0
  6
CONTINUOUS
 10
3.985080
 20
2.707760
  0
VERTEX
  8
0
  6
CONTINUOUS
 10
3.993880
 20
2.687960
  0
VERTEX
  8
0
  6
CONTINUOUS
 10
4.002240
 20
1.948760
  0
VERTEX
  8
0
  6
CONTINUOUS
 10
3.993440
 20
1.969000
  0
SEQEND
  8
0
  0
SOLID
  8
0
 62
    15
 10
4.002240
 20
1.948760
 11
3.993880
 21
2.687960
 12
4.008400
 22
1.925000
 13
4.000040
 23
2.663760
  0
POLYLINE
  8
0
  6
CONTINUOUS
 66
     1
 40
0.000000
 41
0.000000
  0
VERTEX
  8
0
  6
CONTINUOUS
 10
4.002240
 20
1.948760
  0
VERTEX
  8
0
  6
CONTINUOUS
 10
3.993880
 20
2.687960
  0
VERTEX
  8
0
  6
CONTINUOUS
 10
4.000040
 20
2.663760
  0
VERTEX
  8
0
  6
CONTINUOUS
 10
4.008400
 20
1.925000
  0
VERTEX
  8
0
  6
CONTINUOUS
 10
4.002240
 20
1.948760
  0
SEQEND
  8
0
  0
SOLID
  8
0
 62
    15
 10
4.008400
 20
1.925000
 11
4.000040
 21
2.663760
 12
4.011480
 22
1.896400
 13
4.003120
 23
2.635160
  0
POLYLINE
  8
0
  6
CONTINUOUS
 66
     1
 40
0.000000
 41
0.000000
  0
VERTEX
  8
0
  6
CONTINUOUS
 10
4.008400
 20
1.925000
  0
VERTEX
  8
0
  6
CONTINUOUS
 10
4.000040
 20
2.663760
  0
VERTEX
  8
0
  6
CONTINUOUS
 10
4.003120
 20
2.635160
  0
VERTEX
  8
0
  6
CONTINUOUS
 10
4.011480
 20
1.896400
  0
VERTEX
  8
0
  6
CONTINUOUS
 10
4.008400
 20
1.925000
  0
SEQEND
  8
0
  0
SOLID
  8
0
 62
    15
 10
4.011480
 20
1.896400
 11
4.003120
 21
2.635160
 12
4.011480
 22
1.894640
 13
4.003560
 23
2.633400
  0
POLYLINE
  8
0
  6
CONTINUOUS
 66
     1
 40
0.000000
 41
0.000000
  0
VERTEX
  8
0
  6
CONTINUOUS
 10
4.011480
 20
1.896400
  0
VERTEX
  8
0
  6
CONTINUOUS
 10
4.003120
 20
2.635160
  0
VERTEX
  8
0
  6
CONTINUOUS
 10
4.003560
 20
2.633400
  0
VERTEX
  8
0
  6
CONTINUOUS
 10
4.011480
 20
1.894640
  0
VERTEX
  8
0
  6
CONTINUOUS
 10
4.011480
 20
1.896400
  0
SEQEND
  8
0
  0
SOLID
  8
0
 62
    15
 10
4.751120
 20
1.788160
 11
4.742760
 21
2.526920
 12
4.819760
 22
1.788160
 13
4.811840
 23
2.526920
  0
POLYLINE
  8
0
  6
CONTINUOUS
 66
     1
 40
0.000000
 41
0.000000
  0
VERTEX
  8
0
  6
CONTINUOUS
 10
4.751120
 20
1.788160
  0
VERTEX
  8
0
  6
CONTINUOUS
 10
4.742760
 20
2.526920
  0
VERTEX
  8
0
  6
CONTINUOUS
 10
4.811840
 20
2.526920
  0
VERTEX
  8
0
  6
CONTINUOUS
 10
4.819760
 20
1.788160
  0
VERTEX
  8
0
  6
CONTINUOUS
 10
4.751120
 20
1.788160
  0
SEQEND
  8
0
  0
SOLID
  8
0
 62
    15
 10
4.011480
 20
1.894640
 11
4.003560
 21
2.633400
 12
4.751120
 22
1.894640
 13
4.742760
 23
2.633400
  0
POLYLINE
  8
0
  6
CONTINUOUS
 66
     1
 40
0.000000
 41
0.000000
  0
VERTEX
  8
0
  6
CONTINUOUS
 10
4.011480
 20
1.894640
  0
VERTEX
  8
0
  6
CONTINUOUS
 10
4.003560
 20
2.633400
  0
VERTEX
  8
0
  6
CONTINUOUS
 10
4.742760
 20
2.633400
  0
VERTEX
  8
0
  6
CONTINUOUS
 10
4.751120
 20
1.894640
  0
VERTEX
  8
0
  6
CONTINUOUS
 10
4.011480
 20
1.894640
  0
SEQEND
  8
0
  0
SOLID
  8
0
 62
    15
 10
4.819760
 20
1.788160
 11
4.811840
 21
2.526920
 12
4.848360
 22
1.825120
 13
4.840000
 23
2.564320
  0
POLYLINE
  8
0
  6
CONTINUOUS
 66
     1
 40
0.000000
 41
0.000000
  0
VERTEX
  8
0
  6
CONTINUOUS
 10
4.819760
 20
1.788160
  0
VERTEX
  8
0
  6
CONTINUOUS
 10
4.811840
 20
2.526920
  0
VERTEX
  8
0
  6
CONTINUOUS
 10
4.840000
 20
2.564320
  0
VERTEX
  8
0
  6
CONTINUOUS
 10
4.848360
 20
1.825120
  0
VERTEX
  8
0
  6
CONTINUOUS
 10
4.819760
 20
1.788160
  0
SEQEND
  8
0
  0
SOLID
  8
0
 62
    15
 10
4.848360
 20
1.825120
 11
4.840000
 21
2.564320
 12
4.875640
 22
1.851520
 13
4.867720
 23
2.590280
  0
POLYLINE
  8
0
  6
CONTINUOUS
 66
     1
 40
0.000000
 41
0.000000
  0
VERTEX
  8
0
  6
CONTINUOUS
 10
4.848360
 20
1.825120
  0
VERTEX
  8
0
  6
CONTINUOUS
 10
4.840000
 20
2.564320
  0
VERTEX
  8
0
  6
CONTINUOUS
 10
4.867720
 20
2.590280
  0
VERTEX
  8
0
  6
CONTINUOUS
 10
4.875640
 20
1.851520
  0
VERTEX
  8
0
  6
CONTINUOUS
 10
4.848360
 20
1.825120
  0
SEQEND
  8
0
  0
SOLID
  8
0
 62
    15
 10
4.875640
 20
1.851520
 11
4.867720
 21
2.590280
 12
4.902920
 22
1.867360
 13
4.894560
 23
2.606120
  0
POLYLINE
  8
0
  6
CONTINUOUS
 66
     1
 40
0.000000
 41
0.000000
  0
VERTEX
  8
0
  6
CONTINUOUS
 10
4.875640
 20
1.851520
  0
VERTEX
  8
0
  6
CONTINUOUS
 10
4.867720
 20
2.590280
  0
VERTEX
  8
0
  6
CONTINUOUS
 10
4.894560
 20
2.606120
  0
VERTEX
  8
0
  6
CONTINUOUS
 10
4.902920
 20
1.867360
  0
VERTEX
  8
0
  6
CONTINUOUS
 10
4.875640
 20
1.851520
  0
SEQEND
  8
0
  0
SOLID
  8
0
 62
    15
 10
4.902920
 20
1.867360
 11
4.894560
 21
2.606120
 12
4.929760
 22
1.873080
 13
4.921400
 23
2.611840
  0
POLYLINE
  8
0
  6
CONTINUOUS
 66
     1
 40
0.000000
 41
0.000000
  0
VERTEX
  8
0
  6
CONTINUOUS
 10
4.902920
 20
1.867360
  0
VERTEX
  8
0
  6
CONTINUOUS
 10
4.894560
 20
2.606120
  0
VERTEX
  8
0
  6
CONTINUOUS
 10
4.921400
 20
2.611840
  0
VERTEX
  8
0
  6
CONTINUOUS
 10
4.929760
 20
1.873080
  0
VERTEX
  8
0
  6
CONTINUOUS
 10
4.902920
 20
1.867360
  0
SEQEND
  8
0
  0
SOLID
  8
0
 62
    15
 10
4.929760
 20
1.873080
 11
4.921400
 21
2.611840
 12
4.956600
 22
1.869560
 13
4.948680
 23
2.608320
  0
POLYLINE
  8
0
  6
CONTINUOUS
 66
     1
 40
0.000000
 41
0.000000
  0
VERTEX
  8
0
  6
CONTINUOUS
 10
4.929760
 20
1.873080
  0
VERTEX
  8
0
  6
CONTINUOUS
 10
4.921400
 20
2.611840
  0
VERTEX
  8
0
  6
CONTINUOUS
 10
4.948680
 20
2.608320
  0
VERTEX
  8
0
  6
CONTINUOUS
 10
4.956600
 20
1.869560
  0
VERTEX
  8
0
  6
CONTINUOUS
 10
4.929760
 20
1.873080
  0
SEQEND
  8
0
  0
SOLID
  8
0
 62
    15
 10
4.956600
 20
1.869560
 11
4.948680
 21
2.608320
 12
4.984320
 22
1.857680
 13
4.976400
 23
2.596880
  0
POLYLINE
  8
0
  6
CONTINUOUS
 66
     1
 40
0.000000
 41
0.000000
  0
VERTEX
  8
0
  6
CONTINUOUS
 10
4.956600
 20
1.869560
  0
VERTEX
  8
0
  6
CONTINUOUS
 10
4.948680
 20
2.608320
  0
VERTEX
  8
0
  6
CONTINUOUS
 10
4.976400
 20
2.596880
  0
VERTEX
  8
0
  6
CONTINUOUS
 10
4.984320
 20
1.857680
  0
VERTEX
  8
0
  6
CONTINUOUS
 10
4.956600
 20
1.869560
  0
SEQEND
  8
0
  0
SOLID
  8
0
 62
    15
 10
4.984320
 20
1.857680
 11
4.976400
 21
2.596880
 12
5.012920
 22
1.837880
 13
5.005000
 23
2.577080
  0
POLYLINE
  8
0
  6
CONTINUOUS
 66
     1
 40
0.000000
 41
0.000000
  0
VERTEX
  8
0
  6
CONTINUOUS
 10
4.984320
 20
1.857680
  0
VERTEX
  8
0
  6
CONTINUOUS
 10
4.976400
 20
2.596880
  0
VERTEX
  8
0
  6
CONTINUOUS
 10
5.005000
 20
2.577080
  0
VERTEX
  8
0
  6
CONTINUOUS
 10
5.012920
 20
1.837880
  0
VERTEX
  8
0
  6
CONTINUOUS
 10
4.984320
 20
1.857680
  0
SEQEND
  8
0
  0
SOLID
  8
0
 62
    15
 10
2.403280
 20
2.137960
 11
2.394920
 21
2.877160
 12
3.274040
 22
2.137960
 13
3.265680
 23
2.877160
  0
POLYLINE
  8
0
  6
CONTINUOUS
 66
     1
 40
0.000000
 41
0.000000
  0
VERTEX
  8
0
  6
CONTINUOUS
 10
2.403280
 20
2.137960
  0
VERTEX
  8
0
  6
CONTINUOUS
 10
2.394920
 20
2.877160
  0
VERTEX
  8
0
  6
CONTINUOUS
 10
3.265680
 20
2.877160
  0
VERTEX
  8
0
  6
CONTINUOUS
 10
3.274040
 20
2.137960
  0
VERTEX
  8
0
  6
CONTINUOUS
 10
2.403280
 20
2.137960
  0
SEQEND
  8
0
  0
SOLID
  8
0
 62
    15
 10
5.042840
 20
1.811040
 11
5.034480
 21
2.549800
 12
5.071000
 22
1.783320
 13
5.063080
 23
2.522080
  0
POLYLINE
  8
0
  6
CONTINUOUS
 66
     1
 40
0.000000
 41
0.000000
  0
VERTEX
  8
0
  6
CONTINUOUS
 10
5.042840
 20
1.811040
  0
VERTEX
  8
0
  6
CONTINUOUS
 10
5.034480
 20
2.549800
  0
VERTEX
  8
0
  6
CONTINUOUS
 10
5.063080
 20
2.522080
  0
VERTEX
  8
0
  6
CONTINUOUS
 10
5.071000
 20
1.783320
  0
VERTEX
  8
0
  6
CONTINUOUS
 10
5.042840
 20
1.811040
  0
SEQEND
  8
0
  0
SOLID
  8
0
 62
    15
 10
5.071000
 20
1.783320
 11
5.063080
 21
2.522080
 12
5.096080
 22
1.760880
 13
5.087720
 23
2.499640
  0
POLYLINE
  8
0
  6
CONTINUOUS
 66
     1
 40
0.000000
 41
0.000000
  0
VERTEX
  8
0
  6
CONTINUOUS
 10
5.071000
 20
1.783320
  0
VERTEX
  8
0
  6
CONTINUOUS
 10
5.063080
 20
2.522080
  0
VERTEX
  8
0
  6
CONTINUOUS
 10
5.087720
 20
2.499640
  0
VERTEX
  8
0
  6
CONTINUOUS
 10
5.096080
 20
1.760880
  0
VERTEX
  8
0
  6
CONTINUOUS
 10
5.071000
 20
1.783320
  0
SEQEND
  8
0
  0
SOLID
  8
0
 62
    15
 10
5.096080
 20
1.760880
 11
5.087720
 21
2.499640
 12
5.118080
 22
1.742840
 13
5.109720
 23
2.481600
  0
POLYLINE
  8
0
  6
CONTINUOUS
 66
     1
 40
0.000000
 41
0.000000
  0
VERTEX
  8
0
  6
CONTINUOUS
 10
5.096080
 20
1.760880
  0
VERTEX
  8
0
  6
CONTINUOUS
 10
5.087720
 20
2.499640
  0
VERTEX
  8
0
  6
CONTINUOUS
 10
5.109720
 20
2.481600
  0
VERTEX
  8
0
  6
CONTINUOUS
 10
5.118080
 20
1.742840
  0
VERTEX
  8
0
  6
CONTINUOUS
 10
5.096080
 20
1.760880
  0
SEQEND
  8
0
  0
SOLID
  8
0
 62
    15
 10
5.118080
 20
1.742840
 11
5.109720
 21
2.481600
 12
5.138320
 22
1.728760
 13
5.129960
 23
2.467520
  0
POLYLINE
  8
0
  6
CONTINUOUS
 66
     1
 40
0.000000
 41
0.000000
  0
VERTEX
  8
0
  6
CONTINUOUS
 10
5.118080
 20
1.742840
  0
VERTEX
  8
0
  6
CONTINUOUS
 10
5.109720
 20
2.481600
  0
VERTEX
  8
0
  6
CONTINUOUS
 10
5.129960
 20
2.467520
  0
VERTEX
  8
0
  6
CONTINUOUS
 10
5.138320
 20
1.728760
  0
VERTEX
  8
0
  6
CONTINUOUS
 10
5.118080
 20
1.742840
  0
SEQEND
  8
0
  0
SOLID
  8
0
 62
    15
 10
5.138320
 20
1.728760
 11
5.129960
 21
2.467520
 12
5.177040
 22
1.710720
 13
5.169120
 23
2.449480
  0
POLYLINE
  8
0
  6
CONTINUOUS
 66
     1
 40
0.000000
 41
0.000000
  0
VERTEX
  8
0
  6
CONTINUOUS
 10
5.138320
 20
1.728760
  0
VERTEX
  8
0
  6
CONTINUOUS
 10
5.129960
 20
2.467520
  0
VERTEX
  8
0
  6
CONTINUOUS
 10
5.169120
 20
2.449480
  0
VERTEX
  8
0
  6
CONTINUOUS
 10
5.177040
 20
1.710720
  0
VERTEX
  8
0
  6
CONTINUOUS
 10
5.138320
 20
1.728760
  0
SEQEND
  8
0
  0
SOLID
  8
0
 62
    15
 10
5.177040
 20
1.710720
 11
5.169120
 21
2.449480
 12
5.219720
 22
1.702800
 13
5.211800
 23
2.441560
  0
POLYLINE
  8
0
  6
CONTINUOUS
 66
     1
 40
0.000000
 41
0.000000
  0
VERTEX
  8
0
  6
CONTINUOUS
 10
5.177040
 20
1.710720
  0
VERTEX
  8
0
  6
CONTINUOUS
 10
5.169120
 20
2.449480
  0
VERTEX
  8
0
  6
CONTINUOUS
 10
5.211800
 20
2.441560
  0
VERTEX
  8
0
  6
CONTINUOUS
 10
5.219720
 20
1.702800
  0
VERTEX
  8
0
  6
CONTINUOUS
 10
5.177040
 20
1.710720
  0
SEQEND
  8
0
  0
SOLID
  8
0
 62
    15
 10
5.219720
 20
1.702800
 11
5.211800
 21
2.441560
 12
5.221920
 22
1.702800
 13
5.213560
 23
2.441560
  0
POLYLINE
  8
0
  6
CONTINUOUS
 66
     1
 40
0.000000
 41
0.000000
  0
VERTEX
  8
0
  6
CONTINUOUS
 10
5.219720
 20
1.702800
  0
VERTEX
  8
0
  6
CONTINUOUS
 10
5.211800
 20
2.441560
  0
VERTEX
  8
0
  6
CONTINUOUS
 10
5.213560
 20
2.441560
  0
VERTEX
  8
0
  6
CONTINUOUS
 10
5.221920
 20
1.702800
  0
VERTEX
  8
0
  6
CONTINUOUS
 10
5.219720
 20
1.702800
  0
SEQEND
  8
0
  0
SOLID
  8
0
 62
    15
 10
5.221920
 20
1.702800
 11
5.213560
 21
2.441560
 12
5.231600
 22
1.725680
 13
5.223240
 23
2.464440
  0
POLYLINE
  8
0
  6
CONTINUOUS
 66
     1
 40
0.000000
 41
0.000000
  0
VERTEX
  8
0
  6
CONTINUOUS
 10
5.221920
 20
1.702800
  0
VERTEX
  8
0
  6
CONTINUOUS
 10
5.213560
 20
2.441560
  0
VERTEX
  8
0
  6
CONTINUOUS
 10
5.223240
 20
2.464440
  0
VERTEX
  8
0
  6
CONTINUOUS
 10
5.231600
 20
1.725680
  0
VERTEX
  8
0
  6
CONTINUOUS
 10
5.221920
 20
1.702800
  0
SEQEND
  8
0
  0
SOLID
  8
0
 62
    15
 10
5.231600
 20
1.725680
 11
5.223240
 21
2.464440
 12
5.242600
 22
1.745040
 13
5.234680
 23
2.483800
  0
POLYLINE
  8
0
  6
CONTINUOUS
 66
     1
 40
0.000000
 41
0.000000
  0
VERTEX
  8
0
  6
CONTINUOUS
 10
5.231600
 20
1.725680
  0
VERTEX
  8
0
  6
CONTINUOUS
 10
5.223240
 20
2.464440
  0
VERTEX
  8
0
  6
CONTINUOUS
 10
5.234680
 20
2.483800
  0
VERTEX
  8
0
  6
CONTINUOUS
 10
5.242600
 20
1.745040
  0
VERTEX
  8
0
  6
CONTINUOUS
 10
5.231600
 20
1.725680
  0
SEQEND
  8
0
  0
SOLID
  8
0
 62
    15
 10
5.242600
 20
1.745040
 11
5.234680
 21
2.483800
 12
5.269440
 22
1.772760
 13
5.261080
 23
2.511520
  0
POLYLINE
  8
0
  6
CONTINUOUS
 66
     1
 40
0.000000
 41
0.000000
  0
VERTEX
  8
0
  6
CONTINUOUS
 10
5.242600
 20
1.745040
  0
VERTEX
  8
0
  6
CONTINUOUS
 10
5.234680
 20
2.483800
  0
VERTEX
  8
0
  6
CONTINUOUS
 10
5.261080
 20
2.511520
  0
VERTEX
  8
0
  6
CONTINUOUS
 10
5.269440
 20
1.772760
  0
VERTEX
  8
0
  6
CONTINUOUS
 10
5.242600
 20
1.745040
  0
SEQEND
  8
0
  0
SOLID
  8
0
 62
    15
 10
5.269440
 20
1.772760
 11
5.261080
 21
2.511520
 12
5.298920
 22
1.787280
 13
5.291000
 23
2.526040
  0
POLYLINE
  8
0
  6
CONTINUOUS
 66
     1
 40
0.000000
 41
0.000000
  0
VERTEX
  8
0
  6
CONTINUOUS
 10
5.269440
 20
1.772760
  0
VERTEX
  8
0
  6
CONTINUOUS
 10
5.261080
 20
2.511520
  0
VERTEX
  8
0
  6
CONTINUOUS
 10
5.291000
 20
2.526040
  0
VERTEX
  8
0
  6
CONTINUOUS
 10
5.298920
 20
1.787280
  0
VERTEX
  8
0
  6
CONTINUOUS
 10
5.269440
 20
1.772760
  0
SEQEND
  8
0
  0
SOLID
  8
0
 62
    15
 10
5.298920
 20
1.787280
 11
5.291000
 21
2.526040
 12
5.329280
 22
1.789920
 13
5.320920
 23
2.528680
  0
POLYLINE
  8
0
  6
CONTINUOUS
 66
     1
 40
0.000000
 41
0.000000
  0
VERTEX
  8
0
  6
CONTINUOUS
 10
5.298920
 20
1.787280
  0
VERTEX
  8
0
  6
CONTINUOUS
 10
5.291000
 20
2.526040
  0
VERTEX
  8
0
  6
CONTINUOUS
 10
5.320920
 20
2.528680
  0
VERTEX
  8
0
  6
CONTINUOUS
 10
5.329280
 20
1.789920
  0
VERTEX
  8
0
  6
CONTINUOUS
 10
5.298920
 20
1.787280
  0
SEQEND
  8
0
  0
SOLID
  8
0
 62
    15
 10
5.329280
 20
1.789920
 11
5.320920
 21
2.528680
 12
5.357440
 22
1.781560
 13
5.349080
 23
2.520320
  0
POLYLINE
  8
0
  6
CONTINUOUS
 66
     1
 40
0.000000
 41
0.000000
  0
VERTEX
  8
0
  6
CONTINUOUS
 10
5.329280
 20
1.789920
  0
VERTEX
  8
0
  6
CONTINUOUS
 10
5.320920
 20
2.528680
  0
VERTEX
  8
0
  6
CONTINUOUS
 10
5.349080
 20
2.520320
  0
VERTEX
  8
0
  6
CONTINUOUS
 10
5.357440
 20
1.781560
  0
VERTEX
  8
0
  6
CONTINUOUS
 10
5.329280
 20
1.789920
  0
SEQEND
  8
0
  0
SOLID
  8
0
 62
    15
 10
5.357440
 20
1.781560
 11
5.349080
 21
2.520320
 12
5.381200
 22
1.763520
 13
5.373280
 23
2.502280
  0
POLYLINE
  8
0
  6
CONTINUOUS
 66
     1
 40
0.000000
 41
0.000000
  0
VERTEX
  8
0
  6
CONTINUOUS
 10
5.357440
 20
1.781560
  0
VERTEX
  8
0
  6
CONTINUOUS
 10
5.349080
 20
2.520320
  0
VERTEX
  8
0
  6
CONTINUOUS
 10
5.373280
 20
2.502280
  0
VERTEX
  8
0
  6
CONTINUOUS
 10
5.381200
 20
1.763520
  0
VERTEX
  8
0
  6
CONTINUOUS
 10
5.357440
 20
1.781560
  0
SEQEND
  8
0
  0
SOLID
  8
0
 62
    15
 10
5.381200
 20
1.763520
 11
5.373280
 21
2.502280
 12
5.397920
 22
1.737560
 13
5.390000
 23
2.476320
  0
POLYLINE
  8
0
  6
CONTINUOUS
 66
     1
 40
0.000000
 41
0.000000
  0
VERTEX
  8
0
  6
CONTINUOUS
 10
5.381200
 20
1.763520
  0
VERTEX
  8
0
  6
CONTINUOUS
 10
5.373280
 20
2.502280
  0
VERTEX
  8
0
  6
CONTINUOUS
 10
5.390000
 20
2.476320
  0
VERTEX
  8
0
  6
CONTINUOUS
 10
5.397920
 20
1.737560
  0
VERTEX
  8
0
  6
CONTINUOUS
 10
5.381200
 20
1.763520
  0
SEQEND
  8
0
  0
SOLID
  8
0
 62
    15
 10
6.192560
 20
1.581800
 11
6.184640
 21
2.320560
 12
6.265600
 22
1.581800
 13
6.257680
 23
2.320560
  0
POLYLINE
  8
0
  6
CONTINUOUS
 66
     1
 40
0.000000
 41
0.000000
  0
VERTEX
  8
0
  6
CONTINUOUS
 10
6.192560
 20
1.581800
  0
VERTEX
  8
0
  6
CONTINUOUS
 10
6.184640
 20
2.320560
  0
VERTEX
  8
0
  6
CONTINUOUS
 10
6.257680
 20
2.320560
  0
VERTEX
  8
0
  6
CONTINUOUS
 10
6.265600
 20
1.581800
  0
VERTEX
  8
0
  6
CONTINUOUS
 10
6.192560
 20
1.581800
  0
SEQEND
  8
0
  0
SOLID
  8
0
 62
    15
 10
5.405400
 20
1.702800
 11
5.397040
 21
2.441560
 12
6.192560
 22
1.702800
 13
6.184640
 23
2.441560
  0
POLYLINE
  8
0
  6
CONTINUOUS
 66
     1
 40
0.000000
 41
0.000000
  0
VERTEX
  8
0
  6
CONTINUOUS
 10
5.405400
 20
1.702800
  0
VERTEX
  8
0
  6
CONTINUOUS
 10
5.397040
 20
2.441560
  0
VERTEX
  8
0
  6
CONTINUOUS
 10
6.184640
 20
2.441560
  0
VERTEX
  8
0
  6
CONTINUOUS
 10
6.192560
 20
1.702800
  0
VERTEX
  8
0
  6
CONTINUOUS
 10
5.405400
 20
1.702800
  0
SEQEND
  8
0
  0
SOLID
  8
0
 62
    15
 10
5.405400
 20
1.705000
 11
5.397040
 21
2.443760
 12
5.405400
 22
1.702800
 13
5.397040
 23
2.441560
  0
POLYLINE
  8
0
  6
CONTINUOUS
 66
     1
 40
0.000000
 41
0.000000
  0
VERTEX
  8
0
  6
CONTINUOUS
 10
5.405400
 20
1.705000
  0
VERTEX
  8
0
  6
CONTINUOUS
 10
5.397040
 20
2.443760
  0
VERTEX
  8
0
  6
CONTINUOUS
 10
5.397040
 20
2.441560
  0
VERTEX
  8
0
  6
CONTINUOUS
 10
5.405400
 20
1.702800
  0
VERTEX
  8
0
  6
CONTINUOUS
 10
5.405400
 20
1.705000
  0
SEQEND
  8
0
  0
SOLID
  8
0
 62
    15
 10
5.397920
 20
1.737560
 11
5.390000
 21
2.476320
 12
5.405400
 22
1.705000
 13
5.397040
 23
2.443760
  0
POLYLINE
  8
0
  6
CONTINUOUS
 66
     1
 40
0.000000
 41
0.000000
  0
VERTEX
  8
0
  6
CONTINUOUS
 10
5.397920
 20
1.737560
  0
VERTEX
  8
0
  6
CONTINUOUS
 10
5.390000
 20
2.476320
  0
VERTEX
  8
0
  6
CONTINUOUS
 10
5.397040
 20
2.443760
  0
VERTEX
  8
0
  6
CONTINUOUS
 10
5.405400
 20
1.705000
  0
VERTEX
  8
0
  6
CONTINUOUS
 10
5.397920
 20
1.737560
  0
SEQEND
  8
0
  0
SOLID
  8
0
 62
    15
 10
6.265600
 20
1.581800
 11
6.257680
 21
2.320560
 12
6.284080
 22
1.628440
 13
6.276160
 23
2.367200
  0
POLYLINE
  8
0
  6
CONTINUOUS
 66
     1
 40
0.000000
 41
0.000000
  0
VERTEX
  8
0
  6
CONTINUOUS
 10
6.265600
 20
1.581800
  0
VERTEX
  8
0
  6
CONTINUOUS
 10
6.257680
 20
2.320560
  0
VERTEX
  8
0
  6
CONTINUOUS
 10
6.276160
 20
2.367200
  0
VERTEX
  8
0
  6
CONTINUOUS
 10
6.284080
 20
1.628440
  0
VERTEX
  8
0
  6
CONTINUOUS
 10
6.265600
 20
1.581800
  0
SEQEND
  8
0
  0
SOLID
  8
0
 62
    15
 10
6.284080
 20
1.628440
 11
6.276160
 21
2.367200
 12
6.305640
 22
1.659680
 13
6.297720
 23
2.398440
  0
POLYLINE
  8
0
  6
CONTINUOUS
 66
     1
 40
0.000000
 41
0.000000
  0
VERTEX
  8
0
  6
CONTINUOUS
 10
6.284080
 20
1.628440
  0
VERTEX
  8
0
  6
CONTINUOUS
 10
6.276160
 20
2.367200
  0
VERTEX
  8
0
  6
CONTINUOUS
 10
6.297720
 20
2.398440
  0
VERTEX
  8
0
  6
CONTINUOUS
 10
6.305640
 20
1.659680
  0
VERTEX
  8
0
  6
CONTINUOUS
 10
6.284080
 20
1.628440
  0
SEQEND
  8
0
  0
SOLID
  8
0
 62
    15
 10
6.305640
 20
1.659680
 11
6.297720
 21
2.398440
 12
6.329400
 22
1.677280
 13
6.321480
 23
2.416040
  0
POLYLINE
  8
0
  6
CONTINUOUS
 66
     1
 40
0.000000
 41
0.000000
  0
VERTEX
  8
0
  6
CONTINUOUS
 10
6.305640
 20
1.659680
  0
VERTEX
  8
0
  6
CONTINUOUS
 10
6.297720
 20
2.398440
  0
VERTEX
  8
0
  6
CONTINUOUS
 10
6.321480
 20
2.416040
  0
VERTEX
  8
0
  6
CONTINUOUS
 10
6.329400
 20
1.677280
  0
VERTEX
  8
0
  6
CONTINUOUS
 10
6.305640
 20
1.659680
  0
SEQEND
  8
0
  0
SOLID
  8
0
 62
    15
 10
6.329400
 20
1.677280
 11
6.321480
 21
2.416040
 12
6.355360
 22
1.682560
 13
6.347440
 23
2.421320
  0
POLYLINE
  8
0
  6
CONTINUOUS
 66
     1
 40
0.000000
 41
0.000000
  0
VERTEX
  8
0
  6
CONTINUOUS
 10
6.329400
 20
1.677280
  0
VERTEX
  8
0
  6
CONTINUOUS
 10
6.321480
 20
2.416040
  0
VERTEX
  8
0
  6
CONTINUOUS
 10
6.347440
 20
2.421320
  0
VERTEX
  8
0
  6
CONTINUOUS
 10
6.355360
 20
1.682560
  0
VERTEX
  8
0
  6
CONTINUOUS
 10
6.329400
 20
1.677280
  0
SEQEND
  8
0
  0
SOLID
  8
0
 62
    15
 10
6.355360
 20
1.682560
 11
6.347440
 21
2.421320
 12
6.383080
 22
1.678160
 13
6.374720
 23
2.416920
  0
POLYLINE
  8
0
  6
CONTINUOUS
 66
     1
 40
0.000000
 41
0.000000
  0
VERTEX
  8
0
  6
CONTINUOUS
 10
6.355360
 20
1.682560
  0
VERTEX
  8
0
  6
CONTINUOUS
 10
6.347440
 20
2.421320
  0
VERTEX
  8
0
  6
CONTINUOUS
 10
6.374720
 20
2.416920
  0
VERTEX
  8
0
  6
CONTINUOUS
 10
6.383080
 20
1.678160
  0
VERTEX
  8
0
  6
CONTINUOUS
 10
6.355360
 20
1.682560
  0
SEQEND
  8
0
  0
SOLID
  8
0
 62
    15
 10
6.383080
 20
1.678160
 11
6.374720
 21
2.416920
 12
6.411680
 22
1.664960
 13
6.403760
 23
2.403720
  0
POLYLINE
  8
0
  6
CONTINUOUS
 66
     1
 40
0.000000
 41
0.000000
  0
VERTEX
  8
0
  6
CONTINUOUS
 10
6.383080
 20
1.678160
  0
VERTEX
  8
0
  6
CONTINUOUS
 10
6.374720
 20
2.416920
  0
VERTEX
  8
0
  6
CONTINUOUS
 10
6.403760
 20
2.403720
  0
VERTEX
  8
0
  6
CONTINUOUS
 10
6.411680
 20
1.664960
  0
VERTEX
  8
0
  6
CONTINUOUS
 10
6.383080
 20
1.678160
  0
SEQEND
  8
0
  0
SOLID
  8
0
 62
    15
 10
6.411680
 20
1.664960
 11
6.403760
 21
2.403720
 12
6.441600
 22
1.644720
 13
6.433240
 23
2.383480
  0
POLYLINE
  8
0
  6
CONTINUOUS
 66
     1
 40
0.000000
 41
0.000000
  0
VERTEX
  8
0
  6
CONTINUOUS
 10
6.411680
 20
1.664960
  0
VERTEX
  8
0
  6
CONTINUOUS
 10
6.403760
 20
2.403720
  0
VERTEX
  8
0
  6
CONTINUOUS
 10
6.433240
 20
2.383480
  0
VERTEX
  8
0
  6
CONTINUOUS
 10
6.441600
 20
1.644720
  0
VERTEX
  8
0
  6
CONTINUOUS
 10
6.411680
 20
1.664960
  0
SEQEND
  8
0
  0
SOLID
  8
0
 62
    15
 10
6.441600
 20
1.644720
 11
6.433240
 21
2.383480
 12
6.471960
 22
1.619200
 13
6.463600
 23
2.358400
  0
POLYLINE
  8
0
  6
CONTINUOUS
 66
     1
 40
0.000000
 41
0.000000
  0
VERTEX
  8
0
  6
CONTINUOUS
 10
6.441600
 20
1.644720
  0
VERTEX
  8
0
  6
CONTINUOUS
 10
6.433240
 20
2.383480
  0
VERTEX
  8
0
  6
CONTINUOUS
 10
6.463600
 20
2.358400
  0
VERTEX
  8
0
  6
CONTINUOUS
 10
6.471960
 20
1.619200
  0
VERTEX
  8
0
  6
CONTINUOUS
 10
6.441600
 20
1.644720
  0
SEQEND
  8
0
  0
SOLID
  8
0
 62
    15
 10
6.471960
 20
1.619200
 11
6.463600
 21
2.358400
 12
6.519040
 22
1.575200
 13
6.510680
 23
2.314400
  0
POLYLINE
  8
0
  6
CONTINUOUS
 66
     1
 40
0.000000
 41
0.000000
  0
VERTEX
  8
0
  6
CONTINUOUS
 10
6.471960
 20
1.619200
  0
VERTEX
  8
0
  6
CONTINUOUS
 10
6.463600
 20
2.358400
  0
VERTEX
  8
0
  6
CONTINUOUS
 10
6.510680
 20
2.314400
  0
VERTEX
  8
0
  6
CONTINUOUS
 10
6.519040
 20
1.575200
  0
VERTEX
  8
0
  6
CONTINUOUS
 10
6.471960
 20
1.619200
  0
SEQEND
  8
0
  0
SOLID
  8
0
 62
    15
 10
6.519040
 20
1.575200
 11
6.510680
 21
2.314400
 12
6.562600
 22
1.537360
 13
6.554240
 23
2.276120
  0
POLYLINE
  8
0
  6
CONTINUOUS
 66
     1
 40
0.000000
 41
0.000000
  0
VERTEX
  8
0
  6
CONTINUOUS
 10
6.519040
 20
1.575200
  0
VERTEX
  8
0
  6
CONTINUOUS
 10
6.510680
 20
2.314400
  0
VERTEX
  8
0
  6
CONTINUOUS
 10
6.554240
 20
2.276120
  0
VERTEX
  8
0
  6
CONTINUOUS
 10
6.562600
 20
1.537360
  0
VERTEX
  8
0
  6
CONTINUOUS
 10
6.519040
 20
1.575200
  0
SEQEND
  8
0
  0
SOLID
  8
0
 62
    15
 10
6.562600
 20
1.537360
 11
6.554240
 21
2.276120
 12
6.610560
 22
1.510520
 13
6.602640
 23
2.249720
  0
POLYLINE
  8
0
  6
CONTINUOUS
 66
     1
 40
0.000000
 41
0.000000
  0
VERTEX
  8
0
  6
CONTINUOUS
 10
6.562600
 20
1.537360
  0
VERTEX
  8
0
  6
CONTINUOUS
 10
6.554240
 20
2.276120
  0
VERTEX
  8
0
  6
CONTINUOUS
 10
6.602640
 20
2.249720
  0
VERTEX
  8
0
  6
CONTINUOUS
 10
6.610560
 20
1.510520
  0
VERTEX
  8
0
  6
CONTINUOUS
 10
6.562600
 20
1.537360
  0
SEQEND
  8
0
  0
SOLID
  8
0
 62
    15
 10
6.610560
 20
1.510520
 11
6.602640
 21
2.249720
 12
6.639160
 22
1.503480
 13
6.630800
 23
2.242240
  0
POLYLINE
  8
0
  6
CONTINUOUS
 66
     1
 40
0.000000
 41
0.000000
  0
VERTEX
  8
0
  6
CONTINUOUS
 10
6.610560
 20
1.510520
  0
VERTEX
  8
0
  6
CONTINUOUS
 10
6.602640
 20
2.249720
  0
VERTEX
  8
0
  6
CONTINUOUS
 10
6.630800
 20
2.242240
  0
VERTEX
  8
0
  6
CONTINUOUS
 10
6.639160
 20
1.503480
  0
VERTEX
  8
0
  6
CONTINUOUS
 10
6.610560
 20
1.510520
  0
SEQEND
  8
0
  0
SOLID
  8
0
 62
    15
 10
6.639160
 20
1.503480
 11
6.630800
 21
2.242240
 12
6.671720
 22
1.500840
 13
6.663800
 23
2.239600
  0
POLYLINE
  8
0
  6
CONTINUOUS
 66
     1
 40
0.000000
 41
0.000000
  0
VERTEX
  8
0
  6
CONTINUOUS
 10
6.639160
 20
1.503480
  0
VERTEX
  8
0
  6
CONTINUOUS
 10
6.630800
 20
2.242240
  0
VERTEX
  8
0
  6
CONTINUOUS
 10
6.663800
 20
2.239600
  0
VERTEX
  8
0
  6
CONTINUOUS
 10
6.671720
 20
1.500840
  0
VERTEX
  8
0
  6
CONTINUOUS
 10
6.639160
 20
1.503480
  0
SEQEND
  8
0
  0
SOLID
  8
0
 62
    15
 10
6.671720
 20
1.500840
 11
6.663800
 21
2.239600
 12
6.707360
 22
1.502600
 13
6.699000
 23
2.241360
  0
POLYLINE
  8
0
  6
CONTINUOUS
 66
     1
 40
0.000000
 41
0.000000
  0
VERTEX
  8
0
  6
CONTINUOUS
 10
6.671720
 20
1.500840
  0
VERTEX
  8
0
  6
CONTINUOUS
 10
6.663800
 20
2.239600
  0
VERTEX
  8
0
  6
CONTINUOUS
 10
6.699000
 20
2.241360
  0
VERTEX
  8
0
  6
CONTINUOUS
 10
6.707360
 20
1.502600
  0
VERTEX
  8
0
  6
CONTINUOUS
 10
6.671720
 20
1.500840
  0
SEQEND
  8
0
  0
SOLID
  8
0
 62
    15
 10
6.707360
 20
1.502600
 11
6.699000
 21
2.241360
 12
6.709120
 22
1.523280
 13
6.701200
 23
2.262480
  0
POLYLINE
  8
0
  6
CONTINUOUS
 66
     1
 40
0.000000
 41
0.000000
  0
VERTEX
  8
0
  6
CONTINUOUS
 10
6.707360
 20
1.502600
  0
VERTEX
  8
0
  6
CONTINUOUS
 10
6.699000
 20
2.241360
  0
VERTEX
  8
0
  6
CONTINUOUS
 10
6.701200
 20
2.262480
  0
VERTEX
  8
0
  6
CONTINUOUS
 10
6.709120
 20
1.523280
  0
VERTEX
  8
0
  6
CONTINUOUS
 10
6.707360
 20
1.502600
  0
SEQEND
  8
0
  0
SOLID
  8
0
 62
    15
 10
6.709120
 20
1.523280
 11
6.701200
 21
2.262480
 12
6.714400
 22
1.541760
 13
6.706480
 23
2.280520
  0
POLYLINE
  8
0
  6
CONTINUOUS
 66
     1
 40
0.000000
 41
0.000000
  0
VERTEX
  8
0
  6
CONTINUOUS
 10
6.709120
 20
1.523280
  0
VERTEX
  8
0
  6
CONTINUOUS
 10
6.701200
 20
2.262480
  0
VERTEX
  8
0
  6
CONTINUOUS
 10
6.706480
 20
2.280520
  0
VERTEX
  8
0
  6
CONTINUOUS
 10
6.714400
 20
1.541760
  0
VERTEX
  8
0
  6
CONTINUOUS
 10
6.709120
 20
1.523280
  0
SEQEND
  8
0
  0
SOLID
  8
0
 62
    15
 10
6.714400
 20
1.541760
 11
6.706480
 21
2.280520
 12
6.733760
 22
1.570360
 13
6.725840
 23
2.309560
  0
POLYLINE
  8
0
  6
CONTINUOUS
 66
     1
 40
0.000000
 41
0.000000
  0
VERTEX
  8
0
  6
CONTINUOUS
 10
6.714400
 20
1.541760
  0
VERTEX
  8
0
  6
CONTINUOUS
 10
6.706480
 20
2.280520
  0
VERTEX
  8
0
  6
CONTINUOUS
 10
6.725840
 20
2.309560
  0
VERTEX
  8
0
  6
CONTINUOUS
 10
6.733760
 20
1.570360
  0
VERTEX
  8
0
  6
CONTINUOUS
 10
6.714400
 20
1.541760
  0
SEQEND
  8
0
  0
SOLID
  8
0
 62
    15
 10
6.733760
 20
1.570360
 11
6.725840
 21
2.309560
 12
6.761480
 22
1.589280
 13
6.753120
 23
2.328040
  0
POLYLINE
  8
0
  6
CONTINUOUS
 66
     1
 40
0.000000
 41
0.000000
  0
VERTEX
  8
0
  6
CONTINUOUS
 10
6.733760
 20
1.570360
  0
VERTEX
  8
0
  6
CONTINUOUS
 10
6.725840
 20
2.309560
  0
VERTEX
  8
0
  6
CONTINUOUS
 10
6.753120
 20
2.328040
  0
VERTEX
  8
0
  6
CONTINUOUS
 10
6.761480
 20
1.589280
  0
VERTEX
  8
0
  6
CONTINUOUS
 10
6.733760
 20
1.570360
  0
SEQEND
  8
0
  0
SOLID
  8
0
 62
    15
 10
6.761480
 20
1.589280
 11
6.753120
 21
2.328040
 12
6.792720
 22
1.598080
 13
6.784360
 23
2.336840
  0
POLYLINE
  8
0
  6
CONTINUOUS
 66
     1
 40
0.000000
 41
0.000000
  0
VERTEX
  8
0
  6
CONTINUOUS
 10
6.761480
 20
1.589280
  0
VERTEX
  8
0
  6
CONTINUOUS
 10
6.753120
 20
2.328040
  0
VERTEX
  8
0
  6
CONTINUOUS
 10
6.784360
 20
2.336840
  0
VERTEX
  8
0
  6
CONTINUOUS
 10
6.792720
 20
1.598080
  0
VERTEX
  8
0
  6
CONTINUOUS
 10
6.761480
 20
1.589280
  0
SEQEND
  8
0
  0
SOLID
  8
0
 62
    15
 10
6.792720
 20
1.598080
 11
6.784360
 21
2.336840
 12
6.823960
 22
1.596320
 13
6.816040
 23
2.335080
  0
POLYLINE
  8
0
  6
CONTINUOUS
 66
     1
 40
0.000000
 41
0.000000
  0
VERTEX
  8
0
  6
CONTINUOUS
 10
6.792720
 20
1.598080
  0
VERTEX
  8
0
  6
CONTINUOUS
 10
6.784360
 20
2.336840
  0
VERTEX
  8
0
  6
CONTINUOUS
 10
6.816040
 20
2.335080
  0
VERTEX
  8
0
  6
CONTINUOUS
 10
6.823960
 20
1.596320
  0
VERTEX
  8
0
  6
CONTINUOUS
 10
6.792720
 20
1.598080
  0
SEQEND
  8
0
  0
SOLID
  8
0
 62
    15
 10
6.823960
 20
1.596320
 11
6.816040
 21
2.335080
 12
6.851240
 22
1.584000
 13
6.843320
 23
2.323200
  0
POLYLINE
  8
0
  6
CONTINUOUS
 66
     1
 40
0.000000
 41
0.000000
  0
VERTEX
  8
0
  6
CONTINUOUS
 10
6.823960
 20
1.596320
  0
VERTEX
  8
0
  6
CONTINUOUS
 10
6.816040
 20
2.335080
  0
VERTEX
  8
0
  6
CONTINUOUS
 10
6.843320
 20
2.323200
  0
VERTEX
  8
0
  6
CONTINUOUS
 10
6.851240
 20
1.584000
  0
VERTEX
  8
0
  6
CONTINUOUS
 10
6.823960
 20
1.596320
  0
SEQEND
  8
0
  0
SOLID
  8
0
 62
    15
 10
6.870600
 20
1.561560
 11
6.862680
 21
2.300320
 12
6.876320
 22
1.546160
 13
6.867960
 23
2.284920
  0
POLYLINE
  8
0
  6
CONTINUOUS
 66
     1
 40
0.000000
 41
0.000000
  0
VERTEX
  8
0
  6
CONTINUOUS
 10
6.870600
 20
1.561560
  0
VERTEX
  8
0
  6
CONTINUOUS
 10
6.862680
 20
2.300320
  0
VERTEX
  8
0
  6
CONTINUOUS
 10
6.867960
 20
2.284920
  0
VERTEX
  8
0
  6
CONTINUOUS
 10
6.876320
 20
1.546160
  0
VERTEX
  8
0
  6
CONTINUOUS
 10
6.870600
 20
1.561560
  0
SEQEND
  8
0
  0
SOLID
  8
0
 62
    15
 10
6.851240
 20
1.584000
 11
6.843320
 21
2.323200
 12
6.870600
 22
1.561560
 13
6.862680
 23
2.300320
  0
POLYLINE
  8
0
  6
CONTINUOUS
 66
     1
 40
0.000000
 41
0.000000
  0
VERTEX
  8
0
  6
CONTINUOUS
 10
6.851240
 20
1.584000
  0
VERTEX
  8
0
  6
CONTINUOUS
 10
6.843320
 20
2.323200
  0
VERTEX
  8
0
  6
CONTINUOUS
 10
6.862680
 20
2.300320
  0
VERTEX
  8
0
  6
CONTINUOUS
 10
6.870600
 20
1.561560
  0
VERTEX
  8
0
  6
CONTINUOUS
 10
6.851240
 20
1.584000
  0
SEQEND
  8
0
  0
SOLID
  8
0
 62
    15
 10
6.876320
 20
1.546160
 11
6.867960
 21
2.284920
 12
6.878080
 22
1.527680
 13
6.870160
 23
2.266440
  0
POLYLINE
  8
0
  6
CONTINUOUS
 66
     1
 40
0.000000
 41
0.000000
  0
VERTEX
  8
0
  6
CONTINUOUS
 10
6.876320
 20
1.546160
  0
VERTEX
  8
0
  6
CONTINUOUS
 10
6.867960
 20
2.284920
  0
VERTEX
  8
0
  6
CONTINUOUS
 10
6.870160
 20
2.266440
  0
VERTEX
  8
0
  6
CONTINUOUS
 10
6.878080
 20
1.527680
  0
VERTEX
  8
0
  6
CONTINUOUS
 10
6.876320
 20
1.546160
  0
SEQEND
  8
0
  0
SOLID
  8
0
 62
    15
 10
2.401080
 20
1.221440
 11
2.392720
 21
1.960200
 12
2.401080
 22
2.137960
 13
2.392720
 23
2.877160
  0
POLYLINE
  8
0
  6
CONTINUOUS
 66
     1
 40
0.000000
 41
0.000000
  0
VERTEX
  8
0
  6
CONTINUOUS
 10
2.401080
 20
1.221440
  0
VERTEX
  8
0
  6
CONTINUOUS
 10
2.392720
 20
1.960200
  0
VERTEX
  8
0
  6
CONTINUOUS
 10
2.392720
 20
2.877160
  0
VERTEX
  8
0
  6
CONTINUOUS
 10
2.401080
 20
2.137960
  0
VERTEX
  8
0
  6
CONTINUOUS
 10
2.401080
 20
1.221440
  0
SEQEND
  8
0
  0
SOLID
  8
0
 62
    15
 10
2.401080
 20
2.137960
 11
2.392720
 21
2.877160
 12
2.403280
 22
2.137960
 13
2.394920
 23
2.877160
  0
POLYLINE
  8
0
  6
CONTINUOUS
 66
     1
 40
0.000000
 41
0.000000
  0
VERTEX
  8
0
  6
CONTINUOUS
 10
2.401080
 20
2.137960
  0
VERTEX
  8
0
  6
CONTINUOUS
 10
2.392720
 20
2.877160
  0
VERTEX
  8
0
  6
CONTINUOUS
 10
2.394920
 20
2.877160
  0
VERTEX
  8
0
  6
CONTINUOUS
 10
2.403280
 20
2.137960
  0
VERTEX
  8
0
  6
CONTINUOUS
 10
2.401080
 20
2.137960
  0
SEQEND
  8
0
  0
POLYLINE
  8
0
  6
CONTINUOUS
 66
     1
 40
0.000000
 41
0.000000
  0
VERTEX
  8
0
  6
CONTINUOUS
 10
2.403280
 20
2.137960
  0
VERTEX
  8
0
  6
CONTINUOUS
 10
3.274040
 20
2.137960
  0
VERTEX
  8
0
  6
CONTINUOUS
 10
3.274480
 20
2.108040
  0
VERTEX
  8
0
  6
CONTINUOUS
 10
3.277120
 20
2.081640
  0
VERTEX
  8
0
  6
CONTINUOUS
 10
3.287240
 20
2.040720
  0
VERTEX
  8
0
  6
CONTINUOUS
 10
3.301760
 20
2.013440
  0
VERTEX
  8
0
  6
CONTINUOUS
 10
3.319800
 20
1.997600
  0
VERTEX
  8
0
  6
CONTINUOUS
 10
3.338720
 20
1.992320
  0
VERTEX
  8
0
  6
CONTINUOUS
 10
3.357200
 20
1.994520
  0
VERTEX
  8
0
  6
CONTINUOUS
 10
3.373040
 20
2.002880
  0
VERTEX
  8
0
  6
CONTINUOUS
 10
3.384480
 20
2.015200
  0
VERTEX
  8
0
  6
CONTINUOUS
 10
3.399440
 20
2.036320
  0
VERTEX
  8
0
  6
CONTINUOUS
 10
3.421000
 20
2.060080
  0
VERTEX
  8
0
  6
CONTINUOUS
 10
3.447840
 20
2.081640
  0
VERTEX
  8
0
  6
CONTINUOUS
 10
3.479960
 20
2.097480
  0
VERTEX
  8
0
  6
CONTINUOUS
 10
3.516040
 20
2.103200
  0
VERTEX
  8
0
  6
CONTINUOUS
 10
3.555640
 20
2.095280
  0
VERTEX
  8
0
  6
CONTINUOUS
 10
3.576760
 20
2.084720
  0
VERTEX
  8
0
  6
CONTINUOUS
 10
3.598320
 20
2.069320
  0
VERTEX
  8
0
  6
CONTINUOUS
 10
3.620320
 20
2.048200
  0
VERTEX
  8
0
  6
CONTINUOUS
 10
3.642760
 20
2.021360
  0
VERTEX
  8
0
  6
CONTINUOUS
 10
3.670920
 20
1.993200
  0
VERTEX
  8
0
  6
CONTINUOUS
 10
3.710960
 20
1.969000
  0
VERTEX
  8
0
  6
CONTINUOUS
 10
3.762880
 20
1.950080
  0
VERTEX
  8
0
  6
CONTINUOUS
 10
3.828000
 20
1.938200
  0
VERTEX
  8
0
  6
CONTINUOUS
 10
3.842080
 20
1.971200
  0
VERTEX
  8
0
  6
CONTINUOUS
 10
3.865400
 20
1.995840
  0
VERTEX
  8
0
  6
CONTINUOUS
 10
3.894000
 20
2.010800
  0
VERTEX
  8
0
  6
CONTINUOUS
 10
3.925240
 20
2.015200
  0
VERTEX
  8
0
  6
CONTINUOUS
 10
3.956040
 20
2.006840
  0
VERTEX
  8
0
  6
CONTINUOUS
 10
3.982440
 20
1.985280
  0
VERTEX
  8
0
  6
CONTINUOUS
 10
3.993440
 20
1.969000
  0
VERTEX
  8
0
  6
CONTINUOUS
 10
4.002240
 20
1.948760
  0
VERTEX
  8
0
  6
CONTINUOUS
 10
4.008400
 20
1.925000
  0
VERTEX
  8
0
  6
CONTINUOUS
 10
4.011480
 20
1.894640
  0
VERTEX
  8
0
  6
CONTINUOUS
 10
4.751120
 20
1.894640
  0
VERTEX
  8
0
  6
CONTINUOUS
 10
4.751120
 20
1.788160
  0
VERTEX
  8
0
  6
CONTINUOUS
 10
4.819760
 20
1.788160
  0
VERTEX
  8
0
  6
CONTINUOUS
 10
4.848360
 20
1.825120
  0
VERTEX
  8
0
  6
CONTINUOUS
 10
4.875640
 20
1.851520
  0
VERTEX
  8
0
  6
CONTINUOUS
 10
4.902920
 20
1.867360
  0
VERTEX
  8
0
  6
CONTINUOUS
 10
4.929760
 20
1.873080
  0
VERTEX
  8
0
  6
CONTINUOUS
 10
4.956600
 20
1.869560
  0
VERTEX
  8
0
  6
CONTINUOUS
 10
4.984320
 20
1.857680
  0
VERTEX
  8
0
  6
CONTINUOUS
 10
5.012920
 20
1.837880
  0
VERTEX
  8
0
  6
CONTINUOUS
 10
5.096080
 20
1.760880
  0
VERTEX
  8
0
  6
CONTINUOUS
 10
5.118080
 20
1.742840
  0
VERTEX
  8
0
  6
CONTINUOUS
 10
5.138320
 20
1.728760
  0
VERTEX
  8
0
  6
CONTINUOUS
 10
5.177040
 20
1.710720
  0
VERTEX
  8
0
  6
CONTINUOUS
 10
5.221920
 20
1.702800
  0
VERTEX
  8
0
  6
CONTINUOUS
 10
5.231600
 20
1.725680
  0
VERTEX
  8
0
  6
CONTINUOUS
 10
5.242600
 20
1.745040
  0
VERTEX
  8
0
  6
CONTINUOUS
 10
5.269440
 20
1.772760
  0
VERTEX
  8
0
  6
CONTINUOUS
 10
5.298920
 20
1.787280
  0
VERTEX
  8
0
  6
CONTINUOUS
 10
5.329280
 20
1.789920
  0
VERTEX
  8
0
  6
CONTINUOUS
 10
5.357440
 20
1.781560
  0
VERTEX
  8
0
  6
CONTINUOUS
 10
5.381200
 20
1.763520
  0
VERTEX
  8
0
  6
CONTINUOUS
 10
5.397920
 20
1.737560
  0
VERTEX
  8
0
  6
CONTINUOUS
 10
5.405400
 20
1.702800
  0
VERTEX
  8
0
  6
CONTINUOUS
 10
6.192560
 20
1.702800
  0
VERTEX
  8
0
  6
CONTINUOUS
 10
6.192560
 20
1.581800
  0
VERTEX
  8
0
  6
CONTINUOUS
 10
6.265600
 20
1.581800
  0
VERTEX
  8
0
  6
CONTINUOUS
 10
6.284080
 20
1.628440
  0
VERTEX
  8
0
  6
CONTINUOUS
 10
6.305640
 20
1.659680
  0
VERTEX
  8
0
  6
CONTINUOUS
 10
6.329400
 20
1.677280
  0
VERTEX
  8
0
  6
CONTINUOUS
 10
6.355360
 20
1.682560
  0
VERTEX
  8
0
  6
CONTINUOUS
 10
6.383080
 20
1.678160
  0
VERTEX
  8
0
  6
CONTINUOUS
 10
6.411680
 20
1.664960
  0
VERTEX
  8
0
  6
CONTINUOUS
 10
6.441600
 20
1.644720
  0
VERTEX
  8
0
  6
CONTINUOUS
 10
6.471960
 20
1.619200
  0
VERTEX
  8
0
  6
CONTINUOUS
 10
6.519040
 20
1.575200
  0
VERTEX
  8
0
  6
CONTINUOUS
 10
6.562600
 20
1.537360
  0
VERTEX
  8
0
  6
CONTINUOUS
 10
6.610560
 20
1.510520
  0
VERTEX
  8
0
  6
CONTINUOUS
 10
6.639160
 20
1.503480
  0
VERTEX
  8
0
  6
CONTINUOUS
 10
6.671720
 20
1.500840
  0
VERTEX
  8
0
  6
CONTINUOUS
 10
6.707360
 20
1.502600
  0
VERTEX
  8
0
  6
CONTINUOUS
 10
6.709120
 20
1.523280
  0
VERTEX
  8
0
  6
CONTINUOUS
 10
6.714400
 20
1.541760
  0
VERTEX
  8
0
  6
CONTINUOUS
 10
6.733760
 20
1.570360
  0
VERTEX
  8
0
  6
CONTINUOUS
 10
6.761480
 20
1.589280
  0
VERTEX
  8
0
  6
CONTINUOUS
 10
6.792720
 20
1.598080
  0
VERTEX
  8
0
  6
CONTINUOUS
 10
6.823960
 20
1.596320
  0
VERTEX
  8
0
  6
CONTINUOUS
 10
6.851240
 20
1.584000
  0
VERTEX
  8
0
  6
CONTINUOUS
 10
6.870600
 20
1.561560
  0
VERTEX
  8
0
  6
CONTINUOUS
 10
6.876320
 20
1.546160
  0
VERTEX
  8
0
  6
CONTINUOUS
 10
6.878080
 20
1.527680
  0
VERTEX
  8
0
  6
CONTINUOUS
 10
6.878080
 20
1.219240
  0
VERTEX
  8
0
  6
CONTINUOUS
 10
2.403280
 20
1.219240
  0
VERTEX
  8
0
  6
CONTINUOUS
 10
2.401080
 20
1.221440
  0
VERTEX
  8
0
  6
CONTINUOUS
 10
2.401080
 20
2.137960
  0
VERTEX
  8
0
  6
CONTINUOUS
 10
2.403280
 20
2.137960
  0
SEQEND
  8
0
  0
SOLID
  8
0
 62
    15
 10
2.522960
 20
2.324080
 11
2.527800
 21
3.080880
 12
2.557720
 22
2.289320
 13
2.562560
 23
3.046560
  0
POLYLINE
  8
0
  6
CONTINUOUS
 66
     1
 40
0.000000
 41
0.000000
  0
VERTEX
  8
0
  6
CONTINUOUS
 10
2.522960
 20
2.324080
  0
VERTEX
  8
0
  6
CONTINUOUS
 10
2.527800
 20
3.080880
  0
VERTEX
  8
0
  6
CONTINUOUS
 10
2.562560
 20
3.046560
  0
VERTEX
  8
0
  6
CONTINUOUS
 10
2.557720
 20
2.289320
  0
VERTEX
  8
0
  6
CONTINUOUS
 10
2.522960
 20
2.324080
  0
SEQEND
  8
0
  0
SOLID
  8
0
 62
    15
 10
2.359720
 20
2.678280
 11
2.364560
 21
3.435520
 12
2.359720
 22
2.503160
 13
2.364560
 23
3.259960
  0
POLYLINE
  8
0
  6
CONTINUOUS
 66
     1
 40
0.000000
 41
0.000000
  0
VERTEX
  8
0
  6
CONTINUOUS
 10
2.359720
 20
2.678280
  0
VERTEX
  8
0
  6
CONTINUOUS
 10
2.364560
 20
3.435520
  0
VERTEX
  8
0
  6
CONTINUOUS
 10
2.364560
 20
3.259960
  0
VERTEX
  8
0
  6
CONTINUOUS
 10
2.359720
 20
2.503160
  0
VERTEX
  8
0
  6
CONTINUOUS
 10
2.359720
 20
2.678280
  0
SEQEND
  8
0
  0
SOLID
  8
0
 62
    15
 10
2.409440
 20
2.139720
 11
2.414720
 21
2.896960
 12
2.409440
 22
1.218800
 13
2.414720
 23
1.976040
  0
POLYLINE
  8
0
  6
CONTINUOUS
 66
     1
 40
0.000000
 41
0.000000
  0
VERTEX
  8
0
  6
CONTINUOUS
 10
2.409440
 20
2.139720
  0
VERTEX
  8
0
  6
CONTINUOUS
 10
2.414720
 20
2.896960
  0
VERTEX
  8
0
  6
CONTINUOUS
 10
2.414720
 20
1.976040
  0
VERTEX
  8
0
  6
CONTINUOUS
 10
2.409440
 20
1.218800
  0
VERTEX
  8
0
  6
CONTINUOUS
 10
2.409440
 20
2.139720
  0
SEQEND
  8
0
  0
SOLID
  8
0
 62
    15
 10
2.467960
 20
2.503160
 11
2.472800
 21
3.259960
 12
2.467960
 22
2.498760
 13
2.472800
 23
3.256000
  0
POLYLINE
  8
0
  6
CONTINUOUS
 66
     1
 40
0.000000
 41
0.000000
  0
VERTEX
  8
0
  6
CONTINUOUS
 10
2.467960
 20
2.503160
  0
VERTEX
  8
0
  6
CONTINUOUS
 10
2.472800
 20
3.259960
  0
VERTEX
  8
0
  6
CONTINUOUS
 10
2.472800
 20
3.256000
  0
VERTEX
  8
0
  6
CONTINUOUS
 10
2.467960
 20
2.498760
  0
VERTEX
  8
0
  6
CONTINUOUS
 10
2.467960
 20
2.503160
  0
SEQEND
  8
0
  0
SOLID
  8
0
 62
    15
 10
2.467960
 20
2.498760
 11
2.472800
 21
3.256000
 12
2.470160
 22
2.460920
 13
2.475440
 23
3.218160
  0
POLYLINE
  8
0
  6
CONTINUOUS
 66
     1
 40
0.000000
 41
0.000000
  0
VERTEX
  8
0
  6
CONTINUOUS
 10
2.467960
 20
2.498760
  0
VERTEX
  8
0
  6
CONTINUOUS
 10
2.472800
 20
3.256000
  0
VERTEX
  8
0
  6
CONTINUOUS
 10
2.475440
 20
3.218160
  0
VERTEX
  8
0
  6
CONTINUOUS
 10
2.470160
 20
2.460920
  0
VERTEX
  8
0
  6
CONTINUOUS
 10
2.467960
 20
2.498760
  0
SEQEND
  8
0
  0
SOLID
  8
0
 62
    15
 10
2.470160
 20
2.460920
 11
2.475440
 21
3.218160
 12
2.475880
 22
2.426600
 13
2.480720
 23
3.183840
  0
POLYLINE
  8
0
  6
CONTINUOUS
 66
     1
 40
0.000000
 41
0.000000
  0
VERTEX
  8
0
  6
CONTINUOUS
 10
2.470160
 20
2.460920
  0
VERTEX
  8
0
  6
CONTINUOUS
 10
2.475440
 20
3.218160
  0
VERTEX
  8
0
  6
CONTINUOUS
 10
2.480720
 20
3.183840
  0
VERTEX
  8
0
  6
CONTINUOUS
 10
2.475880
 20
2.426600
  0
VERTEX
  8
0
  6
CONTINUOUS
 10
2.470160
 20
2.460920
  0
SEQEND
  8
0
  0
SOLID
  8
0
 62
    15
 10
2.475880
 20
2.426600
 11
2.480720
 21
3.183840
 12
2.494800
 22
2.368960
 13
2.499640
 23
3.126200
  0
POLYLINE
  8
0
  6
CONTINUOUS
 66
     1
 40
0.000000
 41
0.000000
  0
VERTEX
  8
0
  6
CONTINUOUS
 10
2.475880
 20
2.426600
  0
VERTEX
  8
0
  6
CONTINUOUS
 10
2.480720
 20
3.183840
  0
VERTEX
  8
0
  6
CONTINUOUS
 10
2.499640
 20
3.126200
  0
VERTEX
  8
0
  6
CONTINUOUS
 10
2.494800
 20
2.368960
  0
VERTEX
  8
0
  6
CONTINUOUS
 10
2.475880
 20
2.426600
  0
SEQEND
  8
0
  0
SOLID
  8
0
 62
    15
 10
2.494800
 20
2.368960
 11
2.499640
 21
3.126200
 12
2.522960
 22
2.324080
 13
2.527800
 23
3.080880
  0
POLYLINE
  8
0
  6
CONTINUOUS
 66
     1
 40
0.000000
 41
0.000000
  0
VERTEX
  8
0
  6
CONTINUOUS
 10
2.494800
 20
2.368960
  0
VERTEX
  8
0
  6
CONTINUOUS
 10
2.499640
 20
3.126200
  0
VERTEX
  8
0
  6
CONTINUOUS
 10
2.527800
 20
3.080880
  0
VERTEX
  8
0
  6
CONTINUOUS
 10
2.522960
 20
2.324080
  0
VERTEX
  8
0
  6
CONTINUOUS
 10
2.494800
 20
2.368960
  0
SEQEND
  8
0
  0
SOLID
  8
0
 62
    15
 10
1.793000
 20
2.678280
 11
1.797840
 21
3.435520
 12
2.359720
 22
2.678280
 13
2.364560
 23
3.435520
  0
POLYLINE
  8
0
  6
CONTINUOUS
 66
     1
 40
0.000000
 41
0.000000
  0
VERTEX
  8
0
  6
CONTINUOUS
 10
1.793000
 20
2.678280
  0
VERTEX
  8
0
  6
CONTINUOUS
 10
1.797840
 20
3.435520
  0
VERTEX
  8
0
  6
CONTINUOUS
 10
2.364560
 20
3.435520
  0
VERTEX
  8
0
  6
CONTINUOUS
 10
2.359720
 20
2.678280
  0
VERTEX
  8
0
  6
CONTINUOUS
 10
1.793000
 20
2.678280
  0
SEQEND
  8
0
  0
SOLID
  8
0
 62
     7
 10
2.557720
 20
2.289320
 11
2.562560
 21
3.046560
 12
2.597320
 22
2.263800
 13
2.602600
 23
3.021040
  0
POLYLINE
  8
0
  6
CONTINUOUS
 66
     1
 40
0.000000
 41
0.000000
  0
VERTEX
  8
0
  6
CONTINUOUS
 10
2.557720
 20
2.289320
  0
VERTEX
  8
0
  6
CONTINUOUS
 10
2.562560
 20
3.046560
  0
VERTEX
  8
0
  6
CONTINUOUS
 10
2.602600
 20
3.021040
  0
VERTEX
  8
0
  6
CONTINUOUS
 10
2.597320
 20
2.263800
  0
VERTEX
  8
0
  6
CONTINUOUS
 10
2.557720
 20
2.289320
  0
SEQEND
  8
0
  0
SOLID
  8
0
 62
     7
 10
2.597320
 20
2.263800
 11
2.602600
 21
3.021040
 12
2.640000
 22
2.245320
 13
2.644840
 23
3.002120
  0
POLYLINE
  8
0
  6
CONTINUOUS
 66
     1
 40
0.000000
 41
0.000000
  0
VERTEX
  8
0
  6
CONTINUOUS
 10
2.597320
 20
2.263800
  0
VERTEX
  8
0
  6
CONTINUOUS
 10
2.602600
 20
3.021040
  0
VERTEX
  8
0
  6
CONTINUOUS
 10
2.644840
 20
3.002120
  0
VERTEX
  8
0
  6
CONTINUOUS
 10
2.640000
 20
2.245320
  0
VERTEX
  8
0
  6
CONTINUOUS
 10
2.597320
 20
2.263800
  0
SEQEND
  8
0
  0
SOLID
  8
0
 62
    15
 10
2.724040
 20
2.221120
 11
2.728880
 21
2.978360
 12
2.724040
 22
2.217160
 13
2.729320
 23
2.973960
  0
POLYLINE
  8
0
  6
CONTINUOUS
 66
     1
 40
0.000000
 41
0.000000
  0
VERTEX
  8
0
  6
CONTINUOUS
 10
2.724040
 20
2.221120
  0
VERTEX
  8
0
  6
CONTINUOUS
 10
2.728880
 20
2.978360
  0
VERTEX
  8
0
  6
CONTINUOUS
 10
2.729320
 20
2.973960
  0
VERTEX
  8
0
  6
CONTINUOUS
 10
2.724040
 20
2.217160
  0
VERTEX
  8
0
  6
CONTINUOUS
 10
2.724040
 20
2.221120
  0
SEQEND
  8
0
  0
SOLID
  8
0
 62
    15
 10
2.640000
 20
2.245320
 11
2.644840
 21
3.002120
 12
2.724040
 22
2.221120
 13
2.728880
 23
2.978360
  0
POLYLINE
  8
0
  6
CONTINUOUS
 66
     1
 40
0.000000
 41
0.000000
  0
VERTEX
  8
0
  6
CONTINUOUS
 10
2.640000
 20
2.245320
  0
VERTEX
  8
0
  6
CONTINUOUS
 10
2.644840
 20
3.002120
  0
VERTEX
  8
0
  6
CONTINUOUS
 10
2.728880
 20
2.978360
  0
VERTEX
  8
0
  6
CONTINUOUS
 10
2.724040
 20
2.221120
  0
VERTEX
  8
0
  6
CONTINUOUS
 10
2.640000
 20
2.245320
  0
SEQEND
  8
0
  0
SOLID
  8
0
 62
    15
 10
2.724040
 20
2.139720
 11
2.728880
 21
2.896960
 12
2.724040
 22
2.139720
 13
2.729320
 23
2.896960
  0
POLYLINE
  8
0
  6
CONTINUOUS
 66
     1
 40
0.000000
 41
0.000000
  0
VERTEX
  8
0
  6
CONTINUOUS
 10
2.724040
 20
2.139720
  0
VERTEX
  8
0
  6
CONTINUOUS
 10
2.728880
 20
2.896960
  0
VERTEX
  8
0
  6
CONTINUOUS
 10
2.729320
 20
2.896960
  0
VERTEX
  8
0
  6
CONTINUOUS
 10
2.724040
 20
2.139720
  0
SEQEND
  8
0
  0
SOLID
  8
0
 62
    15
 10
2.724040
 20
2.217160
 11
2.729320
 21
2.973960
 12
2.724040
 22
2.139720
 13
2.728880
 23
2.896960
  0
POLYLINE
  8
0
  6
CONTINUOUS
 66
     1
 40
0.000000
 41
0.000000
  0
VERTEX
  8
0
  6
CONTINUOUS
 10
2.724040
 20
2.217160
  0
VERTEX
  8
0
  6
CONTINUOUS
 10
2.729320
 20
2.973960
  0
VERTEX
  8
0
  6
CONTINUOUS
 10
2.728880
 20
2.896960
  0
VERTEX
  8
0
  6
CONTINUOUS
 10
2.724040
 20
2.139720
  0
VERTEX
  8
0
  6
CONTINUOUS
 10
2.724040
 20
2.217160
  0
SEQEND
  8
0
  0
SOLID
  8
0
 62
    15
 10
2.359720
 20
2.503160
 11
2.364560
 21
3.259960
 12
2.467960
 22
2.503160
 13
2.472800
 23
3.259960
  0
POLYLINE
  8
0
  6
CONTINUOUS
 66
     1
 40
0.000000
 41
0.000000
  0
VERTEX
  8
0
  6
CONTINUOUS
 10
2.359720
 20
2.503160
  0
VERTEX
  8
0
  6
CONTINUOUS
 10
2.364560
 20
3.259960
  0
VERTEX
  8
0
  6
CONTINUOUS
 10
2.472800
 20
3.259960
  0
VERTEX
  8
0
  6
CONTINUOUS
 10
2.467960
 20
2.503160
  0
VERTEX
  8
0
  6
CONTINUOUS
 10
2.359720
 20
2.503160
  0
SEQEND
  8
0
  0
SOLID
  8
0
 62
    15
 10
1.786840
 20
2.678280
 11
1.791680
 21
3.435520
 12
1.793000
 22
2.678280
 13
1.797840
 23
3.435520
  0
POLYLINE
  8
0
  6
CONTINUOUS
 66
     1
 40
0.000000
 41
0.000000
  0
VERTEX
  8
0
  6
CONTINUOUS
 10
1.786840
 20
2.678280
  0
VERTEX
  8
0
  6
CONTINUOUS
 10
1.791680
 20
3.435520
  0
VERTEX
  8
0
  6
CONTINUOUS
 10
1.797840
 20
3.435520
  0
VERTEX
  8
0
  6
CONTINUOUS
 10
1.793000
 20
2.678280
  0
VERTEX
  8
0
  6
CONTINUOUS
 10
1.786840
 20
2.678280
  0
SEQEND
  8
0
  0
POLYLINE
  8
0
  6
CONTINUOUS
 66
     1
 40
0.000000
 41
0.000000
  0
VERTEX
  8
0
  6
CONTINUOUS
 10
1.793000
 20
2.678280
  0
VERTEX
  8
0
  6
CONTINUOUS
 10
2.359720
 20
2.678280
  0
VERTEX
  8
0
  6
CONTINUOUS
 10
2.359720
 20
2.503160
  0
VERTEX
  8
0
  6
CONTINUOUS
 10
2.467960
 20
2.503160
  0
VERTEX
  8
0
  6
CONTINUOUS
 10
2.467960
 20
2.498760
  0
VERTEX
  8
0
  6
CONTINUOUS
 10
2.470160
 20
2.460920
  0
VERTEX
  8
0
  6
CONTINUOUS
 10
2.475880
 20
2.426600
  0
VERTEX
  8
0
  6
CONTINUOUS
 10
2.494800
 20
2.368960
  0
VERTEX
  8
0
  6
CONTINUOUS
 10
2.522960
 20
2.324080
  0
VERTEX
  8
0
  6
CONTINUOUS
 10
2.557720
 20
2.289320
  0
VERTEX
  8
0
  6
CONTINUOUS
 10
2.597320
 20
2.263800
  0
VERTEX
  8
0
  6
CONTINUOUS
 10
2.640000
 20
2.245320
  0
VERTEX
  8
0
  6
CONTINUOUS
 10
2.724040
 20
2.221120
  0
VERTEX
  8
0
  6
CONTINUOUS
 10
2.724040
 20
2.217160
  0
VERTEX
  8
0
  6
CONTINUOUS
 10
2.724040
 20
2.139720
  0
VERTEX
  8
0
  6
CONTINUOUS
 10
2.409440
 20
2.139720
  0
VERTEX
  8
0
  6
CONTINUOUS
 10
2.409440
 20
1.218800
  0
VERTEX
  8
0
  6
CONTINUOUS
 10
1.786840
 20
1.218800
  0
VERTEX
  8
0
  6
CONTINUOUS
 10
1.786840
 20
2.678280
  0
VERTEX
  8
0
  6
CONTINUOUS
 10
1.793000
 20
2.678280
  0
SEQEND
  8
0
  0
TEXT
  8
0
 10
3.589520
 20
0.953480
 40
0.138176
  1
BA  310 3/4" x 4-9/16"
 41
1.000000
  7
SN0
 71
     0
 72
     5
 11
5.218301
 21
0.953480
  0
TEXT
  8
0
 10
3.589520
 20
0.761640
 40
0.138176
  1
BA  312 15/16" x 1-7/16"
 41
1.000000
  7
SN0
 71
     0
 72
     5
 11
5.402672
 21
0.761640
  0
TEXT
  8
0
 10
1.880560
 20
1.305040
 40
0.138176
  1
312
 41
1.000000
  7
SN0
 71
     0
 72
     5
 11
2.157373
 21
1.305040
  0
TEXT
  8
0
 10
2.506680
 20
1.305920
 40
0.138176
  1
310
 41
1.000000
  7
SN0
 71
     0
 72
     5
 11
2.783493
 21
1.305920
  0
ENDSEC
  0
EOF
