  0
SECTION
  2
HEADER
  9
$ACADVER
  1
AC1006
  9
$EXTMIN
 10
0.322520
 20
0.401720
  9
$EXTMAX
 10
8.074000
 20
8.906040
  9
$LTSCALE
 40
0.044000
  9
$PDMODE
 70
    35
  9
$PDSIZE
 40
0.035200
  0
ENDSEC
  0
SECTION
  2
TABLES
  0
TABLE
  2
LTYPE
 70
     9
  0
LTYPE
  2
CONTINUOUS
 70
    64
  3
Solid line
 72
    65
 73
     0
 40
0.000000
  0
LTYPE
  2
DASHED
 70
    64
  3
__ __ __ __ __ __ __ __ __ __ __ __ __ __ __
 72
    65
 73
     2
 40
0.000330
 49
0.000220
 49
-0.000110
  0
LTYPE
  2
HIDDEN
 70
    64
  3
 _ _ _ _ _ _ _ _ _ _ _ _ _ _ _ _ _ _ _ _ _ _
 72
    65
 73
     2
 40
0.000165
 49
0.000110
 49
-0.000055
  0
LTYPE
  2
CENTER
 70
    64
  3
____ _ ____ _ ____ _ ____ _ ____ _ ____ _ ____
 72
    65
 73
     4
 40
0.000880
 49
0.000550
 49
-0.000110
 49
0.000110
 49
-0.000110
  0
LTYPE
  2
PHANTOM
 70
    64
  3
_____ _ _ _____ _ _ _____ _ _ _____ _ _ ____
 72
    65
 73
     6
 40
0.001100
 49
0.000550
 49
-0.000110
 49
0.000110
 49
-0.000110
 49
0.000110
 49
-0.000110
  0
LTYPE
  2
DOT
 70
    64
  3
...............................................
 72
    65
 73
     2
 40
0.000110
 49
0.000000
 49
-0.000110
  0
LTYPE
  2
DASHDOT
 70
    64
  3
__ . __ . __ . __ . __ . __ . __ . __ . __ . __
 72
    65
 73
     4
 40
0.000440
 49
0.000220
 49
-0.000110
 49
0.000000
 49
-0.000110
  0
LTYPE
  2
BORDER
 70
    64
  3
__ __ . __ __ . __ __ . __ __ . __ __ . __ __
 72
    65
 73
     6
 40
0.000770
 49
0.000220
 49
-0.000110
 49
0.000220
 49
-0.000110
 49
0.000000
 49
-0.000110
  0
LTYPE
  2
DIVIDE
 70
    64
  3
__ . . __ . . __ . . __ . . __ . . __ . . __
 72
    65
 73
     6
 40
0.000550
 49
0.000220
 49
-0.000110
 49
0.000000
 49
-0.000110
 49
0.000000
 49
-0.000110
  0
LTYPE
  2
DOTDOT
 70
    64
  3
 . .  . .  . .  . .  . .  . . 
 72
    65
 73
     5
 40
0.000242
 49
-0.000110
 49
0.000000
 49
-0.000110
 49
0.000000
 49
-0.000110
  0
ENDTAB
  0
TABLE
  2
STYLE
 70
     2
  0
STYLE
 70
     0
  2
SN0
 40
0.000000
 41
0.000440
 50
0.000000
 71
     0
 42
0.000000
  3
ROMAND
  0
STYLE
 70
    68
  2
SV0
 40
0.000000
 41
0.000440
 50
0.000000
 71
     0
 42
0.000000
  3
ROMAND
  0
ENDTAB
  0
TABLE
  2
LAYER
 70
     3
  0
LAYER
  2
FOREGROUND
 70
    64
 62
     7
  6
CONTINUOUS
  0
LAYER
  2
BACKGROUND
 70
    65
 62
    -7
  6
CONTINUOUS
  0
LAYER
  2
0
 70
    64
 62
     7
  6
CONTINUOUS
  0
ENDTAB
  0
ENDSEC
  0
SECTION
  2
ENTITIES
  0
POLYLINE
  8
FOREGROUND
  6
CONTINUOUS
 66
     1
 40
0.000000
 41
0.000000
  0
VERTEX
  8
FOREGROUND
  6
CONTINUOUS
 10
0.000000
 20
9.307760
  0
VERTEX
  8
FOREGROUND
  6
CONTINUOUS
 10
8.499920
 20
9.307760
  0
VERTEX
  8
FOREGROUND
  6
CONTINUOUS
 10
8.499920
 20
-1.692240
  0
VERTEX
  8
FOREGROUND
  6
CONTINUOUS
 10
0.000000
 20
-1.692240
  0
VERTEX
  8
FOREGROUND
  6
CONTINUOUS
 10
0.000000
 20
9.307760
  0
SEQEND
  8
0
  0
POLYLINE
  8
FOREGROUND
  6
CONTINUOUS
 66
     1
 40
0.000000
 41
0.000000
  0
VERTEX
  8
FOREGROUND
  6
CONTINUOUS
 10
0.000000
 20
9.307760
  0
VERTEX
  8
FOREGROUND
  6
CONTINUOUS
 10
8.499920
 20
9.307760
  0
VERTEX
  8
FOREGROUND
  6
CONTINUOUS
 10
8.499920
 20
-1.692240
  0
VERTEX
  8
FOREGROUND
  6
CONTINUOUS
 10
0.000000
 20
-1.692240
  0
VERTEX
  8
FOREGROUND
  6
CONTINUOUS
 10
0.000000
 20
9.307760
  0
SEQEND
  8
0
  0
POLYLINE
  8
0
  6
CONTINUOUS
 66
     1
 40
0.012320
 41
0.012320
  0
VERTEX
  8
0
  6
CONTINUOUS
 10
1.225400
 20
8.072240
  0
VERTEX
  8
0
  6
CONTINUOUS
 10
1.225400
 20
8.905600
  0
VERTEX
  8
0
  6
CONTINUOUS
 10
1.225400
 20
8.903400
  0
VERTEX
  8
0
  6
CONTINUOUS
 10
6.110720
 20
8.903400
  0
VERTEX
  8
0
  6
CONTINUOUS
 10
6.110720
 20
8.109640
  0
VERTEX
  8
0
  6
CONTINUOUS
 10
5.858600
 20
8.109640
  0
VERTEX
  8
0
  6
CONTINUOUS
 10
5.858600
 20
7.870280
  0
VERTEX
  8
0
  6
CONTINUOUS
 10
5.598120
 20
7.938480
  0
VERTEX
  8
0
  6
CONTINUOUS
 10
5.338080
 20
8.000520
  0
VERTEX
  8
0
  6
CONTINUOUS
 10
5.207840
 20
8.028680
  0
VERTEX
  8
0
  6
CONTINUOUS
 10
5.078040
 20
8.055080
  0
VERTEX
  8
0
  6
CONTINUOUS
 10
4.948240
 20
8.078840
  0
VERTEX
  8
0
  6
CONTINUOUS
 10
4.754200
 20
8.110080
  0
VERTEX
  8
0
  6
CONTINUOUS
 10
4.560160
 20
8.135600
  0
VERTEX
  8
0
  6
CONTINUOUS
 10
4.431240
 20
8.148800
  0
VERTEX
  8
0
  6
CONTINUOUS
 10
4.302760
 20
8.158920
  0
VERTEX
  8
0
  6
CONTINUOUS
 10
4.174280
 20
8.165520
  0
VERTEX
  8
0
  6
CONTINUOUS
 10
4.046240
 20
8.168600
  0
VERTEX
  8
0
  6
CONTINUOUS
 10
3.918640
 20
8.168600
  0
VERTEX
  8
0
  6
CONTINUOUS
 10
3.791480
 20
8.164200
  0
VERTEX
  8
0
  6
CONTINUOUS
 10
3.664320
 20
8.155840
  0
VERTEX
  8
0
  6
CONTINUOUS
 10
3.537600
 20
8.143520
  0
VERTEX
  8
0
  6
CONTINUOUS
 10
3.411760
 20
8.126800
  0
VERTEX
  8
0
  6
CONTINUOUS
 10
3.285920
 20
8.105240
  0
VERTEX
  8
0
  6
CONTINUOUS
 10
3.160520
 20
8.079280
  0
VERTEX
  8
0
  6
CONTINUOUS
 10
3.035560
 20
8.048040
  0
VERTEX
  8
0
  6
CONTINUOUS
 10
2.973520
 20
8.030880
  0
VERTEX
  8
0
  6
CONTINUOUS
 10
2.849440
 20
7.992160
  0
VERTEX
  8
0
  6
CONTINUOUS
 10
2.725800
 20
7.947720
  0
VERTEX
  8
0
  6
CONTINUOUS
 10
2.603040
 20
7.898440
  0
VERTEX
  8
0
  6
CONTINUOUS
 10
2.480720
 20
7.843000
  0
VERTEX
  8
0
  6
CONTINUOUS
 10
2.358840
 20
7.781840
  0
VERTEX
  8
0
  6
CONTINUOUS
 10
2.237840
 20
7.714520
  0
VERTEX
  8
0
  6
CONTINUOUS
 10
2.117280
 20
7.641040
  0
VERTEX
  8
0
  6
CONTINUOUS
 10
1.997600
 20
7.560960
  0
VERTEX
  8
0
  6
CONTINUOUS
 10
1.878800
 20
7.474280
  0
VERTEX
  8
0
  6
CONTINUOUS
 10
1.819400
 20
7.428520
  0
VERTEX
  8
0
  6
CONTINUOUS
 10
1.812800
 20
7.426320
  0
VERTEX
  8
0
  6
CONTINUOUS
 10
1.225400
 20
8.063880
  0
VERTEX
  8
0
  6
CONTINUOUS
 10
1.225400
 20
8.072240
  0
SEQEND
  8
0
  0
POLYLINE
  8
0
  6
CONTINUOUS
 66
     1
 40
0.012320
 41
0.012320
  0
VERTEX
  8
0
  6
CONTINUOUS
 10
1.806640
 20
7.426320
  0
VERTEX
  8
0
  6
CONTINUOUS
 10
1.214840
 20
8.057720
  0
VERTEX
  8
0
  6
CONTINUOUS
 10
0.329560
 20
8.057720
  0
VERTEX
  8
0
  6
CONTINUOUS
 10
0.329560
 20
3.128400
  0
VERTEX
  8
0
  6
CONTINUOUS
 10
1.123320
 20
3.128400
  0
VERTEX
  8
0
  6
CONTINUOUS
 10
1.123320
 20
3.380520
  0
VERTEX
  8
0
  6
CONTINUOUS
 10
1.363120
 20
3.380520
  0
VERTEX
  8
0
  6
CONTINUOUS
 10
1.294920
 20
3.641000
  0
VERTEX
  8
0
  6
CONTINUOUS
 10
1.232880
 20
3.901480
  0
VERTEX
  8
0
  6
CONTINUOUS
 10
1.204720
 20
4.031280
  0
VERTEX
  8
0
  6
CONTINUOUS
 10
1.178320
 20
4.161080
  0
VERTEX
  8
0
  6
CONTINUOUS
 10
1.154560
 20
4.290880
  0
VERTEX
  8
0
  6
CONTINUOUS
 10
1.123320
 20
4.484920
  0
VERTEX
  8
0
  6
CONTINUOUS
 10
1.097800
 20
4.678960
  0
VERTEX
  8
0
  6
CONTINUOUS
 10
1.084600
 20
4.807880
  0
VERTEX
  8
0
  6
CONTINUOUS
 10
1.074480
 20
4.936360
  0
VERTEX
  8
0
  6
CONTINUOUS
 10
1.067880
 20
5.064840
  0
VERTEX
  8
0
  6
CONTINUOUS
 10
1.064360
 20
5.192880
  0
VERTEX
  8
0
  6
CONTINUOUS
 10
1.063920
 20
5.256680
  0
VERTEX
  8
0
  6
CONTINUOUS
 10
1.066560
 20
5.384280
  0
VERTEX
  8
0
  6
CONTINUOUS
 10
1.072720
 20
5.511440
  0
VERTEX
  8
0
  6
CONTINUOUS
 10
1.082840
 20
5.638600
  0
VERTEX
  8
0
  6
CONTINUOUS
 10
1.097360
 20
5.764880
  0
VERTEX
  8
0
  6
CONTINUOUS
 10
1.116720
 20
5.890720
  0
VERTEX
  8
0
  6
CONTINUOUS
 10
1.140040
 20
6.016120
  0
VERTEX
  8
0
  6
CONTINUOUS
 10
1.168640
 20
6.141520
  0
VERTEX
  8
0
  6
CONTINUOUS
 10
1.202520
 20
6.266040
  0
VERTEX
  8
0
  6
CONTINUOUS
 10
1.221000
 20
6.328080
  0
VERTEX
  8
0
  6
CONTINUOUS
 10
1.262360
 20
6.451720
  0
VERTEX
  8
0
  6
CONTINUOUS
 10
1.309000
 20
6.574920
  0
VERTEX
  8
0
  6
CONTINUOUS
 10
1.334520
 20
6.636520
  0
VERTEX
  8
0
  6
CONTINUOUS
 10
1.389960
 20
6.758840
  0
VERTEX
  8
0
  6
CONTINUOUS
 10
1.451120
 20
6.880720
  0
VERTEX
  8
0
  6
CONTINUOUS
 10
1.518440
 20
7.001720
  0
VERTEX
  8
0
  6
CONTINUOUS
 10
1.591920
 20
7.121840
  0
VERTEX
  8
0
  6
CONTINUOUS
 10
1.672000
 20
7.241960
  0
VERTEX
  8
0
  6
CONTINUOUS
 10
1.758680
 20
7.360760
  0
VERTEX
  8
0
  6
CONTINUOUS
 10
1.804440
 20
7.420160
  0
VERTEX
  8
0
  6
CONTINUOUS
 10
1.806640
 20
7.426320
  0
SEQEND
  8
0
  0
SOLID
  8
0
 62
    15
 10
2.404600
 20
2.615360
 11
3.045240
 21
2.254560
 12
2.427920
 22
2.357960
 13
3.068560
 23
1.997160
  0
POLYLINE
  8
0
  6
CONTINUOUS
 66
     1
 40
0.000000
 41
0.000000
  0
VERTEX
  8
0
  6
CONTINUOUS
 10
2.404600
 20
2.615360
  0
VERTEX
  8
0
  6
CONTINUOUS
 10
3.045240
 20
2.254560
  0
VERTEX
  8
0
  6
CONTINUOUS
 10
3.068560
 20
1.997160
  0
VERTEX
  8
0
  6
CONTINUOUS
 10
2.427920
 20
2.357960
  0
VERTEX
  8
0
  6
CONTINUOUS
 10
2.404600
 20
2.615360
  0
SEQEND
  8
0
  0
SOLID
  8
0
 62
    15
 10
2.961640
 20
4.861120
 11
3.602280
 21
4.499880
 12
2.814240
 22
4.620000
 13
3.455320
 23
4.259200
  0
POLYLINE
  8
0
  6
CONTINUOUS
 66
     1
 40
0.000000
 41
0.000000
  0
VERTEX
  8
0
  6
CONTINUOUS
 10
2.961640
 20
4.861120
  0
VERTEX
  8
0
  6
CONTINUOUS
 10
3.602280
 20
4.499880
  0
VERTEX
  8
0
  6
CONTINUOUS
 10
3.455320
 20
4.259200
  0
VERTEX
  8
0
  6
CONTINUOUS
 10
2.814240
 20
4.620000
  0
VERTEX
  8
0
  6
CONTINUOUS
 10
2.961640
 20
4.861120
  0
SEQEND
  8
0
  0
SOLID
  8
0
 62
    15
 10
2.814240
 20
4.620000
 11
3.455320
 21
4.259200
 12
2.691920
 22
4.376680
 13
3.332560
 23
4.015440
  0
POLYLINE
  8
0
  6
CONTINUOUS
 66
     1
 40
0.000000
 41
0.000000
  0
VERTEX
  8
0
  6
CONTINUOUS
 10
2.814240
 20
4.620000
  0
VERTEX
  8
0
  6
CONTINUOUS
 10
3.455320
 20
4.259200
  0
VERTEX
  8
0
  6
CONTINUOUS
 10
3.332560
 20
4.015440
  0
VERTEX
  8
0
  6
CONTINUOUS
 10
2.691920
 20
4.376680
  0
VERTEX
  8
0
  6
CONTINUOUS
 10
2.814240
 20
4.620000
  0
SEQEND
  8
0
  0
SOLID
  8
0
 62
    15
 10
2.691920
 20
4.376680
 11
3.332560
 21
4.015440
 12
2.592480
 22
4.130720
 13
3.233560
 23
3.769920
  0
POLYLINE
  8
0
  6
CONTINUOUS
 66
     1
 40
0.000000
 41
0.000000
  0
VERTEX
  8
0
  6
CONTINUOUS
 10
2.691920
 20
4.376680
  0
VERTEX
  8
0
  6
CONTINUOUS
 10
3.332560
 20
4.015440
  0
VERTEX
  8
0
  6
CONTINUOUS
 10
3.233560
 20
3.769920
  0
VERTEX
  8
0
  6
CONTINUOUS
 10
2.592480
 20
4.130720
  0
VERTEX
  8
0
  6
CONTINUOUS
 10
2.691920
 20
4.376680
  0
SEQEND
  8
0
  0
SOLID
  8
0
 62
    15
 10
2.592480
 20
4.130720
 11
3.233560
 21
3.769920
 12
2.515040
 22
3.882560
 13
3.156120
 23
3.521760
  0
POLYLINE
  8
0
  6
CONTINUOUS
 66
     1
 40
0.000000
 41
0.000000
  0
VERTEX
  8
0
  6
CONTINUOUS
 10
2.592480
 20
4.130720
  0
VERTEX
  8
0
  6
CONTINUOUS
 10
3.233560
 20
3.769920
  0
VERTEX
  8
0
  6
CONTINUOUS
 10
3.156120
 20
3.521760
  0
VERTEX
  8
0
  6
CONTINUOUS
 10
2.515040
 20
3.882560
  0
VERTEX
  8
0
  6
CONTINUOUS
 10
2.592480
 20
4.130720
  0
SEQEND
  8
0
  0
SOLID
  8
0
 62
    15
 10
2.515040
 20
3.882560
 11
3.156120
 21
3.521760
 12
2.457840
 22
3.632640
 13
3.098920
 23
3.271400
  0
POLYLINE
  8
0
  6
CONTINUOUS
 66
     1
 40
0.000000
 41
0.000000
  0
VERTEX
  8
0
  6
CONTINUOUS
 10
2.515040
 20
3.882560
  0
VERTEX
  8
0
  6
CONTINUOUS
 10
3.156120
 20
3.521760
  0
VERTEX
  8
0
  6
CONTINUOUS
 10
3.098920
 20
3.271400
  0
VERTEX
  8
0
  6
CONTINUOUS
 10
2.457840
 20
3.632640
  0
VERTEX
  8
0
  6
CONTINUOUS
 10
2.515040
 20
3.882560
  0
SEQEND
  8
0
  0
SOLID
  8
0
 62
    15
 10
2.457840
 20
3.632640
 11
3.098920
 21
3.271400
 12
2.420000
 22
3.380520
 13
3.060640
 23
3.019720
  0
POLYLINE
  8
0
  6
CONTINUOUS
 66
     1
 40
0.000000
 41
0.000000
  0
VERTEX
  8
0
  6
CONTINUOUS
 10
2.457840
 20
3.632640
  0
VERTEX
  8
0
  6
CONTINUOUS
 10
3.098920
 20
3.271400
  0
VERTEX
  8
0
  6
CONTINUOUS
 10
3.060640
 20
3.019720
  0
VERTEX
  8
0
  6
CONTINUOUS
 10
2.420000
 20
3.380520
  0
VERTEX
  8
0
  6
CONTINUOUS
 10
2.457840
 20
3.632640
  0
SEQEND
  8
0
  0
SOLID
  8
0
 62
    15
 10
2.420000
 20
3.380520
 11
3.060640
 21
3.019720
 12
2.399320
 22
3.127080
 13
3.039960
 23
2.765840
  0
POLYLINE
  8
0
  6
CONTINUOUS
 66
     1
 40
0.000000
 41
0.000000
  0
VERTEX
  8
0
  6
CONTINUOUS
 10
2.420000
 20
3.380520
  0
VERTEX
  8
0
  6
CONTINUOUS
 10
3.060640
 20
3.019720
  0
VERTEX
  8
0
  6
CONTINUOUS
 10
3.039960
 20
2.765840
  0
VERTEX
  8
0
  6
CONTINUOUS
 10
2.399320
 20
3.127080
  0
VERTEX
  8
0
  6
CONTINUOUS
 10
2.420000
 20
3.380520
  0
SEQEND
  8
0
  0
SOLID
  8
0
 62
    15
 10
2.399320
 20
3.127080
 11
3.039960
 21
2.765840
 12
2.394480
 22
2.871880
 13
3.035560
 23
2.511080
  0
POLYLINE
  8
0
  6
CONTINUOUS
 66
     1
 40
0.000000
 41
0.000000
  0
VERTEX
  8
0
  6
CONTINUOUS
 10
2.399320
 20
3.127080
  0
VERTEX
  8
0
  6
CONTINUOUS
 10
3.039960
 20
2.765840
  0
VERTEX
  8
0
  6
CONTINUOUS
 10
3.035560
 20
2.511080
  0
VERTEX
  8
0
  6
CONTINUOUS
 10
2.394480
 20
2.871880
  0
VERTEX
  8
0
  6
CONTINUOUS
 10
2.399320
 20
3.127080
  0
SEQEND
  8
0
  0
SOLID
  8
0
 62
    15
 10
2.394480
 20
2.871880
 11
3.035560
 21
2.511080
 12
2.404600
 22
2.615360
 13
3.045240
 23
2.254560
  0
POLYLINE
  8
0
  6
CONTINUOUS
 66
     1
 40
0.000000
 41
0.000000
  0
VERTEX
  8
0
  6
CONTINUOUS
 10
2.394480
 20
2.871880
  0
VERTEX
  8
0
  6
CONTINUOUS
 10
3.035560
 20
2.511080
  0
VERTEX
  8
0
  6
CONTINUOUS
 10
3.045240
 20
2.254560
  0
VERTEX
  8
0
  6
CONTINUOUS
 10
2.404600
 20
2.615360
  0
VERTEX
  8
0
  6
CONTINUOUS
 10
2.394480
 20
2.871880
  0
SEQEND
  8
0
  0
SOLID
  8
0
 62
    15
 10
3.135000
 20
5.099160
 11
3.775640
 21
4.737920
 12
2.961640
 22
4.861120
 13
3.602280
 23
4.499880
  0
POLYLINE
  8
0
  6
CONTINUOUS
 66
     1
 40
0.000000
 41
0.000000
  0
VERTEX
  8
0
  6
CONTINUOUS
 10
3.135000
 20
5.099160
  0
VERTEX
  8
0
  6
CONTINUOUS
 10
3.775640
 20
4.737920
  0
VERTEX
  8
0
  6
CONTINUOUS
 10
3.602280
 20
4.499880
  0
VERTEX
  8
0
  6
CONTINUOUS
 10
2.961640
 20
4.861120
  0
VERTEX
  8
0
  6
CONTINUOUS
 10
3.135000
 20
5.099160
  0
SEQEND
  8
0
  0
SOLID
  8
0
 62
    15
 10
2.427920
 20
2.357960
 11
3.068560
 21
1.997160
 12
2.463120
 22
2.099240
 13
3.103760
 23
1.738440
  0
POLYLINE
  8
0
  6
CONTINUOUS
 66
     1
 40
0.000000
 41
0.000000
  0
VERTEX
  8
0
  6
CONTINUOUS
 10
2.427920
 20
2.357960
  0
VERTEX
  8
0
  6
CONTINUOUS
 10
3.068560
 20
1.997160
  0
VERTEX
  8
0
  6
CONTINUOUS
 10
3.103760
 20
1.738440
  0
VERTEX
  8
0
  6
CONTINUOUS
 10
2.463120
 20
2.099240
  0
VERTEX
  8
0
  6
CONTINUOUS
 10
2.427920
 20
2.357960
  0
SEQEND
  8
0
  0
SOLID
  8
0
 62
    15
 10
2.463120
 20
2.099240
 11
3.103760
 21
1.738440
 12
2.508440
 22
1.840080
 13
3.149520
 23
1.479280
  0
POLYLINE
  8
0
  6
CONTINUOUS
 66
     1
 40
0.000000
 41
0.000000
  0
VERTEX
  8
0
  6
CONTINUOUS
 10
2.463120
 20
2.099240
  0
VERTEX
  8
0
  6
CONTINUOUS
 10
3.103760
 20
1.738440
  0
VERTEX
  8
0
  6
CONTINUOUS
 10
3.149520
 20
1.479280
  0
VERTEX
  8
0
  6
CONTINUOUS
 10
2.508440
 20
1.840080
  0
VERTEX
  8
0
  6
CONTINUOUS
 10
2.463120
 20
2.099240
  0
SEQEND
  8
0
  0
SOLID
  8
0
 62
    15
 10
2.508440
 20
1.840080
 11
3.149520
 21
1.479280
 12
2.563000
 22
1.580480
 13
3.203640
 23
1.219240
  0
POLYLINE
  8
0
  6
CONTINUOUS
 66
     1
 40
0.000000
 41
0.000000
  0
VERTEX
  8
0
  6
CONTINUOUS
 10
2.508440
 20
1.840080
  0
VERTEX
  8
0
  6
CONTINUOUS
 10
3.149520
 20
1.479280
  0
VERTEX
  8
0
  6
CONTINUOUS
 10
3.203640
 20
1.219240
  0
VERTEX
  8
0
  6
CONTINUOUS
 10
2.563000
 20
1.580480
  0
VERTEX
  8
0
  6
CONTINUOUS
 10
2.508440
 20
1.840080
  0
SEQEND
  8
0
  0
SOLID
  8
0
 62
    15
 10
2.563000
 20
1.580480
 11
3.203640
 21
1.219240
 12
2.693240
 22
1.059520
 13
3.333880
 23
0.698720
  0
POLYLINE
  8
0
  6
CONTINUOUS
 66
     1
 40
0.000000
 41
0.000000
  0
VERTEX
  8
0
  6
CONTINUOUS
 10
2.563000
 20
1.580480
  0
VERTEX
  8
0
  6
CONTINUOUS
 10
3.203640
 20
1.219240
  0
VERTEX
  8
0
  6
CONTINUOUS
 10
3.333880
 20
0.698720
  0
VERTEX
  8
0
  6
CONTINUOUS
 10
2.693240
 20
1.059520
  0
VERTEX
  8
0
  6
CONTINUOUS
 10
2.563000
 20
1.580480
  0
SEQEND
  8
0
  0
SOLID
  8
0
 62
    15
 10
2.693240
 20
1.059520
 11
3.333880
 21
0.698720
 12
2.453440
 22
1.059520
 13
3.094520
 23
0.698720
  0
POLYLINE
  8
0
  6
CONTINUOUS
 66
     1
 40
0.000000
 41
0.000000
  0
VERTEX
  8
0
  6
CONTINUOUS
 10
2.693240
 20
1.059520
  0
VERTEX
  8
0
  6
CONTINUOUS
 10
3.333880
 20
0.698720
  0
VERTEX
  8
0
  6
CONTINUOUS
 10
3.094520
 20
0.698720
  0
VERTEX
  8
0
  6
CONTINUOUS
 10
2.453440
 20
1.059520
  0
VERTEX
  8
0
  6
CONTINUOUS
 10
2.693240
 20
1.059520
  0
SEQEND
  8
0
  0
SOLID
  8
0
 62
    15
 10
2.453440
 20
0.807400
 11
3.094520
 21
0.446600
 12
1.659680
 22
0.807400
 13
2.300760
 23
0.446600
  0
POLYLINE
  8
0
  6
CONTINUOUS
 66
     1
 40
0.000000
 41
0.000000
  0
VERTEX
  8
0
  6
CONTINUOUS
 10
2.453440
 20
0.807400
  0
VERTEX
  8
0
  6
CONTINUOUS
 10
3.094520
 20
0.446600
  0
VERTEX
  8
0
  6
CONTINUOUS
 10
2.300760
 20
0.446600
  0
VERTEX
  8
0
  6
CONTINUOUS
 10
1.659680
 20
0.807400
  0
VERTEX
  8
0
  6
CONTINUOUS
 10
2.453440
 20
0.807400
  0
SEQEND
  8
0
  0
SOLID
  8
0
 62
    15
 10
2.453440
 20
1.059520
 11
3.094520
 21
0.698720
 12
2.453440
 22
0.807400
 13
3.094520
 23
0.446600
  0
POLYLINE
  8
0
  6
CONTINUOUS
 66
     1
 40
0.000000
 41
0.000000
  0
VERTEX
  8
0
  6
CONTINUOUS
 10
2.453440
 20
1.059520
  0
VERTEX
  8
0
  6
CONTINUOUS
 10
3.094520
 20
0.698720
  0
VERTEX
  8
0
  6
CONTINUOUS
 10
3.094520
 20
0.446600
  0
VERTEX
  8
0
  6
CONTINUOUS
 10
2.453440
 20
0.807400
  0
VERTEX
  8
0
  6
CONTINUOUS
 10
2.453440
 20
1.059520
  0
SEQEND
  8
0
  0
SOLID
  8
0
 62
    15
 10
2.545400
 20
5.736720
 11
3.186040
 21
5.375480
 12
3.136760
 22
5.105320
 13
3.777840
 23
4.744520
  0
POLYLINE
  8
0
  6
CONTINUOUS
 66
     1
 40
0.000000
 41
0.000000
  0
VERTEX
  8
0
  6
CONTINUOUS
 10
2.545400
 20
5.736720
  0
VERTEX
  8
0
  6
CONTINUOUS
 10
3.186040
 20
5.375480
  0
VERTEX
  8
0
  6
CONTINUOUS
 10
3.777840
 20
4.744520
  0
VERTEX
  8
0
  6
CONTINUOUS
 10
3.136760
 20
5.105320
  0
VERTEX
  8
0
  6
CONTINUOUS
 10
2.545400
 20
5.736720
  0
SEQEND
  8
0
  0
SOLID
  8
0
 62
    15
 10
3.136760
 20
5.105320
 11
3.777840
 21
4.744520
 12
3.135000
 22
5.099160
 13
3.775640
 23
4.737920
  0
POLYLINE
  8
0
  6
CONTINUOUS
 66
     1
 40
0.000000
 41
0.000000
  0
VERTEX
  8
0
  6
CONTINUOUS
 10
3.136760
 20
5.105320
  0
VERTEX
  8
0
  6
CONTINUOUS
 10
3.777840
 20
4.744520
  0
VERTEX
  8
0
  6
CONTINUOUS
 10
3.775640
 20
4.737920
  0
VERTEX
  8
0
  6
CONTINUOUS
 10
3.135000
 20
5.099160
  0
VERTEX
  8
0
  6
CONTINUOUS
 10
3.136760
 20
5.105320
  0
SEQEND
  8
0
  0
POLYLINE
  8
0
  6
CONTINUOUS
 66
     1
 40
0.000000
 41
0.000000
  0
VERTEX
  8
0
  6
CONTINUOUS
 10
3.135000
 20
5.099160
  0
VERTEX
  8
0
  6
CONTINUOUS
 10
2.961640
 20
4.861120
  0
VERTEX
  8
0
  6
CONTINUOUS
 10
2.814240
 20
4.620000
  0
VERTEX
  8
0
  6
CONTINUOUS
 10
2.691920
 20
4.376680
  0
VERTEX
  8
0
  6
CONTINUOUS
 10
2.592480
 20
4.130720
  0
VERTEX
  8
0
  6
CONTINUOUS
 10
2.515040
 20
3.882560
  0
VERTEX
  8
0
  6
CONTINUOUS
 10
2.457840
 20
3.632640
  0
VERTEX
  8
0
  6
CONTINUOUS
 10
2.420000
 20
3.380520
  0
VERTEX
  8
0
  6
CONTINUOUS
 10
2.399320
 20
3.127080
  0
VERTEX
  8
0
  6
CONTINUOUS
 10
2.394480
 20
2.871880
  0
VERTEX
  8
0
  6
CONTINUOUS
 10
2.404600
 20
2.615360
  0
VERTEX
  8
0
  6
CONTINUOUS
 10
2.427920
 20
2.357960
  0
VERTEX
  8
0
  6
CONTINUOUS
 10
2.463120
 20
2.099240
  0
VERTEX
  8
0
  6
CONTINUOUS
 10
2.508440
 20
1.840080
  0
VERTEX
  8
0
  6
CONTINUOUS
 10
2.563000
 20
1.580480
  0
VERTEX
  8
0
  6
CONTINUOUS
 10
2.693240
 20
1.059520
  0
VERTEX
  8
0
  6
CONTINUOUS
 10
2.453440
 20
1.059520
  0
VERTEX
  8
0
  6
CONTINUOUS
 10
2.453440
 20
0.807400
  0
VERTEX
  8
0
  6
CONTINUOUS
 10
1.659680
 20
0.807400
  0
VERTEX
  8
0
  6
CONTINUOUS
 10
1.659680
 20
5.736720
  0
VERTEX
  8
0
  6
CONTINUOUS
 10
2.545400
 20
5.736720
  0
VERTEX
  8
0
  6
CONTINUOUS
 10
3.136760
 20
5.105320
  0
VERTEX
  8
0
  6
CONTINUOUS
 10
3.135000
 20
5.099160
  0
SEQEND
  8
0
  0
SOLID
  8
0
 62
    15
 10
5.371080
 20
5.844080
 11
6.009080
 21
5.477560
 12
5.115880
 22
5.839240
 13
5.754320
 23
5.473160
  0
POLYLINE
  8
0
  6
CONTINUOUS
 66
     1
 40
0.000000
 41
0.000000
  0
VERTEX
  8
0
  6
CONTINUOUS
 10
5.371080
 20
5.844080
  0
VERTEX
  8
0
  6
CONTINUOUS
 10
6.009080
 20
5.477560
  0
VERTEX
  8
0
  6
CONTINUOUS
 10
5.754320
 20
5.473160
  0
VERTEX
  8
0
  6
CONTINUOUS
 10
5.115880
 20
5.839240
  0
VERTEX
  8
0
  6
CONTINUOUS
 10
5.371080
 20
5.844080
  0
SEQEND
  8
0
  0
SOLID
  8
0
 62
    15
 10
7.435560
 20
5.785120
 11
8.073560
 21
5.418600
 12
7.183440
 22
5.785120
 13
7.821440
 23
5.418600
  0
POLYLINE
  8
0
  6
CONTINUOUS
 66
     1
 40
0.000000
 41
0.000000
  0
VERTEX
  8
0
  6
CONTINUOUS
 10
7.435560
 20
5.785120
  0
VERTEX
  8
0
  6
CONTINUOUS
 10
8.073560
 20
5.418600
  0
VERTEX
  8
0
  6
CONTINUOUS
 10
7.821440
 20
5.418600
  0
VERTEX
  8
0
  6
CONTINUOUS
 10
7.183440
 20
5.785120
  0
VERTEX
  8
0
  6
CONTINUOUS
 10
7.435560
 20
5.785120
  0
SEQEND
  8
0
  0
SOLID
  8
0
 62
    15
 10
7.183440
 20
5.785120
 11
7.821440
 21
5.418600
 12
7.183440
 22
5.545320
 13
7.821440
 23
5.179240
  0
POLYLINE
  8
0
  6
CONTINUOUS
 66
     1
 40
0.000000
 41
0.000000
  0
VERTEX
  8
0
  6
CONTINUOUS
 10
7.183440
 20
5.785120
  0
VERTEX
  8
0
  6
CONTINUOUS
 10
7.821440
 20
5.418600
  0
VERTEX
  8
0
  6
CONTINUOUS
 10
7.821440
 20
5.179240
  0
VERTEX
  8
0
  6
CONTINUOUS
 10
7.183440
 20
5.545320
  0
VERTEX
  8
0
  6
CONTINUOUS
 10
7.183440
 20
5.785120
  0
SEQEND
  8
0
  0
SOLID
  8
0
 62
    15
 10
7.183440
 20
5.545320
 11
7.821440
 21
5.179240
 12
6.662480
 22
5.675560
 13
7.300920
 23
5.309480
  0
POLYLINE
  8
0
  6
CONTINUOUS
 66
     1
 40
0.000000
 41
0.000000
  0
VERTEX
  8
0
  6
CONTINUOUS
 10
7.183440
 20
5.545320
  0
VERTEX
  8
0
  6
CONTINUOUS
 10
7.821440
 20
5.179240
  0
VERTEX
  8
0
  6
CONTINUOUS
 10
7.300920
 20
5.309480
  0
VERTEX
  8
0
  6
CONTINUOUS
 10
6.662480
 20
5.675560
  0
VERTEX
  8
0
  6
CONTINUOUS
 10
7.183440
 20
5.545320
  0
SEQEND
  8
0
  0
SOLID
  8
0
 62
    15
 10
6.662480
 20
5.675560
 11
7.300920
 21
5.309480
 12
6.402880
 22
5.730120
 13
7.040880
 23
5.364040
  0
POLYLINE
  8
0
  6
CONTINUOUS
 66
     1
 40
0.000000
 41
0.000000
  0
VERTEX
  8
0
  6
CONTINUOUS
 10
6.662480
 20
5.675560
  0
VERTEX
  8
0
  6
CONTINUOUS
 10
7.300920
 20
5.309480
  0
VERTEX
  8
0
  6
CONTINUOUS
 10
7.040880
 20
5.364040
  0
VERTEX
  8
0
  6
CONTINUOUS
 10
6.402880
 20
5.730120
  0
VERTEX
  8
0
  6
CONTINUOUS
 10
6.662480
 20
5.675560
  0
SEQEND
  8
0
  0
SOLID
  8
0
 62
    15
 10
6.402880
 20
5.730120
 11
7.040880
 21
5.364040
 12
6.143720
 22
5.775440
 13
6.781720
 23
5.409360
  0
POLYLINE
  8
0
  6
CONTINUOUS
 66
     1
 40
0.000000
 41
0.000000
  0
VERTEX
  8
0
  6
CONTINUOUS
 10
6.402880
 20
5.730120
  0
VERTEX
  8
0
  6
CONTINUOUS
 10
7.040880
 20
5.364040
  0
VERTEX
  8
0
  6
CONTINUOUS
 10
6.781720
 20
5.409360
  0
VERTEX
  8
0
  6
CONTINUOUS
 10
6.143720
 20
5.775440
  0
VERTEX
  8
0
  6
CONTINUOUS
 10
6.402880
 20
5.730120
  0
SEQEND
  8
0
  0
SOLID
  8
0
 62
    15
 10
6.143720
 20
5.775440
 11
6.781720
 21
5.409360
 12
5.885000
 22
5.810640
 13
6.523000
 23
5.444560
  0
POLYLINE
  8
0
  6
CONTINUOUS
 66
     1
 40
0.000000
 41
0.000000
  0
VERTEX
  8
0
  6
CONTINUOUS
 10
6.143720
 20
5.775440
  0
VERTEX
  8
0
  6
CONTINUOUS
 10
6.781720
 20
5.409360
  0
VERTEX
  8
0
  6
CONTINUOUS
 10
6.523000
 20
5.444560
  0
VERTEX
  8
0
  6
CONTINUOUS
 10
5.885000
 20
5.810640
  0
VERTEX
  8
0
  6
CONTINUOUS
 10
6.143720
 20
5.775440
  0
SEQEND
  8
0
  0
SOLID
  8
0
 62
    15
 10
5.885000
 20
5.810640
 11
6.523000
 21
5.444560
 12
5.627600
 22
5.833960
 13
6.265600
 23
5.467880
  0
POLYLINE
  8
0
  6
CONTINUOUS
 66
     1
 40
0.000000
 41
0.000000
  0
VERTEX
  8
0
  6
CONTINUOUS
 10
5.885000
 20
5.810640
  0
VERTEX
  8
0
  6
CONTINUOUS
 10
6.523000
 20
5.444560
  0
VERTEX
  8
0
  6
CONTINUOUS
 10
6.265600
 20
5.467880
  0
VERTEX
  8
0
  6
CONTINUOUS
 10
5.627600
 20
5.833960
  0
VERTEX
  8
0
  6
CONTINUOUS
 10
5.885000
 20
5.810640
  0
SEQEND
  8
0
  0
SOLID
  8
0
 62
    15
 10
5.627600
 20
5.833960
 11
6.265600
 21
5.467880
 12
5.371080
 22
5.844080
 13
6.009080
 23
5.477560
  0
POLYLINE
  8
0
  6
CONTINUOUS
 66
     1
 40
0.000000
 41
0.000000
  0
VERTEX
  8
0
  6
CONTINUOUS
 10
5.627600
 20
5.833960
  0
VERTEX
  8
0
  6
CONTINUOUS
 10
6.265600
 20
5.467880
  0
VERTEX
  8
0
  6
CONTINUOUS
 10
6.009080
 20
5.477560
  0
VERTEX
  8
0
  6
CONTINUOUS
 10
5.371080
 20
5.844080
  0
VERTEX
  8
0
  6
CONTINUOUS
 10
5.627600
 20
5.833960
  0
SEQEND
  8
0
  0
SOLID
  8
0
 62
    15
 10
7.435560
 20
6.578880
 11
8.073560
 21
6.212360
 12
7.435560
 22
5.785120
 13
8.073560
 23
5.418600
  0
POLYLINE
  8
0
  6
CONTINUOUS
 66
     1
 40
0.000000
 41
0.000000
  0
VERTEX
  8
0
  6
CONTINUOUS
 10
7.435560
 20
6.578880
  0
VERTEX
  8
0
  6
CONTINUOUS
 10
8.073560
 20
6.212360
  0
VERTEX
  8
0
  6
CONTINUOUS
 10
8.073560
 20
5.418600
  0
VERTEX
  8
0
  6
CONTINUOUS
 10
7.435560
 20
5.785120
  0
VERTEX
  8
0
  6
CONTINUOUS
 10
7.435560
 20
6.578880
  0
SEQEND
  8
0
  0
SOLID
  8
0
 62
    15
 10
5.115880
 20
5.839240
 11
5.754320
 21
5.473160
 12
4.862440
 22
5.819000
 13
5.500440
 23
5.452480
  0
POLYLINE
  8
0
  6
CONTINUOUS
 66
     1
 40
0.000000
 41
0.000000
  0
VERTEX
  8
0
  6
CONTINUOUS
 10
5.115880
 20
5.839240
  0
VERTEX
  8
0
  6
CONTINUOUS
 10
5.754320
 20
5.473160
  0
VERTEX
  8
0
  6
CONTINUOUS
 10
5.500440
 20
5.452480
  0
VERTEX
  8
0
  6
CONTINUOUS
 10
4.862440
 20
5.819000
  0
VERTEX
  8
0
  6
CONTINUOUS
 10
5.115880
 20
5.839240
  0
SEQEND
  8
0
  0
SOLID
  8
0
 62
    15
 10
4.862440
 20
5.819000
 11
5.500440
 21
5.452480
 12
4.610320
 22
5.780720
 13
5.248760
 23
5.414200
  0
POLYLINE
  8
0
  6
CONTINUOUS
 66
     1
 40
0.000000
 41
0.000000
  0
VERTEX
  8
0
  6
CONTINUOUS
 10
4.862440
 20
5.819000
  0
VERTEX
  8
0
  6
CONTINUOUS
 10
5.500440
 20
5.452480
  0
VERTEX
  8
0
  6
CONTINUOUS
 10
5.248760
 20
5.414200
  0
VERTEX
  8
0
  6
CONTINUOUS
 10
4.610320
 20
5.780720
  0
VERTEX
  8
0
  6
CONTINUOUS
 10
4.862440
 20
5.819000
  0
SEQEND
  8
0
  0
SOLID
  8
0
 62
    15
 10
4.610320
 20
5.780720
 11
5.248760
 21
5.414200
 12
4.360400
 22
5.723520
 13
4.998400
 23
5.357000
  0
POLYLINE
  8
0
  6
CONTINUOUS
 66
     1
 40
0.000000
 41
0.000000
  0
VERTEX
  8
0
  6
CONTINUOUS
 10
4.610320
 20
5.780720
  0
VERTEX
  8
0
  6
CONTINUOUS
 10
5.248760
 20
5.414200
  0
VERTEX
  8
0
  6
CONTINUOUS
 10
4.998400
 20
5.357000
  0
VERTEX
  8
0
  6
CONTINUOUS
 10
4.360400
 20
5.723520
  0
VERTEX
  8
0
  6
CONTINUOUS
 10
4.610320
 20
5.780720
  0
SEQEND
  8
0
  0
SOLID
  8
0
 62
    15
 10
4.360400
 20
5.723520
 11
4.998400
 21
5.357000
 12
4.112240
 22
5.646080
 13
4.750240
 23
5.279560
  0
POLYLINE
  8
0
  6
CONTINUOUS
 66
     1
 40
0.000000
 41
0.000000
  0
VERTEX
  8
0
  6
CONTINUOUS
 10
4.360400
 20
5.723520
  0
VERTEX
  8
0
  6
CONTINUOUS
 10
4.998400
 20
5.357000
  0
VERTEX
  8
0
  6
CONTINUOUS
 10
4.750240
 20
5.279560
  0
VERTEX
  8
0
  6
CONTINUOUS
 10
4.112240
 20
5.646080
  0
VERTEX
  8
0
  6
CONTINUOUS
 10
4.360400
 20
5.723520
  0
SEQEND
  8
0
  0
SOLID
  8
0
 62
    15
 10
4.112240
 20
5.646080
 11
4.750240
 21
5.279560
 12
3.866280
 22
5.546640
 13
4.504720
 23
5.180560
  0
POLYLINE
  8
0
  6
CONTINUOUS
 66
     1
 40
0.000000
 41
0.000000
  0
VERTEX
  8
0
  6
CONTINUOUS
 10
4.112240
 20
5.646080
  0
VERTEX
  8
0
  6
CONTINUOUS
 10
4.750240
 20
5.279560
  0
VERTEX
  8
0
  6
CONTINUOUS
 10
4.504720
 20
5.180560
  0
VERTEX
  8
0
  6
CONTINUOUS
 10
3.866280
 20
5.546640
  0
VERTEX
  8
0
  6
CONTINUOUS
 10
4.112240
 20
5.646080
  0
SEQEND
  8
0
  0
SOLID
  8
0
 62
    15
 10
3.866280
 20
5.546640
 11
4.504720
 21
5.180560
 12
3.622960
 22
5.424320
 13
4.260960
 23
5.057800
  0
POLYLINE
  8
0
  6
CONTINUOUS
 66
     1
 40
0.000000
 41
0.000000
  0
VERTEX
  8
0
  6
CONTINUOUS
 10
3.866280
 20
5.546640
  0
VERTEX
  8
0
  6
CONTINUOUS
 10
4.504720
 20
5.180560
  0
VERTEX
  8
0
  6
CONTINUOUS
 10
4.260960
 20
5.057800
  0
VERTEX
  8
0
  6
CONTINUOUS
 10
3.622960
 20
5.424320
  0
VERTEX
  8
0
  6
CONTINUOUS
 10
3.866280
 20
5.546640
  0
SEQEND
  8
0
  0
SOLID
  8
0
 62
    15
 10
3.622960
 20
5.424320
 11
4.260960
 21
5.057800
 12
3.381840
 22
5.276920
 13
4.020280
 23
4.910840
  0
POLYLINE
  8
0
  6
CONTINUOUS
 66
     1
 40
0.000000
 41
0.000000
  0
VERTEX
  8
0
  6
CONTINUOUS
 10
3.622960
 20
5.424320
  0
VERTEX
  8
0
  6
CONTINUOUS
 10
4.260960
 20
5.057800
  0
VERTEX
  8
0
  6
CONTINUOUS
 10
4.020280
 20
4.910840
  0
VERTEX
  8
0
  6
CONTINUOUS
 10
3.381840
 20
5.276920
  0
VERTEX
  8
0
  6
CONTINUOUS
 10
3.622960
 20
5.424320
  0
SEQEND
  8
0
  0
SOLID
  8
0
 62
    15
 10
3.381840
 20
5.276920
 11
4.020280
 21
4.910840
 12
3.143800
 22
5.104000
 13
3.782240
 23
4.737480
  0
POLYLINE
  8
0
  6
CONTINUOUS
 66
     1
 40
0.000000
 41
0.000000
  0
VERTEX
  8
0
  6
CONTINUOUS
 10
3.381840
 20
5.276920
  0
VERTEX
  8
0
  6
CONTINUOUS
 10
4.020280
 20
4.910840
  0
VERTEX
  8
0
  6
CONTINUOUS
 10
3.782240
 20
4.737480
  0
VERTEX
  8
0
  6
CONTINUOUS
 10
3.143800
 20
5.104000
  0
VERTEX
  8
0
  6
CONTINUOUS
 10
3.381840
 20
5.276920
  0
SEQEND
  8
0
  0
POLYLINE
  8
0
  6
CONTINUOUS
 66
     1
 40
0.000000
 41
0.000000
  0
VERTEX
  8
0
  6
CONTINUOUS
 10
7.435560
 20
6.578880
  0
VERTEX
  8
0
  6
CONTINUOUS
 10
7.435560
 20
5.785120
  0
VERTEX
  8
0
  6
CONTINUOUS
 10
7.183440
 20
5.785120
  0
VERTEX
  8
0
  6
CONTINUOUS
 10
7.183440
 20
5.545320
  0
VERTEX
  8
0
  6
CONTINUOUS
 10
6.662480
 20
5.675560
  0
VERTEX
  8
0
  6
CONTINUOUS
 10
6.402880
 20
5.730120
  0
VERTEX
  8
0
  6
CONTINUOUS
 10
6.143720
 20
5.775440
  0
VERTEX
  8
0
  6
CONTINUOUS
 10
5.885000
 20
5.810640
  0
VERTEX
  8
0
  6
CONTINUOUS
 10
5.627600
 20
5.833960
  0
VERTEX
  8
0
  6
CONTINUOUS
 10
5.371080
 20
5.844080
  0
VERTEX
  8
0
  6
CONTINUOUS
 10
5.115880
 20
5.839240
  0
VERTEX
  8
0
  6
CONTINUOUS
 10
4.862440
 20
5.819000
  0
VERTEX
  8
0
  6
CONTINUOUS
 10
4.610320
 20
5.780720
  0
VERTEX
  8
0
  6
CONTINUOUS
 10
4.360400
 20
5.723520
  0
VERTEX
  8
0
  6
CONTINUOUS
 10
4.112240
 20
5.646080
  0
VERTEX
  8
0
  6
CONTINUOUS
 10
3.866280
 20
5.546640
  0
VERTEX
  8
0
  6
CONTINUOUS
 10
3.622960
 20
5.424320
  0
VERTEX
  8
0
  6
CONTINUOUS
 10
3.381840
 20
5.276920
  0
VERTEX
  8
0
  6
CONTINUOUS
 10
3.143800
 20
5.104000
  0
VERTEX
  8
0
  6
CONTINUOUS
 10
2.549360
 20
5.739360
  0
VERTEX
  8
0
  6
CONTINUOUS
 10
2.549360
 20
6.576240
  0
VERTEX
  8
0
  6
CONTINUOUS
 10
7.431160
 20
6.576240
  0
VERTEX
  8
0
  6
CONTINUOUS
 10
7.435560
 20
6.578880
  0
SEQEND
  8
0
  0
TEXT
  8
0
 10
3.670480
 20
0.636680
 40
0.137988
  1
BA  309
 41
1.000000
  7
SN0
 71
     0
 72
     5
 11
4.259404
 21
0.636680
  0
TEXT
  8
0
 10
3.583800
 20
0.444840
 40
0.137988
  1
1-1/2" x 5"
 41
1.000000
  7
SN0
 71
     0
 72
     5
 11
4.344511
 21
0.444840
  0
ENDSEC
  0
EOF
